  0
SECTION
  2
HEADER
  9
$ACADVER
  1
AC1009
  9
$DWGCODEPAGE
  3
ansi_1252
  9
$INSBASE
 10
0.0
 20
0.0
 30
0.0
  9
$EXTMIN
 10
-69.9189453896538
 20
-59.3764841224087
 30
0.0
  9
$EXTMAX
 10
71.26797071972877
 20
67.54113256141162
 30
0.0
  9
$LIMMIN
 10
0.0
 20
0.0
  9
$LIMMAX
 10
12.0
 20
9.0
  9
$ORTHOMODE
 70
     0
  9
$REGENMODE
 70
     1
  9
$FILLMODE
 70
     1
  9
$QTEXTMODE
 70
     0
  9
$MIRRTEXT
 70
     1
  9
$DRAGMODE
 70
     2
  9
$LTSCALE
 40
1.0
  9
$OSMODE
 70
    37
  9
$ATTMODE
 70
     1
  9
$TEXTSIZE
 40
0.2
  9
$TRACEWID
 40
0.05
  9
$TEXTSTYLE
  7
STANDARD
  9
$CLAYER
  8
0
  9
$CELTYPE
  6
BYLAYER
  9
$CECOLOR
 62
   256
  9
$DIMSCALE
 40
1.0
  9
$DIMASZ
 40
0.18
  9
$DIMEXO
 40
0.0625
  9
$DIMDLI
 40
0.38
  9
$DIMRND
 40
0.0
  9
$DIMDLE
 40
0.0
  9
$DIMEXE
 40
0.18
  9
$DIMTP
 40
0.0
  9
$DIMTM
 40
0.0
  9
$DIMTXT
 40
0.18
  9
$DIMCEN
 40
0.09
  9
$DIMTSZ
 40
0.0
  9
$DIMTOL
 70
     0
  9
$DIMLIM
 70
     0
  9
$DIMTIH
 70
     1
  9
$DIMTOH
 70
     1
  9
$DIMSE1
 70
     0
  9
$DIMSE2
 70
     0
  9
$DIMTAD
 70
     0
  9
$DIMZIN
 70
     0
  9
$DIMBLK
  1

  9
$DIMASO
 70
     1
  9
$DIMSHO
 70
     1
  9
$DIMPOST
  1

  9
$DIMAPOST
  1

  9
$DIMALT
 70
     0
  9
$DIMALTD
 70
     2
  9
$DIMALTF
 40
25.4
  9
$DIMLFAC
 40
1.0
  9
$DIMTOFL
 70
     0
  9
$DIMTVP
 40
0.0
  9
$DIMTIX
 70
     0
  9
$DIMSOXD
 70
     0
  9
$DIMSAH
 70
     0
  9
$DIMBLK1
  1

  9
$DIMBLK2
  1

  9
$DIMSTYLE
  2
STANDARD
  9
$DIMCLRD
 70
     0
  9
$DIMCLRE
 70
     0
  9
$DIMCLRT
 70
     0
  9
$DIMTFAC
 40
1.0
  9
$DIMGAP
 40
0.09
  9
$LUNITS
 70
     2
  9
$LUPREC
 70
     4
  9
$SKETCHINC
 40
0.1
  9
$FILLETRAD
 40
0.5
  9
$AUNITS
 70
     0
  9
$AUPREC
 70
     0
  9
$MENU
  1
.
  9
$ELEVATION
 40
0.0
  9
$PELEVATION
 40
0.0
  9
$THICKNESS
 40
0.0
  9
$LIMCHECK
 70
     0
  9
$CHAMFERA
 40
0.0
  9
$CHAMFERB
 40
0.0
  9
$SKPOLY
 70
     0
  9
$TDCREATE
 40
2454910.5
  9
$TDUPDATE
 40
2457078.369197778
  9
$TDINDWG
 40
0.0000000116
  9
$TDUSRTIMER
 40
0.0000000116
  9
$USRTIMER
 70
     1
  9
$ANGBASE
 50
0.0
  9
$ANGDIR
 70
     0
  9
$PDMODE
 70
     0
  9
$PDSIZE
 40
0.0
  9
$PLINEWID
 40
0.0
  9
$COORDS
 70
     1
  9
$SPLFRAME
 70
     0
  9
$SPLINETYPE
 70
     6
  9
$SPLINESEGS
 70
     8
  9
$ATTDIA
 70
     0
  9
$ATTREQ
 70
     1
  9
$HANDLING
 70
     1
  9
$HANDSEED
  5
D10
  9
$SURFTAB1
 70
     6
  9
$SURFTAB2
 70
     6
  9
$SURFTYPE
 70
     6
  9
$SURFU
 70
     6
  9
$SURFV
 70
     6
  9
$UCSNAME
  2

  9
$UCSORG
 10
0.0
 20
0.0
 30
0.0
  9
$UCSXDIR
 10
1.0
 20
0.0
 30
0.0
  9
$UCSYDIR
 10
0.0
 20
1.0
 30
0.0
  9
$PUCSNAME
  2

  9
$PUCSORG
 10
0.0
 20
0.0
 30
0.0
  9
$PUCSXDIR
 10
1.0
 20
0.0
 30
0.0
  9
$PUCSYDIR
 10
0.0
 20
1.0
 30
0.0
  9
$USERI1
 70
     0
  9
$USERI2
 70
     0
  9
$USERI3
 70
     0
  9
$USERI4
 70
     0
  9
$USERI5
 70
     0
  9
$USERR1
 40
0.0
  9
$USERR2
 40
0.0
  9
$USERR3
 40
0.0
  9
$USERR4
 40
0.0
  9
$USERR5
 40
0.0
  9
$WORLDVIEW
 70
     1
  9
$SHADEDGE
 70
     3
  9
$SHADEDIF
 70
    70
  9
$TILEMODE
 70
     1
  9
$MAXACTVP
 70
    64
  9
$PLIMCHECK
 70
     0
  9
$PEXTMIN
 10
1.000000000000000E+20
 20
1.000000000000000E+20
 30
1.000000000000000E+20
  9
$PEXTMAX
 10
-1.000000000000000E+20
 20
-1.000000000000000E+20
 30
-1.000000000000000E+20
  9
$PLIMMIN
 10
0.0
 20
0.0
  9
$PLIMMAX
 10
12.0
 20
9.0
  9
$UNITMODE
 70
     0
  9
$VISRETAIN
 70
     1
  9
$PLINEGEN
 70
     0
  9
$PSLTSCALE
 70
     1
  0
ENDSEC
  0
SECTION
  2
TABLES
  0
TABLE
  2
VPORT
 70
     1
  0
VPORT
  2
*ACTIVE
 70
     0
 10
0.0
 20
0.0
 11
1.0
 21
1.0
 12
10.42990654205607
 22
4.5
 13
0.0
 23
0.0
 14
0.5
 24
0.5
 15
0.5
 25
0.5
 16
0.0
 26
0.0
 36
1.0
 17
0.0
 27
0.0
 37
0.0
 40
9.0
 41
1.972972972850329
 42
50.0
 43
0.0
 44
0.0
 50
0.0
 51
0.0
 71
     0
 72
   100
 73
     1
 74
     3
 75
     0
 76
     0
 77
     0
 78
     0
  0
ENDTAB
  0
TABLE
  2
LTYPE
 70
     2
  0
LTYPE
  2
CONTINUOUS
 70
     0
  3
Solid line
 72
    65
 73
     0
 40
0.0
  0
LTYPE
  2
CONTINUOUS2
 70
     0
  3
Solid Line
 72
    65
 73
     0
 40
0.0
  0
ENDTAB
  0
TABLE
  2
LAYER
 70
     2
  0
LAYER
  2
0
 70
     0
 62
     7
  6
CONTINUOUS
  0
LAYER
  2
LAYER_1
 70
     0
 62
    18
  6
CONTINUOUS
  0
ENDTAB
  0
TABLE
  2
STYLE
 70
     1
  0
STYLE
  2
STANDARD
 70
     0
 40
0.0
 41
1.0
 50
0.0
 71
     0
 42
0.2
  3
txt
  4

  0
ENDTAB
  0
TABLE
  2
VIEW
 70
     0
  0
ENDTAB
  0
TABLE
  2
UCS
 70
     0
  0
ENDTAB
  0
TABLE
  2
APPID
 70
     1
  0
APPID
  2
ACAD
 70
     0
  0
ENDTAB
  0
TABLE
  2
DIMSTYLE
 70
     1
  0
DIMSTYLE
  2
STANDARD
 70
     0
  3

  4

  5

  6

  7

 40
1.0
 41
0.18
 42
0.0625
 43
0.38
 44
0.18
 45
0.0
 46
0.0
 47
0.0
 48
0.0
140
0.18
141
0.09
142
0.0
143
25.4
144
1.0
145
0.0
146
1.0
147
0.09
 71
     0
 72
     0
 73
     1
 74
     1
 75
     0
 76
     0
 77
     0
 78
     0
170
     0
171
     2
172
     0
173
     0
174
     0
175
     0
176
     0
177
     0
178
     0
  0
ENDTAB
  0
ENDSEC
  0
SECTION
  2
BLOCKS
  0
BLOCK
  8
0
  2
$MODEL_SPACE
 70
     0
 10
0.0
 20
0.0
 30
0.0
  3
$MODEL_SPACE
  1

  0
ENDBLK
  5
21
  8
0
  0
BLOCK
 67
     1
  8
0
  2
$PAPER_SPACE
 70
     0
 10
0.0
 20
0.0
 30
0.0
  3
$PAPER_SPACE
  1

  0
ENDBLK
  5
1D
 67
     1
  8
0
  0
ENDSEC
  0
SECTION
  2
ENTITIES
  0
POLYLINE
  5
70
  8
LAYER_1
 66
     1
 10
0.0
 20
0.0
 30
0.0
 70
     1
  0
VERTEX
  5
8E
  8
LAYER_1
 10
-27.89999812841415
 20
-59.34871620281958
 30
0.0
  0
VERTEX
  5
8F
  8
LAYER_1
 10
-27.63749811798334
 20
-59.3764841224087
 30
0.0
  0
VERTEX
  5
90
  8
LAYER_1
 10
62.81250547617674
 20
-59.36227495297467
 30
0.0
  0
VERTEX
  5
91
  8
LAYER_1
 10
63.26250549405813
 20
-59.25975414158487
 30
0.0
  0
VERTEX
  5
92
  8
LAYER_1
 10
63.77171712269054
 20
-59.13388616039973
 30
0.0
  0
VERTEX
  5
93
  8
LAYER_1
 10
64.26298954071754
 20
-58.99253693557493
 30
0.0
  0
VERTEX
  5
94
  8
LAYER_1
 10
64.73507094031675
 20
-58.83621134749856
 30
0.0
  0
VERTEX
  5
95
  8
LAYER_1
 10
65.18670951366582
 20
-58.66541427655871
 30
0.0
  0
VERTEX
  5
96
  8
LAYER_1
 10
65.61665345294236
 20
-58.48065060314347
 30
0.0
  0
VERTEX
  5
97
  8
LAYER_1
 10
66.02365095032401
 20
-58.28242520764096
 30
0.0
  0
VERTEX
  5
98
  8
LAYER_1
 10
66.4064501979884
 20
-58.07124297043924
 30
0.0
  0
VERTEX
  5
99
  8
LAYER_1
 10
66.7637993881132
 20
-57.84760877192642
 30
0.0
  0
VERTEX
  5
9A
  8
LAYER_1
 10
67.34807348287501
 20
-57.45771820993475
 30
0.0
  0
VERTEX
  5
9B
  8
LAYER_1
 10
67.6003360053752
 20
-57.26249929517508
 30
0.0
  0
VERTEX
  5
9C
  8
LAYER_1
 10
68.3961634197396
 20
-56.47499926388264
 30
0.0
  0
VERTEX
  5
9D
  8
LAYER_1
 10
68.64317458793958
 20
-56.22269383340336
 30
0.0
  0
VERTEX
  5
9E
  8
LAYER_1
 10
68.87817385801597
 20
-55.96640429083023
 30
0.0
  0
VERTEX
  5
9F
  8
LAYER_1
 10
69.10136978471644
 20
-55.7057556007189
 30
0.0
  0
VERTEX
  5
A0
  8
LAYER_1
 10
69.31297092278872
 20
-55.44037272762507
 30
0.0
  0
VERTEX
  5
A1
  8
LAYER_1
 10
69.51318582698053
 20
-55.16988063610439
 30
0.0
  0
VERTEX
  5
A2
  8
LAYER_1
 10
69.70222305203956
 20
-54.89390429071254
 30
0.0
  0
VERTEX
  5
A3
  8
LAYER_1
 10
69.88029115271354
 20
-54.61206865600519
 30
0.0
  0
VERTEX
  5
A4
  8
LAYER_1
 10
70.04759868375018
 20
-54.32399869653803
 30
0.0
  0
VERTEX
  5
A5
  8
LAYER_1
 10
70.20435419989718
 20
-54.02931937686671
 30
0.0
  0
VERTEX
  5
A6
  8
LAYER_1
 10
70.35076625590227
 20
-53.72765566154693
 30
0.0
  0
VERTEX
  5
A7
  8
LAYER_1
 10
70.48704340651315
 20
-53.41863251513435
 30
0.0
  0
VERTEX
  5
A8
  8
LAYER_1
 10
70.61339420647755
 20
-53.10187490218463
 30
0.0
  0
VERTEX
  5
A9
  8
LAYER_1
 10
70.73002721054316
 20
-52.77700778725347
 30
0.0
  0
VERTEX
  5
AA
  8
LAYER_1
 10
70.83715097345771
 20
-52.44365613489653
 30
0.0
  0
VERTEX
  5
AB
  8
LAYER_1
 10
70.9349740499689
 20
-52.10144490966948
 30
0.0
  0
VERTEX
  5
AC
  8
LAYER_1
 10
71.02370499482444
 20
-51.74999907612801
 30
0.0
  0
VERTEX
  5
AD
  8
LAYER_1
 10
71.19224305687752
 20
-51.0374990478158
 30
0.0
  0
VERTEX
  5
AE
  8
LAYER_1
 10
71.26797071972877
 20
-45.78749883919954
 30
0.0
  0
VERTEX
  5
AF
  8
LAYER_1
 10
71.18383064809831
 20
-44.77499879896641
 30
0.0
  0
VERTEX
  5
B0
  8
LAYER_1
 10
71.14889418231034
 20
-44.41367247649909
 30
0.0
  0
VERTEX
  5
B1
  8
LAYER_1
 10
71.10491880118558
 20
-44.06452861331165
 30
0.0
  0
VERTEX
  5
B2
  8
LAYER_1
 10
71.05145977877883
 20
-43.72639852232973
 30
0.0
  0
VERTEX
  5
B3
  8
LAYER_1
 10
70.98807238914495
 20
-43.39811351647892
 30
0.0
  0
VERTEX
  5
B4
  8
LAYER_1
 10
70.91431190633872
 20
-43.07850490868486
 30
0.0
  0
VERTEX
  5
B5
  8
LAYER_1
 10
70.82973360441497
 20
-42.76640401187316
 30
0.0
  0
VERTEX
  5
B6
  8
LAYER_1
 10
70.73389275742849
 20
-42.46064213896947
 30
0.0
  0
VERTEX
  5
B7
  8
LAYER_1
 10
70.62634463943411
 20
-42.16005060289937
 30
0.0
  0
VERTEX
  5
B8
  8
LAYER_1
 10
70.50664452448666
 20
-41.86346071658851
 30
0.0
  0
VERTEX
  5
B9
  8
LAYER_1
 10
70.37434768664096
 20
-41.56970379296249
 30
0.0
  0
VERTEX
  5
BA
  8
LAYER_1
 10
70.22900939995182
 20
-41.27761114494695
 30
0.0
  0
VERTEX
  5
BB
  8
LAYER_1
 10
70.07018493847403
 20
-40.9860140854675
 30
0.0
  0
VERTEX
  5
BC
  8
LAYER_1
 10
69.89742957626243
 20
-40.69374392744976
 30
0.0
  0
VERTEX
  5
BD
  8
LAYER_1
 10
69.71029858737182
 20
-40.39963198381936
 30
0.0
  0
VERTEX
  5
BE
  8
LAYER_1
 10
69.50834724585704
 20
-40.10250956750191
 30
0.0
  0
VERTEX
  5
BF
  8
LAYER_1
 10
69.29113082577291
 20
-39.80120799142304
 30
0.0
  0
VERTEX
  5
C0
  8
LAYER_1
 10
69.0182857875649
 20
-39.44894795907609
 30
0.0
  0
VERTEX
  5
C1
  8
LAYER_1
 10
68.73306141727842
 20
-39.1121370321149
 30
0.0
  0
VERTEX
  5
C2
  8
LAYER_1
 10
68.43563271564062
 20
-38.79088833565493
 30
0.0
  0
VERTEX
  5
C3
  8
LAYER_1
 10
68.12617468337871
 20
-38.48531499481167
 30
0.0
  0
VERTEX
  5
C4
  8
LAYER_1
 10
67.8048623212198
 20
-38.1955301347006
 30
0.0
  0
VERTEX
  5
C5
  8
LAYER_1
 10
67.47187062989109
 20
-37.92164688043719
 30
0.0
  0
VERTEX
  5
C6
  8
LAYER_1
 10
67.12737461011972
 20
-37.66377835713693
 30
0.0
  0
VERTEX
  5
C7
  8
LAYER_1
 10
66.77154926263287
 20
-37.42203768991531
 30
0.0
  0
VERTEX
  5
C8
  8
LAYER_1
 10
66.4045695881577
 20
-37.1965380038878
 30
0.0
  0
VERTEX
  5
C9
  8
LAYER_1
 10
66.02661058742137
 20
-36.98739242416988
 30
0.0
  0
VERTEX
  5
CA
  8
LAYER_1
 10
65.63784726115107
 20
-36.79471407587702
 30
0.0
  0
VERTEX
  5
CB
  8
LAYER_1
 10
65.23845461007394
 20
-36.61861608412473
 30
0.0
  0
VERTEX
  5
CC
  8
LAYER_1
 10
64.82860763491715
 20
-36.45921157402847
 30
0.0
  0
VERTEX
  5
CD
  8
LAYER_1
 10
64.40848133640786
 20
-36.31661367070372
 30
0.0
  0
VERTEX
  5
CE
  8
LAYER_1
 10
63.97825071527323
 20
-36.19093549926595
 30
0.0
  0
VERTEX
  5
CF
  8
LAYER_1
 10
63.53809077224045
 20
-36.08229018483066
 30
0.0
  0
VERTEX
  5
D0
  8
LAYER_1
 10
62.83867601167972
 20
-35.924998447299
 30
0.0
  0
VERTEX
  5
D1
  8
LAYER_1
 10
58.21227341361686
 20
-35.924998447299
 30
0.0
  0
VERTEX
  5
D2
  8
LAYER_1
 10
57.97500528395176
 20
-35.83395012305402
 30
0.0
  0
VERTEX
  5
D3
  8
LAYER_1
 10
57.97500528395176
 20
-32.61630081454549
 30
0.0
  0
VERTEX
  5
D4
  8
LAYER_1
 10
57.65313380024438
 20
-32.30189955269115
 30
0.0
  0
VERTEX
  5
D5
  8
LAYER_1
 10
57.50177258135228
 20
-32.16577626827084
 30
0.0
  0
VERTEX
  5
D6
  8
LAYER_1
 10
57.32758836805497
 20
-32.02755924844524
 30
0.0
  0
VERTEX
  5
D7
  8
LAYER_1
 10
57.15211436433311
 20
-31.9034061818226
 30
0.0
  0
VERTEX
  5
D8
  8
LAYER_1
 10
56.99688377416734
 20
-31.80947475701117
 30
0.0
  0
VERTEX
  5
D9
  8
LAYER_1
 10
56.6625052317977
 20
-31.63145122318551
 30
0.0
  0
VERTEX
  5
DA
  8
LAYER_1
 10
55.61250519007444
 20
-31.09587716263572
 30
0.0
  0
VERTEX
  5
DB
  8
LAYER_1
 10
54.86649913006567
 20
-30.72177550000506
 30
0.0
  0
VERTEX
  5
DC
  8
LAYER_1
 10
54.15416027989189
 20
-30.3763578794243
 30
0.0
  0
VERTEX
  5
DD
  8
LAYER_1
 10
53.5334938594774
 20
-30.08723604515389
 30
0.0
  0
VERTEX
  5
DE
  8
LAYER_1
 10
53.06250508874655
 20
-29.88202174145427
 30
0.0
  0
VERTEX
  5
DF
  8
LAYER_1
 10
52.83750507980585
 20
-29.7900329580402
 30
0.0
  0
VERTEX
  5
E0
  8
LAYER_1
 10
51.71250503510237
 20
-29.32585367101636
 30
0.0
  0
VERTEX
  5
E1
  8
LAYER_1
 10
50.65359874302521
 20
-28.90280079301016
 30
0.0
  0
VERTEX
  5
E2
  8
LAYER_1
 10
49.6875049546361
 20
-28.53749989362446
 30
0.0
  0
VERTEX
  5
E3
  8
LAYER_1
 10
48.78750491887331
 20
-28.21332540325638
 30
0.0
  0
VERTEX
  5
E4
  8
LAYER_1
 10
48.5250049084425
 20
-28.11945613651548
 30
0.0
  0
VERTEX
  5
E5
  8
LAYER_1
 10
47.6508963540133
 20
-27.81628023124004
 30
0.0
  0
VERTEX
  5
E6
  8
LAYER_1
 10
46.83750484138727
 20
-27.56165876306833
 30
0.0
  0
VERTEX
  5
E7
  8
LAYER_1
 10
45.71250479668379
 20
-27.21970143836884
 30
0.0
  0
VERTEX
  5
E8
  8
LAYER_1
 10
44.9285762462453
 20
-26.98093093630069
 30
0.0
  0
VERTEX
  5
E9
  8
LAYER_1
 10
44.23771980683197
 20
-26.78333936801308
 30
0.0
  0
VERTEX
  5
EA
  8
LAYER_1
 10
43.47331833012078
 20
-26.58115511721247
 30
0.0
  0
VERTEX
  5
EB
  8
LAYER_1
 10
42.46875466778874
 20
-26.32860656760533
 30
0.0
  0
VERTEX
  5
EC
  8
LAYER_1
 10
41.26875462010503
 20
-26.02805976112023
 30
0.0
  0
VERTEX
  5
ED
  8
LAYER_1
 10
40.61590303166304
 20
-25.86997774514994
 30
0.0
  0
VERTEX
  5
EE
  8
LAYER_1
 10
39.86250456422567
 20
-25.69624710499595
 30
0.0
  0
VERTEX
  5
EF
  8
LAYER_1
 10
39.03750453144312
 20
-25.51137274762026
 30
0.0
  0
VERTEX
  5
F0
  8
LAYER_1
 10
38.77500452101231
 20
-25.46485073237946
 30
0.0
  0
VERTEX
  5
F1
  8
LAYER_1
 10
38.02500449120998
 20
-25.31422492950142
 30
0.0
  0
VERTEX
  5
F2
  8
LAYER_1
 10
37.56724195287418
 20
-25.22251131554409
 30
0.0
  0
VERTEX
  5
F3
  8
LAYER_1
 10
36.91355695267326
 20
-25.10141392757833
 30
0.0
  0
VERTEX
  5
F4
  8
LAYER_1
 10
34.95000436902046
 20
-24.75870822519353
 30
0.0
  0
VERTEX
  5
F5
  8
LAYER_1
 10
34.21494517918354
 20
-24.64063387490651
 30
0.0
  0
VERTEX
  5
F6
  8
LAYER_1
 10
33.28518423043317
 20
-24.50526982396398
 30
0.0
  0
VERTEX
  5
F7
  8
LAYER_1
 10
32.1097083081356
 20
-24.34546363113423
 30
0.0
  0
VERTEX
  5
F8
  8
LAYER_1
 10
30.63750419765711
 20
-24.15406285518551
 30
0.0
  0
VERTEX
  5
F9
  8
LAYER_1
 10
29.43750414997339
 20
-24.0004826926661
 30
0.0
  0
VERTEX
  5
FA
  8
LAYER_1
 10
25.38750398904085
 20
-23.63667088233652
 30
0.0
  0
VERTEX
  5
FB
  8
LAYER_1
 10
22.76250388473272
 20
-23.47237266358875
 30
0.0
  0
VERTEX
  5
FC
  8
LAYER_1
 10
20.47500379383564
 20
-23.39051854954612
 30
0.0
  0
VERTEX
  5
FD
  8
LAYER_1
 10
19.37907251248421
 20
-23.36174311926954
 30
0.0
  0
VERTEX
  5
FE
  8
LAYER_1
 10
18.13462124410835
 20
-23.34605781828208
 30
0.0
  0
VERTEX
  5
FF
  8
LAYER_1
 10
16.87039566306784
 20
-23.34435500712225
 30
0.0
  0
VERTEX
  5
100
  8
LAYER_1
 10
15.71514144372244
 20
-23.35752704632852
 30
0.0
  0
VERTEX
  5
101
  8
LAYER_1
 10
13.24277918450633
 20
-23.40638965715355
 30
0.0
  0
VERTEX
  5
102
  8
LAYER_1
 10
11.92764129322072
 20
-23.47621596110977
 30
0.0
  0
VERTEX
  5
103
  8
LAYER_1
 10
10.07580401052468
 20
-23.57820566139161
 30
0.0
  0
VERTEX
  5
104
  8
LAYER_1
 10
8.72229278949005
 20
-23.6623145620742
 30
0.0
  0
VERTEX
  5
105
  8
LAYER_1
 10
7.742671311736565
 20
-23.73701253850214
 30
0.0
  0
VERTEX
  5
106
  8
LAYER_1
 10
7.012503258883953
 20
-23.81076946602
 30
0.0
  0
VERTEX
  5
107
  8
LAYER_1
 10
6.112503223121166
 20
-23.90965948421099
 30
0.0
  0
VERTEX
  5
108
  8
LAYER_1
 10
5.212503187358379
 20
-23.99872764785154
 30
0.0
  0
VERTEX
  5
109
  8
LAYER_1
 10
4.250692867249475
 20
-24.09839480528331
 30
0.0
  0
VERTEX
  5
10A
  8
LAYER_1
 10
3.091426906426934
 20
-24.24424153282539
 30
0.0
  0
VERTEX
  5
10B
  8
LAYER_1
 10
1.586449030190761
 20
-24.45617722780005
 30
0.0
  0
VERTEX
  5
10C
  8
LAYER_1
 10
-0.4124970361590385
 20
-24.7541112875296
 30
0.0
  0
VERTEX
  5
10D
  8
LAYER_1
 10
-1.313166911424082
 20
-24.89976168662137
 30
0.0
  0
VERTEX
  5
10E
  8
LAYER_1
 10
-2.290428362505073
 20
-25.07330000203633
 30
0.0
  0
VERTEX
  5
10F
  8
LAYER_1
 10
-3.242786686734628
 20
-25.25598927156149
 30
0.0
  0
VERTEX
  5
110
  8
LAYER_1
 10
-4.06874718144536
 20
-25.42909253298386
 30
0.0
  0
VERTEX
  5
111
  8
LAYER_1
 10
-7.063033881079281
 20
-26.10108190451898
 30
0.0
  0
VERTEX
  5
112
  8
LAYER_1
 10
-7.734376258419566
 20
-26.26043248256332
 30
0.0
  0
VERTEX
  5
113
  8
LAYER_1
 10
-8.099997341632843
 20
-26.35845960036981
 30
0.0
  0
VERTEX
  5
114
  8
LAYER_1
 10
-9.074997380375862
 20
-26.62572382671804
 30
0.0
  0
VERTEX
  5
115
  8
LAYER_1
 10
-10.19999742507935
 20
-26.93218666339435
 30
0.0
  0
VERTEX
  5
116
  8
LAYER_1
 10
-10.68749744445086
 20
-27.07175584387489
 30
0.0
  0
VERTEX
  5
117
  8
LAYER_1
 10
-11.81249748915434
 20
-27.41681462927085
 30
0.0
  0
VERTEX
  5
118
  8
LAYER_1
 10
-12.82734127948061
 20
-27.73748064092477
 30
0.0
  0
VERTEX
  5
119
  8
LAYER_1
 10
-13.68749756366014
 20
-28.02389297030263
 30
0.0
  0
VERTEX
  5
11A
  8
LAYER_1
 10
-14.43749759346247
 20
-28.28591252593843
 30
0.0
  0
VERTEX
  5
11B
  8
LAYER_1
 10
-14.88749761134386
 20
-28.41205763008838
 30
0.0
  0
VERTEX
  5
11C
  8
LAYER_1
 10
-17.0624976977706
 20
-29.25971917300918
 30
0.0
  0
VERTEX
  5
11D
  8
LAYER_1
 10
-17.49374771490693
 20
-29.44235868498434
 30
0.0
  0
VERTEX
  5
11E
  8
LAYER_1
 10
-18.39374775066972
 20
-29.82116890067545
 30
0.0
  0
VERTEX
  5
11F
  8
LAYER_1
 10
-18.86249776929617
 20
-30.01733960439142
 30
0.0
  0
VERTEX
  5
120
  8
LAYER_1
 10
-22.46249791234732
 20
-31.78971764941041
 30
0.0
  0
VERTEX
  5
121
  8
LAYER_1
 10
-22.83062143978021
 20
-32.03860797608407
 30
0.0
  0
VERTEX
  5
122
  8
LAYER_1
 10
-22.98445594672958
 20
-32.15586798418741
 30
0.0
  0
VERTEX
  5
123
  8
LAYER_1
 10
-23.13118333825552
 20
-32.29115242194132
 30
0.0
  0
VERTEX
  5
124
  8
LAYER_1
 10
-23.25419228557294
 20
-32.42771968877032
 30
0.0
  0
VERTEX
  5
125
  8
LAYER_1
 10
-23.33687145989678
 20
-32.54882818409892
 30
0.0
  0
VERTEX
  5
126
  8
LAYER_1
 10
-23.47499795258045
 20
-32.81015806544011
 30
0.0
  0
VERTEX
  5
127
  8
LAYER_1
 10
-23.47499795258045
 20
-35.83395012305327
 30
0.0
  0
VERTEX
  5
128
  8
LAYER_1
 10
-23.71226608224364
 20
-35.924998447299
 30
0.0
  0
VERTEX
  5
129
  8
LAYER_1
 10
-28.31249814480543
 20
-35.92759061260166
 30
0.0
  0
VERTEX
  5
12A
  8
LAYER_1
 10
-30.11249821633101
 20
-36.36250364365191
 30
0.0
  0
VERTEX
  5
12B
  8
LAYER_1
 10
-30.43420471010815
 20
-36.48190049907247
 30
0.0
  0
VERTEX
  5
12C
  8
LAYER_1
 10
-30.78988873995642
 20
-36.63626320639041
 30
0.0
  0
VERTEX
  5
12D
  8
LAYER_1
 10
-31.27045163408901
 20
-36.87180908127358
 30
0.0
  0
VERTEX
  5
12E
  8
LAYER_1
 10
-31.76808946327598
 20
-37.13371570103373
 30
0.0
  0
VERTEX
  5
12F
  8
LAYER_1
 10
-32.17499829828739
 20
-37.3671606429826
 30
0.0
  0
VERTEX
  5
130
  8
LAYER_1
 10
-32.44753622635932
 20
-37.55089456250832
 30
0.0
  0
VERTEX
  5
131
  8
LAYER_1
 10
-32.75535853354597
 20
-37.78514036719413
 30
0.0
  0
VERTEX
  5
132
  8
LAYER_1
 10
-33.08642369925399
 20
-38.05893616081056
 30
0.0
  0
VERTEX
  5
133
  8
LAYER_1
 10
-33.42869020289004
 20
-38.36132004712815
 30
0.0
  0
VERTEX
  5
134
  8
LAYER_1
 10
-33.77011652386076
 20
-38.6813301299174
 30
0.0
  0
VERTEX
  5
135
  8
LAYER_1
 10
-34.09866114157283
 20
-39.00800451294886
 30
0.0
  0
VERTEX
  5
136
  8
LAYER_1
 10
-34.40228253543289
 20
-39.33038129999305
 30
0.0
  0
VERTEX
  5
137
  8
LAYER_1
 10
-34.66893918484759
 20
-39.6374985948205
 30
0.0
  0
VERTEX
  5
138
  8
LAYER_1
 10
-34.83107189472153
 20
-39.84231453425708
 30
0.0
  0
VERTEX
  5
139
  8
LAYER_1
 10
-34.98893441103187
 20
-40.05847875917476
 30
0.0
  0
VERTEX
  5
13A
  8
LAYER_1
 10
-35.14220511441012
 20
-40.2852745747158
 30
0.0
  0
VERTEX
  5
13B
  8
LAYER_1
 10
-35.29056238548777
 20
-40.52198528602245
 30
0.0
  0
VERTEX
  5
13C
  8
LAYER_1
 10
-35.43368460489635
 20
-40.76789419823699
 30
0.0
  0
VERTEX
  5
13D
  8
LAYER_1
 10
-35.57125015326734
 20
-41.02228461650165
 30
0.0
  0
VERTEX
  5
13E
  8
LAYER_1
 10
-35.70293741123226
 20
-41.28443984595872
 30
0.0
  0
VERTEX
  5
13F
  8
LAYER_1
 10
-35.82842475942262
 20
-41.55364319175046
 30
0.0
  0
VERTEX
  5
140
  8
LAYER_1
 10
-35.94739057846993
 20
-41.82917795901912
 30
0.0
  0
VERTEX
  5
141
  8
LAYER_1
 10
-36.05951324900568
 20
-42.11032745290697
 30
0.0
  0
VERTEX
  5
142
  8
LAYER_1
 10
-36.16447115166137
 20
-42.39637497855627
 30
0.0
  0
VERTEX
  5
143
  8
LAYER_1
 10
-36.26194266706853
 20
-42.68660384110927
 30
0.0
  0
VERTEX
  5
144
  8
LAYER_1
 10
-36.35160617585866
 20
-42.98029734570825
 30
0.0
  0
VERTEX
  5
145
  8
LAYER_1
 10
-36.43314005866326
 20
-43.27673879749545
 30
0.0
  0
VERTEX
  5
146
  8
LAYER_1
 10
-36.50622269611382
 20
-43.57521150161316
 30
0.0
  0
VERTEX
  5
147
  8
LAYER_1
 10
-36.57053246884188
 20
-43.87499876320362
 30
0.0
  0
VERTEX
  5
148
  8
LAYER_1
 10
-36.71249847859144
 20
-44.58749879151583
 30
0.0
  0
VERTEX
  5
149
  8
LAYER_1
 10
-36.71249847859144
 20
-50.58749902993441
 30
0.0
  0
VERTEX
  5
14A
  8
LAYER_1
 10
-36.57487573922283
 20
-51.33749905973673
 30
0.0
  0
VERTEX
  5
14B
  8
LAYER_1
 10
-36.50935747254294
 20
-51.66717680721194
 30
0.0
  0
VERTEX
  5
14C
  8
LAYER_1
 10
-36.43270137790073
 20
-52.010389711475
 30
0.0
  0
VERTEX
  5
14D
  8
LAYER_1
 10
-36.3544473734238
 20
-52.32653230216238
 30
0.0
  0
VERTEX
  5
14E
  8
LAYER_1
 10
-36.28413537723971
 20
-52.57499910891056
 30
0.0
  0
VERTEX
  5
14F
  8
LAYER_1
 10
-36.18375368196834
 20
-52.85868090224093
 30
0.0
  0
VERTEX
  5
150
  8
LAYER_1
 10
-36.04601208396838
 20
-53.19766709466234
 30
0.0
  0
VERTEX
  5
151
  8
LAYER_1
 10
-35.88188728938299
 20
-53.56929362345018
 30
0.0
  0
VERTEX
  5
152
  8
LAYER_1
 10
-35.70235600435534
 20
-53.9508964258799
 30
0.0
  0
VERTEX
  5
153
  8
LAYER_1
 10
-35.51839493502859
 20
-54.31981143922692
 30
0.0
  0
VERTEX
  5
154
  8
LAYER_1
 10
-35.3409807875459
 20
-54.65337460076667
 30
0.0
  0
VERTEX
  5
155
  8
LAYER_1
 10
-35.18109026805045
 20
-54.92892184777456
 30
0.0
  0
VERTEX
  5
156
  8
LAYER_1
 10
-35.0497000826854
 20
-55.12378911752604
 30
0.0
  0
VERTEX
  5
157
  8
LAYER_1
 10
-34.58644370542152
 20
-55.70442464238488
 30
0.0
  0
VERTEX
  5
158
  8
LAYER_1
 10
-34.3639833633344
 20
-55.9672977564457
 30
0.0
  0
VERTEX
  5
159
  8
LAYER_1
 10
-34.14546271195053
 20
-56.2137406512134
 30
0.0
  0
VERTEX
  5
15A
  8
LAYER_1
 10
-33.92925259602497
 20
-56.44515298640242
 30
0.0
  0
VERTEX
  5
15B
  8
LAYER_1
 10
-33.71372386031277
 20
-56.66293442172721
 30
0.0
  0
VERTEX
  5
15C
  8
LAYER_1
 10
-33.49724734956895
 20
-56.86848461690222
 30
0.0
  0
VERTEX
  5
15D
  8
LAYER_1
 10
-33.27819390854858
 20
-57.06320323164191
 30
0.0
  0
VERTEX
  5
15E
  8
LAYER_1
 10
-33.05493438200668
 20
-57.24848992566071
 30
0.0
  0
VERTEX
  5
15F
  8
LAYER_1
 10
-32.82583961469831
 20
-57.42574435867307
 30
0.0
  0
VERTEX
  5
160
  8
LAYER_1
 10
-32.58928045137851
 20
-57.59636619039345
 30
0.0
  0
VERTEX
  5
161
  8
LAYER_1
 10
-32.34362773680231
 20
-57.7617550805363
 30
0.0
  0
VERTEX
  5
162
  8
LAYER_1
 10
-32.08725231572477
 20
-57.92331068881607
 30
0.0
  0
VERTEX
  5
163
  8
LAYER_1
 10
-31.81852503290092
 20
-58.0824326749472
 30
0.0
  0
VERTEX
  5
164
  8
LAYER_1
 10
-31.23749826103449
 20
-58.39897441962134
 30
0.0
  0
VERTEX
  5
165
  8
LAYER_1
 10
-30.86327460280532
 20
-58.58148737212148
 30
0.0
  0
VERTEX
  5
166
  8
LAYER_1
 10
-30.48099016039837
 20
-58.74457377974937
 30
0.0
  0
VERTEX
  5
167
  8
LAYER_1
 10
-30.08853763185277
 20
-58.88883331071252
 30
0.0
  0
VERTEX
  5
168
  8
LAYER_1
 10
-29.68380971520762
 20
-59.01486563321842
 30
0.0
  0
VERTEX
  5
169
  8
LAYER_1
 10
-29.26469910850206
 20
-59.12327041547458
 30
0.0
  0
VERTEX
  5
16A
  8
LAYER_1
 10
-28.82909850977522
 20
-59.21464732568849
 30
0.0
  0
VERTEX
  5
16B
  8
LAYER_1
 10
-28.37490061706621
 20
-59.28959603206766
 30
0.0
  0
SEQEND
  5
CF9
  8
LAYER_1
  0
POLYLINE
  5
71
  8
LAYER_1
 66
     1
 10
0.0
 20
0.0
 30
0.0
 70
     1
  0
VERTEX
  5
16C
  8
LAYER_1
 10
-66.90350958092151
 20
-35.4460610101868
 30
0.0
  0
VERTEX
  5
16D
  8
LAYER_1
 10
-66.78542365574124
 20
-35.51553905731184
 30
0.0
  0
VERTEX
  5
16E
  8
LAYER_1
 10
-66.65856477869656
 20
-35.57243556672814
 30
0.0
  0
VERTEX
  5
16F
  8
LAYER_1
 10
-66.53816031118257
 20
-35.61087915417158
 30
0.0
  0
VERTEX
  5
170
  8
LAYER_1
 10
-66.43943761459437
 20
-35.62499843537807
 30
0.0
  0
VERTEX
  5
171
  8
LAYER_1
 10
-66.2386957382463
 20
-35.62499843537807
 30
0.0
  0
VERTEX
  5
172
  8
LAYER_1
 10
-64.16249956935644
 20
-34.86122467710022
 30
0.0
  0
VERTEX
  5
173
  8
LAYER_1
 10
-63.86249955743551
 20
-34.7348472383539
 30
0.0
  0
VERTEX
  5
174
  8
LAYER_1
 10
-62.84999951720238
 20
-34.36174661315398
 30
0.0
  0
VERTEX
  5
175
  8
LAYER_1
 10
-60.97499944269657
 20
-33.67578171068111
 30
0.0
  0
VERTEX
  5
176
  8
LAYER_1
 10
-59.54999938607216
 20
-33.15025773644713
 30
0.0
  0
VERTEX
  5
177
  8
LAYER_1
 10
-58.98749936372042
 20
-32.93759803948613
 30
0.0
  0
VERTEX
  5
178
  8
LAYER_1
 10
-56.28749925643206
 20
-31.93844096816117
 30
0.0
  0
VERTEX
  5
179
  8
LAYER_1
 10
-55.6874992325902
 20
-31.71306305017437
 30
0.0
  0
VERTEX
  5
17A
  8
LAYER_1
 10
-54.41249918192625
 20
-31.23941254237159
 30
0.0
  0
VERTEX
  5
17B
  8
LAYER_1
 10
-52.83749911934137
 20
-30.65145558830891
 30
0.0
  0
VERTEX
  5
17C
  8
LAYER_1
 10
-51.18749905377626
 20
-30.03879611717151
 30
0.0
  0
VERTEX
  5
17D
  8
LAYER_1
 10
-50.06249900907278
 20
-29.62462297032627
 30
0.0
  0
VERTEX
  5
17E
  8
LAYER_1
 10
-49.68749899417162
 20
-29.48342493037173
 30
0.0
  0
VERTEX
  5
17F
  8
LAYER_1
 10
-47.58749891072512
 20
-28.71316601703469
 30
0.0
  0
VERTEX
  5
180
  8
LAYER_1
 10
-47.09999889135361
 20
-28.52618256431391
 30
0.0
  0
VERTEX
  5
181
  8
LAYER_1
 10
-46.46249886602163
 20
-28.2752455208422
 30
0.0
  0
VERTEX
  5
182
  8
LAYER_1
 10
-46.31249886006117
 20
-28.21129193009125
 30
0.0
  0
VERTEX
  5
183
  8
LAYER_1
 10
-45.2249988168478
 20
-27.79981374210013
 30
0.0
  0
VERTEX
  5
184
  8
LAYER_1
 10
-43.349998742342
 20
-27.08827097553745
 30
0.0
  0
VERTEX
  5
185
  8
LAYER_1
 10
-41.66249867528677
 20
-26.45097184133667
 30
0.0
  0
VERTEX
  5
186
  8
LAYER_1
 10
-39.82499860227108
 20
-25.76015993626194
 30
0.0
  0
VERTEX
  5
187
  8
LAYER_1
 10
-38.3991610863803
 20
-25.23678114030393
 30
0.0
  0
VERTEX
  5
188
  8
LAYER_1
 10
-37.97190155496888
 20
-25.08244198918994
 30
0.0
  0
VERTEX
  5
189
  8
LAYER_1
 10
-37.63041105583292
 20
-24.94981584863554
 30
0.0
  0
VERTEX
  5
18A
  8
LAYER_1
 10
-37.46968360425633
 20
-24.88567498458974
 30
0.0
  0
VERTEX
  5
18B
  8
LAYER_1
 10
-37.41990240689204
 20
-24.87160508399822
 30
0.0
  0
VERTEX
  5
18C
  8
LAYER_1
 10
-37.38628212179752
 20
-24.87040104072161
 30
0.0
  0
VERTEX
  5
18D
  8
LAYER_1
 10
-37.36565216896308
 20
-24.88271198203041
 30
0.0
  0
VERTEX
  5
18E
  8
LAYER_1
 10
-37.35484196837903
 20
-24.90918703519511
 30
0.0
  0
VERTEX
  5
18F
  8
LAYER_1
 10
-37.34999850392342
 20
-25.00722598617418
 30
0.0
  0
VERTEX
  5
190
  8
LAYER_1
 10
-37.33732196083091
 20
-25.09135031732532
 30
0.0
  0
VERTEX
  5
191
  8
LAYER_1
 10
-37.32108362764819
 20
-25.12818541750428
 30
0.0
  0
VERTEX
  5
192
  8
LAYER_1
 10
-37.29789622731492
 20
-25.16195786959626
 30
0.0
  0
VERTEX
  5
193
  8
LAYER_1
 10
-37.22962714701778
 20
-25.22158101605166
 30
0.0
  0
VERTEX
  5
194
  8
LAYER_1
 10
-37.13042056358181
 20
-25.27275212975616
 30
0.0
  0
VERTEX
  5
195
  8
LAYER_1
 10
-37.03678230530541
 20
-25.31788283927036
 30
0.0
  0
VERTEX
  5
196
  8
LAYER_1
 10
-36.94414583941182
 20
-25.37352867495497
 30
0.0
  0
VERTEX
  5
197
  8
LAYER_1
 10
-36.86320092813166
 20
-25.43262349662121
 30
0.0
  0
VERTEX
  5
198
  8
LAYER_1
 10
-36.80463733369559
 20
-25.48810116408034
 30
0.0
  0
VERTEX
  5
199
  8
LAYER_1
 10
-36.69843204415098
 20
-25.61249803751707
 30
0.0
  0
VERTEX
  5
19A
  8
LAYER_1
 10
-36.06342794860011
 20
-27.26249810308218
 30
0.0
  0
VERTEX
  5
19B
  8
LAYER_1
 10
-35.96277677503049
 20
-27.44999811053276
 30
0.0
  0
VERTEX
  5
19C
  8
LAYER_1
 10
-35.90195515412906
 20
-27.54055475475616
 30
0.0
  0
VERTEX
  5
19D
  8
LAYER_1
 10
-35.81075636698795
 20
-27.64851374342106
 30
0.0
  0
VERTEX
  5
19E
  8
LAYER_1
 10
-35.70152369965954
 20
-27.76033991973964
 30
0.0
  0
VERTEX
  5
19F
  8
LAYER_1
 10
-35.58660043819621
 20
-27.86249812692404
 30
0.0
  0
VERTEX
  5
1A0
  8
LAYER_1
 10
-35.50971107331699
 20
-27.91979089727275
 30
0.0
  0
VERTEX
  5
1A1
  8
LAYER_1
 10
-35.42898754331019
 20
-27.96895893123138
 30
0.0
  0
VERTEX
  5
1A2
  8
LAYER_1
 10
-35.34396775455365
 20
-28.00998629540868
 30
0.0
  0
VERTEX
  5
1A3
  8
LAYER_1
 10
-35.25418961342518
 20
-28.04285705641336
 30
0.0
  0
VERTEX
  5
1A4
  8
LAYER_1
 10
-35.15919102630262
 20
-28.06755528085419
 30
0.0
  0
VERTEX
  5
1A5
  8
LAYER_1
 10
-35.05850989956377
 20
-28.0840650353399
 30
0.0
  0
VERTEX
  5
1A6
  8
LAYER_1
 10
-34.95168413958648
 20
-28.09237038647922
 30
0.0
  0
VERTEX
  5
1A7
  8
LAYER_1
 10
-34.83825165274857
 20
-28.09245540088089
 30
0.0
  0
VERTEX
  5
1A8
  8
LAYER_1
 10
-34.58971812400218
 20
-28.06790068590627
 30
0.0
  0
VERTEX
  5
1A9
  8
LAYER_1
 10
-34.3092125643472
 20
-28.01027342328594
 30
0.0
  0
VERTEX
  5
1AA
  8
LAYER_1
 10
-33.99303822480624
 20
-27.91944614588981
 30
0.0
  0
VERTEX
  5
1AB
  8
LAYER_1
 10
-33.63749835640192
 20
-27.7952913865878
 30
0.0
  0
VERTEX
  5
1AC
  8
LAYER_1
 10
-32.8874983265996
 20
-27.51465816575801
 30
0.0
  0
VERTEX
  5
1AD
  8
LAYER_1
 10
-32.58749831467867
 20
-27.38552356540403
 30
0.0
  0
VERTEX
  5
1AE
  8
LAYER_1
 10
-31.83749828487635
 20
-27.11018404829297
 30
0.0
  0
VERTEX
  5
1AF
  8
LAYER_1
 10
-30.26249822229147
 20
-26.54073254158101
 30
0.0
  0
VERTEX
  5
1B0
  8
LAYER_1
 10
-29.50359194213524
 20
-26.26522923132045
 30
0.0
  0
VERTEX
  5
1B1
  8
LAYER_1
 10
-28.83749816566706
 20
-26.01585725800589
 30
0.0
  0
VERTEX
  5
1B2
  8
LAYER_1
 10
-27.84966087012698
 20
-25.63623505691811
 30
0.0
  0
VERTEX
  5
1B3
  8
LAYER_1
 10
-27.68826190089477
 20
-25.56649209225029
 30
0.0
  0
VERTEX
  5
1B4
  8
LAYER_1
 10
-27.53551124504633
 20
-25.4866392493663
 30
0.0
  0
VERTEX
  5
1B5
  8
LAYER_1
 10
-27.40862965662746
 20
-25.40652770739229
 30
0.0
  0
VERTEX
  5
1B6
  8
LAYER_1
 10
-27.32483788968396
 20
-25.33600864545441
 30
0.0
  0
VERTEX
  5
1B7
  8
LAYER_1
 10
-27.25388103090938
 20
-25.26796616058328
 30
0.0
  0
VERTEX
  5
1B8
  8
LAYER_1
 10
-27.16194597463364
 20
-25.19459777398902
 30
0.0
  0
VERTEX
  5
1B9
  8
LAYER_1
 10
-27.06091618635703
 20
-25.12472480106705
 30
0.0
  0
VERTEX
  5
1BA
  8
LAYER_1
 10
-26.96267513157984
 20
-25.06716855721282
 30
0.0
  0
VERTEX
  5
1BB
  8
LAYER_1
 10
-26.73749808222055
 20
-24.94969597332134
 30
0.0
  0
VERTEX
  5
1BC
  8
LAYER_1
 10
-23.5874979570508
 20
-24.93708346905074
 30
0.0
  0
VERTEX
  5
1BD
  8
LAYER_1
 10
-23.21426015018167
 20
-24.79729912779926
 30
0.0
  0
VERTEX
  5
1BE
  8
LAYER_1
 10
-22.95411218553805
 20
-24.68752183654804
 30
0.0
  0
VERTEX
  5
1BF
  8
LAYER_1
 10
-22.70580218817114
 20
-24.55822767588877
 30
0.0
  0
VERTEX
  5
1C0
  8
LAYER_1
 10
-22.47186778697267
 20
-24.41148288207981
 30
0.0
  0
VERTEX
  5
1C1
  8
LAYER_1
 10
-22.25484661083437
 20
-24.24935369137948
 30
0.0
  0
VERTEX
  5
1C2
  8
LAYER_1
 10
-22.05727628864798
 20
-24.07390634004612
 30
0.0
  0
VERTEX
  5
1C3
  8
LAYER_1
 10
-21.88169444930522
 20
-23.88720706433807
 30
0.0
  0
VERTEX
  5
1C4
  8
LAYER_1
 10
-21.73063872169784
 20
-23.69132210051366
 30
0.0
  0
VERTEX
  5
1C5
  8
LAYER_1
 10
-21.60664673471756
 20
-23.48831768483122
 30
0.0
  0
VERTEX
  5
1C6
  8
LAYER_1
 10
-21.51390792810675
 20
-23.31413740963139
 30
0.0
  0
VERTEX
  5
1C7
  8
LAYER_1
 10
-21.06117071273293
 20
-21.80082178263932
 30
0.0
  0
VERTEX
  5
1C8
  8
LAYER_1
 10
-20.97433428124769
 20
-21.64415982812181
 30
0.0
  0
VERTEX
  5
1C9
  8
LAYER_1
 10
-20.85896632887949
 20
-21.45841276429734
 30
0.0
  0
VERTEX
  5
1CA
  8
LAYER_1
 10
-20.73245291152411
 20
-21.29727916223558
 30
0.0
  0
VERTEX
  5
1CB
  8
LAYER_1
 10
-20.59486703287748
 20
-21.16080612196136
 30
0.0
  0
VERTEX
  5
1CC
  8
LAYER_1
 10
-20.44628169663551
 20
-21.04904074349952
 30
0.0
  0
VERTEX
  5
1CD
  8
LAYER_1
 10
-20.28676990649413
 20
-20.96203012687486
 30
0.0
  0
VERTEX
  5
1CE
  8
LAYER_1
 10
-20.11640466614924
 20
-20.89982137211222
 30
0.0
  0
VERTEX
  5
1CF
  8
LAYER_1
 10
-19.93525897929678
 20
-20.86246157923644
 30
0.0
  0
VERTEX
  5
1D0
  8
LAYER_1
 10
-19.74340584963267
 20
-20.84999784827232
 30
0.0
  0
VERTEX
  5
1D1
  8
LAYER_1
 10
-19.58698164225375
 20
-20.86118959682124
 30
0.0
  0
VERTEX
  5
1D2
  8
LAYER_1
 10
-19.42870893892528
 20
-20.89470124565043
 30
0.0
  0
VERTEX
  5
1D3
  8
LAYER_1
 10
-19.26876172980604
 20
-20.95043739953353
 30
0.0
  0
VERTEX
  5
1D4
  8
LAYER_1
 10
-19.10731400505477
 20
-21.02830266324419
 30
0.0
  0
VERTEX
  5
1D5
  8
LAYER_1
 10
-18.94453975483026
 20
-21.12820164155605
 30
0.0
  0
VERTEX
  5
1D6
  8
LAYER_1
 10
-18.78061296929127
 20
-21.25003893924275
 30
0.0
  0
VERTEX
  5
1D7
  8
LAYER_1
 10
-18.61570763859655
 20
-21.39371916107793
 30
0.0
  0
VERTEX
  5
1D8
  8
LAYER_1
 10
-18.44999775290489
 20
-21.55914691183524
 30
0.0
  0
VERTEX
  5
1D9
  8
LAYER_1
 10
-18.32900929785075
 20
-21.68080758957268
 30
0.0
  0
VERTEX
  5
1DA
  8
LAYER_1
 10
-18.21250934026546
 20
-21.78361785902191
 30
0.0
  0
VERTEX
  5
1DB
  8
LAYER_1
 10
-18.09896589023993
 20
-21.86838802365241
 30
0.0
  0
VERTEX
  5
1DC
  8
LAYER_1
 10
-17.9868469578651
 20
-21.93592838693367
 30
0.0
  0
VERTEX
  5
1DD
  8
LAYER_1
 10
-17.87462055323189
 20
-21.98704925233519
 30
0.0
  0
VERTEX
  5
1DE
  8
LAYER_1
 10
-17.76075468643122
 20
-22.02256092332643
 30
0.0
  0
VERTEX
  5
1DF
  8
LAYER_1
 10
-17.64371736755403
 20
-22.04327370337688
 30
0.0
  0
VERTEX
  5
1E0
  8
LAYER_1
 10
-17.52197660669125
 20
-22.04999789595604
 30
0.0
  0
VERTEX
  5
1E1
  8
LAYER_1
 10
-17.38709495085333
 20
-22.03683579331734
 30
0.0
  0
VERTEX
  5
1E2
  8
LAYER_1
 10
-17.25804066129681
 20
-21.99648384595681
 30
0.0
  0
VERTEX
  5
1E3
  8
LAYER_1
 10
-17.13344145006659
 20
-21.92764359470776
 30
0.0
  0
VERTEX
  5
1E4
  8
LAYER_1
 10
-17.01192502920757
 20
-21.82901658040351
 30
0.0
  0
VERTEX
  5
1E5
  8
LAYER_1
 10
-16.89211911076465
 20
-21.69930434387738
 30
0.0
  0
VERTEX
  5
1E6
  8
LAYER_1
 10
-16.77265140678274
 20
-21.5372084259627
 30
0.0
  0
VERTEX
  5
1E7
  8
LAYER_1
 10
-16.65214962930672
 20
-21.34143036749279
 30
0.0
  0
VERTEX
  5
1E8
  8
LAYER_1
 10
-16.52924149038151
 20
-21.11067170930097
 30
0.0
  0
VERTEX
  5
1E9
  8
LAYER_1
 10
-16.39505191213242
 20
-20.86822991300984
 30
0.0
  0
VERTEX
  5
1EA
  8
LAYER_1
 10
-16.23653793608634
 20
-20.62106673627354
 30
0.0
  0
VERTEX
  5
1EB
  8
LAYER_1
 10
-16.073501770386
 20
-20.39813246199889
 30
0.0
  0
VERTEX
  5
1EC
  8
LAYER_1
 10
-15.92574562317416
 20
-20.22837737309273
 30
0.0
  0
VERTEX
  5
1ED
  8
LAYER_1
 10
-15.60207192154986
 20
-19.90470367146938
 30
0.0
  0
VERTEX
  5
1EE
  8
LAYER_1
 10
-14.60728474111488
 20
-19.81088693946244
 30
0.0
  0
VERTEX
  5
1EF
  8
LAYER_1
 10
-12.93749753385782
 20
-19.64868219375951
 30
0.0
  0
VERTEX
  5
1F0
  8
LAYER_1
 10
-11.39999747276306
 20
-19.49881494108175
 30
0.0
  0
VERTEX
  5
1F1
  8
LAYER_1
 10
-9.937497414648533
 20
-19.35011434801878
 30
0.0
  0
VERTEX
  5
1F2
  8
LAYER_1
 10
-8.750453998803536
 20
-19.23209092844252
 30
0.0
  0
VERTEX
  5
1F3
  8
LAYER_1
 10
-8.479089195611731
 20
-19.20163539425131
 30
0.0
  0
VERTEX
  5
1F4
  8
LAYER_1
 10
-8.27377113584447
 20
-19.16230043461133
 30
0.0
  0
VERTEX
  5
1F5
  8
LAYER_1
 10
-8.12866950047869
 20
-19.11260474845697
 30
0.0
  0
VERTEX
  5
1F6
  8
LAYER_1
 10
-8.07687786725165
 20
-19.08340872635391
 30
0.0
  0
VERTEX
  5
1F7
  8
LAYER_1
 10
-8.03795397049133
 20
-19.05106703472264
 30
0.0
  0
VERTEX
  5
1F8
  8
LAYER_1
 10
-7.912497334182262
 20
-18.92084520649781
 30
0.0
  0
VERTEX
  5
1F9
  8
LAYER_1
 10
-6.599997282028198
 20
-18.87261583412177
 30
0.0
  0
VERTEX
  5
1FA
  8
LAYER_1
 10
-3.599997162818909
 20
-18.75130859515003
 30
0.0
  0
VERTEX
  5
1FB
  8
LAYER_1
 10
-0.0749970227479935
 20
-18.60005309084418
 30
0.0
  0
VERTEX
  5
1FC
  8
LAYER_1
 10
6.975003257393837
 20
-18.29999139442325
 30
0.0
  0
VERTEX
  5
1FD
  8
LAYER_1
 10
10.53750339895487
 20
-18.15329722737796
 30
0.0
  0
VERTEX
  5
1FE
  8
LAYER_1
 10
12.41250347346067
 20
-18.07848729613274
 30
0.0
  0
VERTEX
  5
1FF
  8
LAYER_1
 10
13.01576107232194
 20
-18.03166225309047
 30
0.0
  0
VERTEX
  5
200
  8
LAYER_1
 10
13.36423014861777
 20
-18.00803736748033
 30
0.0
  0
VERTEX
  5
201
  8
LAYER_1
 10
13.47481799229652
 20
-18.00727743609072
 30
0.0
  0
VERTEX
  5
202
  8
LAYER_1
 10
13.55358765802215
 20
-18.01621290104175
 30
0.0
  0
VERTEX
  5
203
  8
LAYER_1
 10
13.60849885956438
 20
-18.03658905388122
 30
0.0
  0
VERTEX
  5
204
  8
LAYER_1
 10
13.64751131069295
 20
-18.07015118615686
 30
0.0
  0
VERTEX
  5
205
  8
LAYER_1
 10
13.70967881678808
 20
-18.18381455520774
 30
0.0
  0
VERTEX
  5
206
  8
LAYER_1
 10
13.76538871564106
 20
-18.27434211325682
 30
0.0
  0
VERTEX
  5
207
  8
LAYER_1
 10
13.84469083298244
 20
-18.35558639288573
 30
0.0
  0
VERTEX
  5
208
  8
LAYER_1
 10
13.94553836588936
 20
-18.4266883679343
 30
0.0
  0
VERTEX
  5
209
  8
LAYER_1
 10
14.06588451143895
 20
-18.48678901224232
 30
0.0
  0
VERTEX
  5
20A
  8
LAYER_1
 10
14.20368246670836
 20
-18.53502929964962
 30
0.0
  0
VERTEX
  5
20B
  8
LAYER_1
 10
14.35688542877471
 20
-18.57055020399602
 30
0.0
  0
VERTEX
  5
20C
  8
LAYER_1
 10
14.52344659471514
 20
-18.59249269912132
 30
0.0
  0
VERTEX
  5
20D
  8
LAYER_1
 10
14.70131916160679
 20
-18.59999775886536
 30
0.0
  0
VERTEX
  5
20E
  8
LAYER_1
 10
14.86853084573176
 20
-18.59282038332661
 30
0.0
  0
VERTEX
  5
20F
  8
LAYER_1
 10
15.02187581496312
 20
-18.57136042187778
 30
0.0
  0
VERTEX
  5
210
  8
LAYER_1
 10
15.16112934567978
 20
-18.53572612226995
 30
0.0
  0
VERTEX
  5
211
  8
LAYER_1
 10
15.28606671426068
 20
-18.48602573225423
 30
0.0
  0
VERTEX
  5
212
  8
LAYER_1
 10
15.39646319708471
 20
-18.4223674995817
 30
0.0
  0
VERTEX
  5
213
  8
LAYER_1
 10
15.49209407053081
 20
-18.34485967200347
 30
0.0
  0
VERTEX
  5
214
  8
LAYER_1
 10
15.57273461097789
 20
-18.25361049727062
 30
0.0
  0
VERTEX
  5
215
  8
LAYER_1
 10
15.63816009480486
 20
-18.14872822313427
 30
0.0
  0
VERTEX
  5
216
  8
LAYER_1
 10
15.75385562816881
 20
-17.92499773204327
 30
0.0
  0
VERTEX
  5
217
  8
LAYER_1
 10
21.86250384896994
 20
-17.91605608910024
 30
0.0
  0
VERTEX
  5
218
  8
LAYER_1
 10
22.22025623250563
 20
-17.85718905736563
 30
0.0
  0
VERTEX
  5
219
  8
LAYER_1
 10
22.36860890733244
 20
-17.82439376089525
 30
0.0
  0
VERTEX
  5
21A
  8
LAYER_1
 10
22.50363764801179
 20
-17.77745723866781
 30
0.0
  0
VERTEX
  5
21B
  8
LAYER_1
 10
22.62432990210893
 20
-17.71719863557121
 30
0.0
  0
VERTEX
  5
21C
  8
LAYER_1
 10
22.72967311718912
 20
-17.64443709649333
 30
0.0
  0
VERTEX
  5
21D
  8
LAYER_1
 10
22.8186547408176
 20
-17.55999176632206
 30
0.0
  0
VERTEX
  5
21E
  8
LAYER_1
 10
22.89026222055962
 20
-17.46468178994528
 30
0.0
  0
VERTEX
  5
21F
  8
LAYER_1
 10
22.94348300398043
 20
-17.35932631225089
 30
0.0
  0
VERTEX
  5
220
  8
LAYER_1
 10
22.97730453864527
 20
-17.24474447812677
 30
0.0
  0
VERTEX
  5
221
  8
LAYER_1
 10
23.02125389501452
 20
-17.02499769628048
 30
0.0
  0
VERTEX
  5
222
  8
LAYER_1
 10
52.86755156396045
 20
-17.02499769628048
 30
0.0
  0
VERTEX
  5
223
  8
LAYER_1
 10
52.92752832486337
 20
-17.12733670417771
 30
0.0
  0
VERTEX
  5
224
  8
LAYER_1
 10
52.97485603444164
 20
-17.18583081341347
 30
0.0
  0
VERTEX
  5
225
  8
LAYER_1
 10
53.046176930603
 20
-17.24478969050474
 30
0.0
  0
VERTEX
  5
226
  8
LAYER_1
 10
53.13662697194276
 20
-17.30198621098813
 30
0.0
  0
VERTEX
  5
227
  8
LAYER_1
 10
53.24134211705625
 20
-17.35519325040023
 30
0.0
  0
VERTEX
  5
228
  8
LAYER_1
 10
53.35545832453881
 20
-17.40218368427768
 30
0.0
  0
VERTEX
  5
229
  8
LAYER_1
 10
53.47411155298578
 20
-17.44073038815707
 30
0.0
  0
VERTEX
  5
22A
  8
LAYER_1
 10
53.59243776099248
 20
-17.46860623757501
 30
0.0
  0
VERTEX
  5
22B
  8
LAYER_1
 10
53.70557290715425
 20
-17.48358410806811
 30
0.0
  0
VERTEX
  5
22C
  8
LAYER_1
 10
53.8988702691077
 20
-17.49433377854596
 30
0.0
  0
VERTEX
  5
22D
  8
LAYER_1
 10
54.06269172589386
 20
-17.49588013067159
 30
0.0
  0
VERTEX
  5
22E
  8
LAYER_1
 10
54.2016786553113
 20
-17.48711797064486
 30
0.0
  0
VERTEX
  5
22F
  8
LAYER_1
 10
54.32047243515861
 20
-17.46694210466565
 30
0.0
  0
VERTEX
  5
230
  8
LAYER_1
 10
54.42371444323439
 20
-17.43424733893381
 30
0.0
  0
VERTEX
  5
231
  8
LAYER_1
 10
54.51604605733721
 20
-17.38792847964921
 30
0.0
  0
VERTEX
  5
232
  8
LAYER_1
 10
54.60210865526565
 20
-17.32688033301171
 30
0.0
  0
VERTEX
  5
233
  8
LAYER_1
 10
54.68654361481831
 20
-17.24999770522118
 30
0.0
  0
VERTEX
  5
234
  8
LAYER_1
 10
54.76228725877226
 20
-17.17613785377853
 30
0.0
  0
VERTEX
  5
235
  8
LAYER_1
 10
54.8300851326106
 20
-17.12051868798317
 30
0.0
  0
VERTEX
  5
236
  8
LAYER_1
 10
54.90231502486574
 20
-17.08055341505788
 30
0.0
  0
VERTEX
  5
237
  8
LAYER_1
 10
54.99135472407013
 20
-17.05365524222547
 30
0.0
  0
VERTEX
  5
238
  8
LAYER_1
 10
55.10958201875619
 20
-17.03723737670873
 30
0.0
  0
VERTEX
  5
239
  8
LAYER_1
 10
55.26937469745636
 20
-17.02871302573045
 30
0.0
  0
VERTEX
  5
23A
  8
LAYER_1
 10
55.76316736102879
 20
-17.02499769628048
 30
0.0
  0
VERTEX
  5
23B
  8
LAYER_1
 10
56.61479109830597
 20
-17.02499769628048
 30
0.0
  0
VERTEX
  5
23C
  8
LAYER_1
 10
56.7837139602899
 20
-16.78776741223604
 30
0.0
  0
VERTEX
  5
23D
  8
LAYER_1
 10
56.8329497983248
 20
-16.70402086536864
 30
0.0
  0
VERTEX
  5
23E
  8
LAYER_1
 10
56.87405773472737
 20
-16.60435586559574
 30
0.0
  0
VERTEX
  5
23F
  8
LAYER_1
 10
56.90718746316129
 20
-16.49136619553602
 30
0.0
  0
VERTEX
  5
240
  8
LAYER_1
 10
56.93248867729026
 20
-16.36764563780819
 30
0.0
  0
VERTEX
  5
241
  8
LAYER_1
 10
56.95011107077798
 20
-16.23578797503091
 30
0.0
  0
VERTEX
  5
242
  8
LAYER_1
 10
56.96020433728815
 20
-16.09838698982287
 30
0.0
  0
VERTEX
  5
243
  8
LAYER_1
 10
56.95840226403061
 20
-15.81733018258925
 30
0.0
  0
VERTEX
  5
244
  8
LAYER_1
 10
56.92828000682724
 20
-15.54522547705679
 30
0.0
  0
VERTEX
  5
245
  8
LAYER_1
 10
56.9029730434051
 20
-15.41901461897521
 30
0.0
  0
VERTEX
  5
246
  8
LAYER_1
 10
56.87103511498761
 20
-15.30282313417498
 30
0.0
  0
VERTEX
  5
247
  8
LAYER_1
 10
56.83261591523846
 20
-15.19924480527476
 30
0.0
  0
VERTEX
  5
248
  8
LAYER_1
 10
56.78786513782133
 20
-15.11087341489326
 30
0.0
  0
VERTEX
  5
249
  8
LAYER_1
 10
56.73693247639993
 20
-15.04030274564915
 30
0.0
  0
VERTEX
  5
24A
  8
LAYER_1
 10
56.67996762463795
 20
-14.99012658016112
 30
0.0
  0
VERTEX
  5
24B
  8
LAYER_1
 10
56.66820431304288
 20
-14.97574338126953
 30
0.0
  0
VERTEX
  5
24C
  8
LAYER_1
 10
56.66401761654527
 20
-14.95363471353427
 30
0.0
  0
VERTEX
  5
24D
  8
LAYER_1
 10
56.67708870194882
 20
-14.88984947557597
 30
0.0
  0
VERTEX
  5
24E
  8
LAYER_1
 10
56.7166101470613
 20
-14.80598787437271
 30
0.0
  0
VERTEX
  5
24F
  8
LAYER_1
 10
56.78001121809538
 20
-14.70926691801098
 30
0.0
  0
VERTEX
  5
250
  8
LAYER_1
 10
56.82176537118615
 20
-14.64207256164591
 30
0.0
  0
VERTEX
  5
251
  8
LAYER_1
 10
56.85826452202086
 20
-14.56170415622688
 30
0.0
  0
VERTEX
  5
252
  8
LAYER_1
 10
56.8894837374966
 20
-14.46992922151859
 30
0.0
  0
VERTEX
  5
253
  8
LAYER_1
 10
56.91539808451041
 20
-14.36851527728574
 30
0.0
  0
VERTEX
  5
254
  8
LAYER_1
 10
56.95121244074053
 20
-14.14384043930519
 30
0.0
  0
VERTEX
  5
255
  8
LAYER_1
 10
56.96550812588772
 20
-13.90181980040284
 30
0.0
  0
VERTEX
  5
256
  8
LAYER_1
 10
56.95808567512845
 20
-13.6565935186963
 30
0.0
  0
VERTEX
  5
257
  8
LAYER_1
 10
56.92874562363922
 20
-13.42230175230317
 30
0.0
  0
VERTEX
  5
258
  8
LAYER_1
 10
56.87728850659651
 20
-13.21308465934109
 30
0.0
  0
VERTEX
  5
259
  8
LAYER_1
 10
56.84320371573526
 20
-13.12229791480843
 30
0.0
  0
VERTEX
  5
25A
  8
LAYER_1
 10
56.80351485917683
 20
-13.04308239792765
 30
0.0
  0
VERTEX
  5
25B
  8
LAYER_1
 10
56.6543928960798
 20
-12.78749752789736
 30
0.0
  0
VERTEX
  5
25C
  8
LAYER_1
 10
54.79412223934017
 20
-12.745132821693
 30
0.0
  0
VERTEX
  5
25D
  8
LAYER_1
 10
54.65986001198047
 20
-12.60101923738053
 30
0.0
  0
VERTEX
  5
25E
  8
LAYER_1
 10
54.60187417451309
 20
-12.54980158750306
 30
0.0
  0
VERTEX
  5
25F
  8
LAYER_1
 10
54.53071315964689
 20
-12.50528796050121
 30
0.0
  0
VERTEX
  5
260
  8
LAYER_1
 10
54.44806298587091
 20
-12.46748843679021
 30
0.0
  0
VERTEX
  5
261
  8
LAYER_1
 10
54.35560967167413
 20
-12.43641309678532
 30
0.0
  0
VERTEX
  5
262
  8
LAYER_1
 10
54.25503923554555
 20
-12.41207202090179
 30
0.0
  0
VERTEX
  5
263
  8
LAYER_1
 10
54.14803769597417
 20
-12.39447528955488
 30
0.0
  0
VERTEX
  5
264
  8
LAYER_1
 10
53.92148538045903
 20
-12.37955518213191
 30
0.0
  0
VERTEX
  5
265
  8
LAYER_1
 10
53.6894408730407
 20
-12.39173341783842
 30
0.0
  0
VERTEX
  5
266
  8
LAYER_1
 10
53.46539232163117
 20
-12.43109063999643
 30
0.0
  0
VERTEX
  5
267
  8
LAYER_1
 10
53.3605815756522
 20
-12.46098657203288
 30
0.0
  0
VERTEX
  5
268
  8
LAYER_1
 10
53.26282787414245
 20
-12.49770749192795
 30
0.0
  0
VERTEX
  5
269
  8
LAYER_1
 10
53.17381723559088
 20
-12.54126348009691
 30
0.0
  0
VERTEX
  5
26A
  8
LAYER_1
 10
53.09523567848652
 20
-12.59166461695501
 30
0.0
  0
VERTEX
  5
26B
  8
LAYER_1
 10
52.881078957653
 20
-12.74999752640724
 30
0.0
  0
VERTEX
  5
26C
  8
LAYER_1
 10
15.71727911362223
 20
-12.74999752640724
 30
0.0
  0
VERTEX
  5
26D
  8
LAYER_1
 10
15.56489135314609
 20
-12.57517109034644
 30
0.0
  0
VERTEX
  5
26E
  8
LAYER_1
 10
15.4929286518072
 20
-12.50550909826148
 30
0.0
  0
VERTEX
  5
26F
  8
LAYER_1
 10
15.40385330283651
 20
-12.44020516359601
 30
0.0
  0
VERTEX
  5
270
  8
LAYER_1
 10
15.3013479433469
 20
-12.3807788710667
 30
0.0
  0
VERTEX
  5
271
  8
LAYER_1
 10
15.18909521045127
 20
-12.3287498053902
 30
0.0
  0
VERTEX
  5
272
  8
LAYER_1
 10
15.07077774126253
 20
-12.28563755128319
 30
0.0
  0
VERTEX
  5
273
  8
LAYER_1
 10
14.95007817289357
 20
-12.25296169346231
 30
0.0
  0
VERTEX
  5
274
  8
LAYER_1
 10
14.83067914245729
 20
-12.23224181664423
 30
0.0
  0
VERTEX
  5
275
  8
LAYER_1
 10
14.71626328706658
 20
-12.22499750554562
 30
0.0
  0
VERTEX
  5
276
  8
LAYER_1
 10
14.59221160625813
 20
-12.23257729060009
 30
0.0
  0
VERTEX
  5
277
  8
LAYER_1
 10
14.46026956224925
 20
-12.25410651964445
 30
0.0
  0
VERTEX
  5
278
  8
LAYER_1
 10
14.32531822184463
 20
-12.28777000350012
 30
0.0
  0
VERTEX
  5
279
  8
LAYER_1
 10
14.19223865184895
 20
-12.33175255298852
 30
0.0
  0
VERTEX
  5
27A
  8
LAYER_1
 10
14.06591191906688
 20
-12.38423897893108
 30
0.0
  0
VERTEX
  5
27B
  8
LAYER_1
 10
13.95121909030312
 20
-12.4434140921492
 30
0.0
  0
VERTEX
  5
27C
  8
LAYER_1
 10
13.85304123236233
 20
-12.50746270346431
 30
0.0
  0
VERTEX
  5
27D
  8
LAYER_1
 10
13.7762594120492
 20
-12.57456962369783
 30
0.0
  0
VERTEX
  5
27E
  8
LAYER_1
 10
13.61250352114439
 20
-12.74740604295506
 30
0.0
  0
VERTEX
  5
27F
  8
LAYER_1
 10
-8.420960964593107
 20
-12.74999752640724
 30
0.0
  0
VERTEX
  5
280
  8
LAYER_1
 10
-8.61289929085521
 20
-12.48749751597643
 30
0.0
  0
VERTEX
  5
281
  8
LAYER_1
 10
-25.61249803751707
 20
-12.44467054314417
 30
0.0
  0
VERTEX
  5
282
  8
LAYER_1
 10
-25.80105068757064
 20
-12.61608403552076
 30
0.0
  0
VERTEX
  5
283
  8
LAYER_1
 10
-26.0122808417965
 20
-12.83940433914134
 30
0.0
  0
VERTEX
  5
284
  8
LAYER_1
 10
-26.25535600188128
 20
-13.13561505855134
 30
0.0
  0
VERTEX
  5
285
  8
LAYER_1
 10
-26.52110866613835
 20
-13.48373258920532
 30
0.0
  0
VERTEX
  5
286
  8
LAYER_1
 10
-26.79306333174387
 20
-13.21061506153158
 30
0.0
  0
VERTEX
  5
287
  8
LAYER_1
 10
-26.93438624245289
 20
-13.090431475903
 30
0.0
  0
VERTEX
  5
288
  8
LAYER_1
 10
-27.11813857140544
 20
-12.9650963408741
 30
0.0
  0
VERTEX
  5
289
  8
LAYER_1
 10
-27.3205396125266
 20
-12.8494501487339
 30
0.0
  0
VERTEX
  5
28A
  8
LAYER_1
 10
-27.51780865974145
 20
-12.7583333917714
 30
0.0
  0
VERTEX
  5
28B
  8
LAYER_1
 10
-27.70413480702349
 20
-12.6771472402194
 30
0.0
  0
VERTEX
  5
28C
  8
LAYER_1
 10
-27.87674082357509
 20
-12.58853982518697
 30
0.0
  0
VERTEX
  5
28D
  8
LAYER_1
 10
-28.0163965161647
 20
-12.50322208027757
 30
0.0
  0
VERTEX
  5
28E
  8
LAYER_1
 10
-28.10387169156076
 20
-12.43190493909466
 30
0.0
  0
VERTEX
  5
28F
  8
LAYER_1
 10
-28.21919950380993
 20
-12.32347295318803
 30
0.0
  0
VERTEX
  5
290
  8
LAYER_1
 10
-28.34968575454997
 20
-12.23186398656313
 30
0.0
  0
VERTEX
  5
291
  8
LAYER_1
 10
-28.48712517689448
 20
-12.15949267840313
 30
0.0
  0
VERTEX
  5
292
  8
LAYER_1
 10
-28.62331250395707
 20
-12.10877366789119
 30
0.0
  0
VERTEX
  5
293
  8
LAYER_1
 10
-28.75004246885134
 20
-12.08212159421049
 30
0.0
  0
VERTEX
  5
294
  8
LAYER_1
 10
-28.85910980469091
 20
-12.08195109654417
 30
0.0
  0
VERTEX
  5
295
  8
LAYER_1
 10
-28.90445584081317
 20
-12.09255101346115
 30
0.0
  0
VERTEX
  5
296
  8
LAYER_1
 10
-28.94230924458937
 20
-12.11067681407541
 30
0.0
  0
VERTEX
  5
297
  8
LAYER_1
 10
-28.97164435765868
 20
-12.13663032828486
 30
0.0
  0
VERTEX
  5
298
  8
LAYER_1
 10
-28.99143552166033
 20
-12.17071338598738
 30
0.0
  0
VERTEX
  5
299
  8
LAYER_1
 10
-29.02816515354572
 20
-12.26642927238962
 30
0.0
  0
VERTEX
  5
29A
  8
LAYER_1
 10
-27.90241792812832
 20
-13.46249755471945
 30
0.0
  0
VERTEX
  5
29B
  8
LAYER_1
 10
-27.78843618554436
 20
-13.69940510490314
 30
0.0
  0
VERTEX
  5
29C
  8
LAYER_1
 10
-27.74659929848803
 20
-13.79733365672196
 30
0.0
  0
VERTEX
  5
29D
  8
LAYER_1
 10
-27.72104997972257
 20
-13.88427641506879
 30
0.0
  0
VERTEX
  5
29E
  8
LAYER_1
 10
-27.71201917458667
 20
-13.96113889020842
 30
0.0
  0
VERTEX
  5
29F
  8
LAYER_1
 10
-27.71973782841906
 20
-14.02882659240565
 30
0.0
  0
VERTEX
  5
2A0
  8
LAYER_1
 10
-27.74443688655846
 20
-14.08824503192527
 30
0.0
  0
VERTEX
  5
2A1
  8
LAYER_1
 10
-27.78634729434358
 20
-14.14029971903205
 30
0.0
  0
VERTEX
  5
2A2
  8
LAYER_1
 10
-27.84569999711312
 20
-14.18589616399081
 30
0.0
  0
VERTEX
  5
2A3
  8
LAYER_1
 10
-27.92272594020582
 20
-14.22593987706632
 30
0.0
  0
VERTEX
  5
2A4
  8
LAYER_1
 10
-28.08749813586473
 20
-14.29797140709171
 30
0.0
  0
VERTEX
  5
2A5
  8
LAYER_1
 10
-28.76027382150978
 20
-14.62662128058678
 30
0.0
  0
VERTEX
  5
2A6
  8
LAYER_1
 10
-29.03469215128094
 20
-14.77524576144645
 30
0.0
  0
VERTEX
  5
2A7
  8
LAYER_1
 10
-29.31023464906617
 20
-14.95111609781026
 30
0.0
  0
VERTEX
  5
2A8
  8
LAYER_1
 10
-29.57744434654429
 20
-15.14594296331278
 30
0.0
  0
VERTEX
  5
2A9
  8
LAYER_1
 10
-29.82686427539414
 20
-15.35143703158854
 30
0.0
  0
VERTEX
  5
2AA
  8
LAYER_1
 10
-30.04903746729455
 20
-15.55930897627208
 30
0.0
  0
VERTEX
  5
2AB
  8
LAYER_1
 10
-30.23450695392436
 20
-15.76126947099795
 30
0.0
  0
VERTEX
  5
2AC
  8
LAYER_1
 10
-30.31052250516242
 20
-15.85744251013755
 30
0.0
  0
VERTEX
  5
2AD
  8
LAYER_1
 10
-30.37381576696239
 20
-15.94902918940068
 30
0.0
  0
VERTEX
  5
2AE
  8
LAYER_1
 10
-30.42320461828412
 20
-16.03499334299167
 30
0.0
  0
VERTEX
  5
2AF
  8
LAYER_1
 10
-30.45750693808748
 20
-16.11429880511483
 30
0.0
  0
VERTEX
  5
2B0
  8
LAYER_1
 10
-30.48188683832384
 20
-16.17242902127084
 30
0.0
  0
VERTEX
  5
2B1
  8
LAYER_1
 10
-30.51332831407287
 20
-16.22339520407457
 30
0.0
  0
VERTEX
  5
2B2
  8
LAYER_1
 10
-30.55443387629668
 20
-16.26894963246969
 30
0.0
  0
VERTEX
  5
2B3
  8
LAYER_1
 10
-30.60780603595741
 20
-16.31084458539987
 30
0.0
  0
VERTEX
  5
2B4
  8
LAYER_1
 10
-30.67604730401716
 20
-16.35083234180879
 30
0.0
  0
VERTEX
  5
2B5
  8
LAYER_1
 10
-30.76176019143806
 20
-16.39066518064013
 30
0.0
  0
VERTEX
  5
2B6
  8
LAYER_1
 10
-30.99601086821176
 20
-16.47687522134478
 30
0.0
  0
VERTEX
  5
2B7
  8
LAYER_1
 10
-32.32499830424786
 20
-16.94532743834359
 30
0.0
  0
VERTEX
  5
2B8
  8
LAYER_1
 10
-33.89999836683273
 20
-17.50701717366449
 30
0.0
  0
VERTEX
  5
2B9
  8
LAYER_1
 10
-35.3437484242022
 20
-18.02812105334987
 30
0.0
  0
VERTEX
  5
2BA
  8
LAYER_1
 10
-36.80624848231673
 20
-18.56612168519454
 30
0.0
  0
VERTEX
  5
2BB
  8
LAYER_1
 10
-37.79841912983171
 20
-18.93039975210882
 30
0.0
  0
VERTEX
  5
2BC
  8
LAYER_1
 10
-39.02408107308692
 20
-19.39127511692877
 30
0.0
  0
VERTEX
  5
2BD
  8
LAYER_1
 10
-39.41179491183502
 20
-19.53068451659772
 30
0.0
  0
VERTEX
  5
2BE
  8
LAYER_1
 10
-39.5615819907371
 20
-19.57683792832347
 30
0.0
  0
VERTEX
  5
2BF
  8
LAYER_1
 10
-39.69047803363578
 20
-19.60910538125165
 30
0.0
  0
VERTEX
  5
2C0
  8
LAYER_1
 10
-39.80484968376448
 20
-19.62884805033843
 30
0.0
  0
VERTEX
  5
2C1
  8
LAYER_1
 10
-39.91106358435661
 20
-19.63742711053999
 30
0.0
  0
VERTEX
  5
2C2
  8
LAYER_1
 10
-40.01548637864561
 20
-19.63620373681251
 30
0.0
  0
VERTEX
  5
2C3
  8
LAYER_1
 10
-40.12448470986489
 20
-19.62653910411216
 30
0.0
  0
VERTEX
  5
2C4
  8
LAYER_1
 10
-40.31933585357373
 20
-19.59284545435084
 30
0.0
  0
VERTEX
  5
2C5
  8
LAYER_1
 10
-40.51247337107873
 20
-19.53811329917582
 30
0.0
  0
VERTEX
  5
2C6
  8
LAYER_1
 10
-40.70392603935151
 20
-19.4623262841767
 30
0.0
  0
VERTEX
  5
2C7
  8
LAYER_1
 10
-40.89372263536372
 20
-19.36546805494309
 30
0.0
  0
VERTEX
  5
2C8
  8
LAYER_1
 10
-41.08189193608698
 20
-19.24752225706456
 30
0.0
  0
VERTEX
  5
2C9
  8
LAYER_1
 10
-41.26846271849291
 20
-19.10847253613071
 30
0.0
  0
VERTEX
  5
2CA
  8
LAYER_1
 10
-41.45346375955316
 20
-18.94830253773114
 30
0.0
  0
VERTEX
  5
2CB
  8
LAYER_1
 10
-41.63692383623937
 20
-18.76699590745543
 30
0.0
  0
VERTEX
  5
2CC
  8
LAYER_1
 10
-41.85756258079124
 20
-18.54825245358023
 30
0.0
  0
VERTEX
  5
2CD
  8
LAYER_1
 10
-41.95348691949319
 20
-18.46523114343079
 30
0.0
  0
VERTEX
  5
2CE
  8
LAYER_1
 10
-42.04355547225718
 20
-18.39717648186453
 30
0.0
  0
VERTEX
  5
2CF
  8
LAYER_1
 10
-42.13057391641679
 20
-18.34213824692473
 30
0.0
  0
VERTEX
  5
2D0
  8
LAYER_1
 10
-42.21734792930553
 20
-18.29816621665471
 30
0.0
  0
VERTEX
  5
2D1
  8
LAYER_1
 10
-42.30668318825697
 20
-18.26331016909774
 30
0.0
  0
VERTEX
  5
2D2
  8
LAYER_1
 10
-42.40138537060463
 20
-18.23561988229714
 30
0.0
  0
VERTEX
  5
2D3
  8
LAYER_1
 10
-42.56566564321137
 20
-18.20183944314972
 30
0.0
  0
VERTEX
  5
2D4
  8
LAYER_1
 10
-42.75006707486735
 20
-18.17710477193597
 30
0.0
  0
VERTEX
  5
2D5
  8
LAYER_1
 10
-42.94804464342712
 20
-18.16147499450273
 30
0.0
  0
VERTEX
  5
2D6
  8
LAYER_1
 10
-43.15305332674531
 20
-18.15500923669691
 30
0.0
  0
VERTEX
  5
2D7
  8
LAYER_1
 10
-43.35854810267648
 20
-18.15776662436535
 30
0.0
  0
VERTEX
  5
2D8
  8
LAYER_1
 10
-43.55798394907522
 20
-18.16980628335494
 30
0.0
  0
VERTEX
  5
2D9
  8
LAYER_1
 10
-43.7448158437961
 20
-18.19118733951257
 30
0.0
  0
VERTEX
  5
2DA
  8
LAYER_1
 10
-43.91249876469374
 20
-18.22196891868508
 30
0.0
  0
VERTEX
  5
2DB
  8
LAYER_1
 10
-44.36671753274277
 20
-18.30661705295357
 30
0.0
  0
VERTEX
  5
2DC
  8
LAYER_1
 10
-45.03749880939722
 20
-18.41421613023859
 30
0.0
  0
VERTEX
  5
2DD
  8
LAYER_1
 10
-46.27499885857105
 20
-18.60635170000867
 30
0.0
  0
VERTEX
  5
2DE
  8
LAYER_1
 10
-47.43749890476465
 20
-18.78656247823938
 30
0.0
  0
VERTEX
  5
2DF
  8
LAYER_1
 10
-48.68749859419258
 20
-18.97763888060106
 30
0.0
  0
VERTEX
  5
2E0
  8
LAYER_1
 10
-49.72499899566174
 20
-19.1491745884962
 30
0.0
  0
VERTEX
  5
2E1
  8
LAYER_1
 10
-50.96249904483557
 20
-19.34999778866768
 30
0.0
  0
VERTEX
  5
2E2
  8
LAYER_1
 10
-52.1999990940094
 20
-19.54948196265744
 30
0.0
  0
VERTEX
  5
2E3
  8
LAYER_1
 10
-54.17542388636175
 20
-19.87672264028629
 30
0.0
  0
VERTEX
  5
2E4
  8
LAYER_1
 10
-56.24999925494194
 20
-20.20995681176917
 30
0.0
  0
VERTEX
  5
2E5
  8
LAYER_1
 10
-58.87499935925007
 20
-20.62871578525353
 30
0.0
  0
VERTEX
  5
2E6
  8
LAYER_1
 10
-60.26249941438437
 20
-20.85229043010872
 30
0.0
  0
VERTEX
  5
2E7
  8
LAYER_1
 10
-60.6937494315207
 20
-20.92614414217075
 30
0.0
  0
VERTEX
  5
2E8
  8
LAYER_1
 10
-62.34704194563736
 20
-21.20231914571863
 30
0.0
  0
VERTEX
  5
2E9
  8
LAYER_1
 10
-63.48749954253435
 20
-21.37556525865691
 30
0.0
  0
VERTEX
  5
2EA
  8
LAYER_1
 10
-64.11164019233547
 20
-21.47210933095405
 30
0.0
  0
VERTEX
  5
2EB
  8
LAYER_1
 10
-64.87499959766865
 20
-21.60163567786894
 30
0.0
  0
VERTEX
  5
2EC
  8
LAYER_1
 10
-66.18749964982271
 20
-21.82346001415034
 30
0.0
  0
VERTEX
  5
2ED
  8
LAYER_1
 10
-67.42213900829351
 20
-22.01979354272815
 30
0.0
  0
VERTEX
  5
2EE
  8
LAYER_1
 10
-67.8891097831775
 20
-22.10151599285063
 30
0.0
  0
VERTEX
  5
2EF
  8
LAYER_1
 10
-68.2706950718178
 20
-22.17533660651199
 30
0.0
  0
VERTEX
  5
2F0
  8
LAYER_1
 10
-68.57803021170733
 20
-22.24355116344962
 30
0.0
  0
VERTEX
  5
2F1
  8
LAYER_1
 10
-68.82225054033901
 20
-22.3084554434009
 30
0.0
  0
VERTEX
  5
2F2
  8
LAYER_1
 10
-69.0144913952058
 20
-22.3723452261032
 30
0.0
  0
VERTEX
  5
2F3
  8
LAYER_1
 10
-69.1658881138006
 20
-22.43751629129391
 30
0.0
  0
VERTEX
  5
2F4
  8
LAYER_1
 10
-69.29083036313479
 20
-22.50368649967993
 30
0.0
  0
VERTEX
  5
2F5
  8
LAYER_1
 10
-69.40059358067404
 20
-22.57161098254332
 30
0.0
  0
VERTEX
  5
2F6
  8
LAYER_1
 10
-69.49527644408437
 20
-22.64199498083065
 30
0.0
  0
VERTEX
  5
2F7
  8
LAYER_1
 10
-69.57497763103174
 20
-22.71554373548848
 30
0.0
  0
VERTEX
  5
2F8
  8
LAYER_1
 10
-69.63979581918218
 20
-22.79296248746337
 30
0.0
  0
VERTEX
  5
2F9
  8
LAYER_1
 10
-69.68982968620165
 20
-22.87495647770188
 30
0.0
  0
VERTEX
  5
2FA
  8
LAYER_1
 10
-69.72517790975617
 20
-22.96223094715057
 30
0.0
  0
VERTEX
  5
2FB
  8
LAYER_1
 10
-69.74593916751171
 20
-23.05549113675601
 30
0.0
  0
VERTEX
  5
2FC
  8
LAYER_1
 10
-69.75221213713428
 20
-23.15544228746475
 30
0.0
  0
VERTEX
  5
2FD
  8
LAYER_1
 10
-69.74409549628986
 20
-23.26278964022336
 30
0.0
  0
VERTEX
  5
2FE
  8
LAYER_1
 10
-69.72168792264446
 20
-23.3782384359784
 30
0.0
  0
VERTEX
  5
2FF
  8
LAYER_1
 10
-69.68508809386407
 20
-23.50249391567643
 30
0.0
  0
VERTEX
  5
300
  8
LAYER_1
 10
-69.63439468761467
 20
-23.63626132026401
 30
0.0
  0
VERTEX
  5
301
  8
LAYER_1
 10
-69.56970638156227
 20
-23.78024589068771
 30
0.0
  0
VERTEX
  5
302
  8
LAYER_1
 10
-69.39873978071243
 20
-24.10168749282969
 30
0.0
  0
VERTEX
  5
303
  8
LAYER_1
 10
-69.04454814299379
 20
-24.74159407968216
 30
0.0
  0
VERTEX
  5
304
  8
LAYER_1
 10
-68.68623975240023
 20
-25.4223589887312
 30
0.0
  0
VERTEX
  5
305
  8
LAYER_1
 10
-68.32499973475933
 20
-26.13221997570814
 30
0.0
  0
VERTEX
  5
306
  8
LAYER_1
 10
-68.32499973475933
 20
-26.25110902166275
 30
0.0
  0
VERTEX
  5
307
  8
LAYER_1
 10
-68.3201107840524
 20
-26.30289347957321
 30
0.0
  0
VERTEX
  5
308
  8
LAYER_1
 10
-68.30679928460286
 20
-26.35600409869987
 30
0.0
  0
VERTEX
  5
309
  8
LAYER_1
 10
-68.28709826541754
 20
-26.40420194150443
 30
0.0
  0
VERTEX
  5
30A
  8
LAYER_1
 10
-68.26304075550327
 20
-26.44124807044861
 30
0.0
  0
VERTEX
  5
30B
  8
LAYER_1
 10
-68.23229537099604
 20
-26.48942767807925
 30
0.0
  0
VERTEX
  5
30C
  8
LAYER_1
 10
-68.1977412939018
 20
-26.56792898027677
 30
0.0
  0
VERTEX
  5
30D
  8
LAYER_1
 10
-68.11645612009877
 20
-26.81852564991511
 30
0.0
  0
VERTEX
  5
30E
  8
LAYER_1
 10
-68.01768335038699
 20
-27.19829604244895
 30
0.0
  0
VERTEX
  5
30F
  8
LAYER_1
 10
-67.89992110105929
 20
-27.71249812096357
 30
0.0
  0
VERTEX
  5
310
  8
LAYER_1
 10
-67.76847658646788
 20
-28.31249814480543
 30
0.0
  0
VERTEX
  5
311
  8
LAYER_1
 10
-67.80757364707256
 20
-33.41249834746122
 30
0.0
  0
VERTEX
  5
312
  8
LAYER_1
 10
-67.6900190047188
 20
-33.96717787394866
 30
0.0
  0
VERTEX
  5
313
  8
LAYER_1
 10
-67.62847865141148
 20
-34.21876513444573
 30
0.0
  0
VERTEX
  5
314
  8
LAYER_1
 10
-67.55406937832183
 20
-34.45572935300253
 30
0.0
  0
VERTEX
  5
315
  8
LAYER_1
 10
-67.4679723132457
 20
-34.67584964080818
 30
0.0
  0
VERTEX
  5
316
  8
LAYER_1
 10
-67.37136858397888
 20
-34.87690510905173
 30
0.0
  0
VERTEX
  5
317
  8
LAYER_1
 10
-67.26543931831722
 20
-35.05667486892228
 30
0.0
  0
VERTEX
  5
318
  8
LAYER_1
 10
-67.15136564405657
 20
-35.21293803160892
 30
0.0
  0
VERTEX
  5
319
  8
LAYER_1
 10
-67.03032868899271
 20
-35.34347370830073
 30
0.0
  0
SEQEND
  5
CFA
  8
LAYER_1
  0
POLYLINE
  5
72
  8
LAYER_1
 66
     1
 10
0.0
 20
0.0
 30
0.0
 70
     1
  0
VERTEX
  5
31A
  8
LAYER_1
 10
-34.49999839067459
 20
-27.37960728239919
 30
0.0
  0
VERTEX
  5
31B
  8
LAYER_1
 10
-34.31249838322401
 20
-27.31666209357282
 30
0.0
  0
VERTEX
  5
31C
  8
LAYER_1
 10
-32.28749830275774
 20
-26.53699510800134
 30
0.0
  0
VERTEX
  5
31D
  8
LAYER_1
 10
-31.91249828785658
 20
-26.41275054769748
 30
0.0
  0
VERTEX
  5
31E
  8
LAYER_1
 10
-31.16249825805426
 20
-26.13769073552219
 30
0.0
  0
VERTEX
  5
31F
  8
LAYER_1
 10
-30.03749821335077
 20
-25.72308660423246
 30
0.0
  0
VERTEX
  5
320
  8
LAYER_1
 10
-29.02652798944072
 20
-25.35222001427568
 30
0.0
  0
VERTEX
  5
321
  8
LAYER_1
 10
-28.40306826807475
 20
-25.11633007406022
 30
0.0
  0
VERTEX
  5
322
  8
LAYER_1
 10
-28.19777189375723
 20
-25.02632185327855
 30
0.0
  0
VERTEX
  5
323
  8
LAYER_1
 10
-28.05017859818626
 20
-24.94661744583635
 30
0.0
  0
VERTEX
  5
324
  8
LAYER_1
 10
-27.95034894723901
 20
-24.87097633707517
 30
0.0
  0
VERTEX
  5
325
  8
LAYER_1
 10
-27.88834350679268
 20
-24.7931580123366
 30
0.0
  0
VERTEX
  5
326
  8
LAYER_1
 10
-27.85422284272443
 20
-24.7069219569622
 30
0.0
  0
VERTEX
  5
327
  8
LAYER_1
 10
-27.83804752091146
 20
-24.60602765629355
 30
0.0
  0
VERTEX
  5
328
  8
LAYER_1
 10
-27.83340663575222
 20
-24.4707022933763
 30
0.0
  0
VERTEX
  5
329
  8
LAYER_1
 10
-27.84383378022563
 20
-24.32224297727543
 30
0.0
  0
VERTEX
  5
32A
  8
LAYER_1
 10
-27.86910763516994
 20
-24.16148393253394
 30
0.0
  0
VERTEX
  5
32B
  8
LAYER_1
 10
-27.90900688142337
 20
-23.98925938369486
 30
0.0
  0
VERTEX
  5
32C
  8
LAYER_1
 10
-27.96331019982415
 20
-23.80640355530118
 30
0.0
  0
VERTEX
  5
32D
  8
LAYER_1
 10
-28.03179627121052
 20
-23.61375067189593
 30
0.0
  0
VERTEX
  5
32E
  8
LAYER_1
 10
-28.11424377642071
 20
-23.41213495802211
 30
0.0
  0
VERTEX
  5
32F
  8
LAYER_1
 10
-28.21043139629296
 20
-23.20239063822275
 30
0.0
  0
VERTEX
  5
330
  8
LAYER_1
 10
-28.30332364012866
 20
-23.01590601358221
 30
0.0
  0
VERTEX
  5
331
  8
LAYER_1
 10
-28.38510873477237
 20
-22.86775090935212
 30
0.0
  0
VERTEX
  5
332
  8
LAYER_1
 10
-28.45993714996055
 20
-22.75390439510458
 30
0.0
  0
VERTEX
  5
333
  8
LAYER_1
 10
-28.53195935542968
 20
-22.67034554041168
 30
0.0
  0
VERTEX
  5
334
  8
LAYER_1
 10
-28.60532582091625
 20
-22.61305341484551
 30
0.0
  0
VERTEX
  5
335
  8
LAYER_1
 10
-28.68418701615672
 20
-22.57800708797817
 30
0.0
  0
VERTEX
  5
336
  8
LAYER_1
 10
-28.77269341088759
 20
-22.56118562938175
 30
0.0
  0
VERTEX
  5
337
  8
LAYER_1
 10
-28.87499547484532
 20
-22.55856810862834
 30
0.0
  0
VERTEX
  5
338
  8
LAYER_1
 10
-29.0947964931689
 20
-22.56481755304515
 30
0.0
  0
VERTEX
  5
339
  8
LAYER_1
 10
-30.05364737263134
 20
-22.91339055551163
 30
0.0
  0
VERTEX
  5
33A
  8
LAYER_1
 10
-31.79999828338623
 20
-23.56302430752353
 30
0.0
  0
VERTEX
  5
33B
  8
LAYER_1
 10
-32.58749831467867
 20
-23.86408505706896
 30
0.0
  0
VERTEX
  5
33C
  8
LAYER_1
 10
-32.8874983265996
 20
-23.98625888324958
 30
0.0
  0
VERTEX
  5
33D
  8
LAYER_1
 10
-35.66249843686819
 20
-25.00598525978344
 30
0.0
  0
VERTEX
  5
33E
  8
LAYER_1
 10
-35.83124844357371
 20
-25.11161738580867
 30
0.0
  0
VERTEX
  5
33F
  8
LAYER_1
 10
-35.89677090711484
 20
-25.16375765002872
 30
0.0
  0
VERTEX
  5
340
  8
LAYER_1
 10
-35.95042813580949
 20
-25.22763699706986
 30
0.0
  0
VERTEX
  5
341
  8
LAYER_1
 10
-35.98668302006263
 20
-25.2951630144598
 30
0.0
  0
VERTEX
  5
342
  8
LAYER_1
 10
-35.99999845027924
 20
-25.35824328972623
 30
0.0
  0
VERTEX
  5
343
  8
LAYER_1
 10
-35.99999845027924
 20
-25.49923706761857
 30
0.0
  0
VERTEX
  5
344
  8
LAYER_1
 10
-35.31263600629986
 20
-27.21689128851877
 30
0.0
  0
VERTEX
  5
345
  8
LAYER_1
 10
-35.21791912970637
 20
-27.29549931425051
 30
0.0
  0
VERTEX
  5
346
  8
LAYER_1
 10
-35.15644634627986
 20
-27.3348840529059
 30
0.0
  0
VERTEX
  5
347
  8
LAYER_1
 10
-35.07814835329307
 20
-27.36704483448618
 30
0.0
  0
VERTEX
  5
348
  8
LAYER_1
 10
-34.98739956853294
 20
-27.39146917429508
 30
0.0
  0
VERTEX
  5
349
  8
LAYER_1
 10
-34.88857440978637
 20
-27.40764458763631
 30
0.0
  0
VERTEX
  5
34A
  8
LAYER_1
 10
-34.78604729484032
 20
-27.41505858981362
 30
0.0
  0
VERTEX
  5
34B
  8
LAYER_1
 10
-34.68419264148172
 20
-27.41319869613072
 30
0.0
  0
VERTEX
  5
34C
  8
LAYER_1
 10
-34.58738486749749
 20
-27.40155242189134
 30
0.0
  0
SEQEND
  5
CFB
  8
LAYER_1
  0
POLYLINE
  5
73
  8
LAYER_1
 66
     1
 10
0.0
 20
0.0
 30
0.0
 70
     1
  0
VERTEX
  5
34D
  8
LAYER_1
 10
-24.63749799877405
 20
-23.96806855930014
 30
0.0
  0
VERTEX
  5
34E
  8
LAYER_1
 10
-24.24622742418504
 20
-23.87299705540413
 30
0.0
  0
VERTEX
  5
34F
  8
LAYER_1
 10
-23.93742798272999
 20
-23.78677090310342
 30
0.0
  0
VERTEX
  5
350
  8
LAYER_1
 10
-23.77913569574933
 20
-23.73125260469072
 30
0.0
  0
VERTEX
  5
351
  8
LAYER_1
 10
-23.63078123133583
 20
-23.66908618484033
 30
0.0
  0
VERTEX
  5
352
  8
LAYER_1
 10
-23.49240554689877
 20
-23.60032317328754
 30
0.0
  0
VERTEX
  5
353
  8
LAYER_1
 10
-23.3640495998474
 20
-23.52501509976764
 30
0.0
  0
VERTEX
  5
354
  8
LAYER_1
 10
-23.245754347591
 20
-23.44321349401591
 30
0.0
  0
VERTEX
  5
355
  8
LAYER_1
 10
-23.13756074753885
 20
-23.35496988576766
 30
0.0
  0
VERTEX
  5
356
  8
LAYER_1
 10
-23.03950975710021
 20
-23.26033580475815
 30
0.0
  0
VERTEX
  5
357
  8
LAYER_1
 10
-22.95164233368435
 20
-23.15936278072269
 30
0.0
  0
VERTEX
  5
358
  8
LAYER_1
 10
-22.87399943470054
 20
-23.05210234339655
 30
0.0
  0
VERTEX
  5
359
  8
LAYER_1
 10
-22.80662201755806
 20
-22.93860602251504
 30
0.0
  0
VERTEX
  5
35A
  8
LAYER_1
 10
-22.74955103966617
 20
-22.81892534781343
 30
0.0
  0
VERTEX
  5
35B
  8
LAYER_1
 10
-22.70282745843414
 20
-22.69311184902701
 30
0.0
  0
VERTEX
  5
35C
  8
LAYER_1
 10
-22.66649223127125
 20
-22.56121705589108
 30
0.0
  0
VERTEX
  5
35D
  8
LAYER_1
 10
-22.64058631558676
 20
-22.42329249814091
 30
0.0
  0
VERTEX
  5
35E
  8
LAYER_1
 10
-22.62515066878994
 20
-22.27938970551181
 30
0.0
  0
VERTEX
  5
35F
  8
LAYER_1
 10
-22.62022624829007
 20
-22.12956020773905
 30
0.0
  0
VERTEX
  5
360
  8
LAYER_1
 10
-22.6294144437557
 20
-21.9308266710345
 30
0.0
  0
VERTEX
  5
361
  8
LAYER_1
 10
-22.65665881391695
 20
-21.74602680832759
 30
0.0
  0
VERTEX
  5
362
  8
LAYER_1
 10
-22.70287624227628
 20
-21.57326103513759
 30
0.0
  0
VERTEX
  5
363
  8
LAYER_1
 10
-22.76898361233615
 20
-21.41062976698375
 30
0.0
  0
VERTEX
  5
364
  8
LAYER_1
 10
-22.855897807599
 20
-21.25623341938533
 30
0.0
  0
VERTEX
  5
365
  8
LAYER_1
 10
-22.9645357115673
 20
-21.10817240786159
 30
0.0
  0
VERTEX
  5
366
  8
LAYER_1
 10
-23.09581420774349
 20
-20.96454714793177
 30
0.0
  0
VERTEX
  5
367
  8
LAYER_1
 10
-23.25065017963005
 20
-20.82345805511514
 30
0.0
  0
VERTEX
  5
368
  8
LAYER_1
 10
-23.38716012834688
 20
-20.72038903209745
 30
0.0
  0
VERTEX
  5
369
  8
LAYER_1
 10
-23.4482198528078
 20
-20.68706472785929
 30
0.0
  0
VERTEX
  5
36A
  8
LAYER_1
 10
-23.50972623190476
 20
-20.66440926582726
 30
0.0
  0
VERTEX
  5
36B
  8
LAYER_1
 10
-23.57561188156356
 20
-20.65131917402061
 30
0.0
  0
VERTEX
  5
36C
  8
LAYER_1
 10
-23.64980941770998
 20
-20.64669098045862
 30
0.0
  0
VERTEX
  5
36D
  8
LAYER_1
 10
-23.83887061316883
 20
-20.65840640014558
 30
0.0
  0
VERTEX
  5
36E
  8
LAYER_1
 10
-25.02796456785421
 20
-20.78211315475122
 30
0.0
  0
VERTEX
  5
36F
  8
LAYER_1
 10
-25.50058669091327
 20
-20.83596137340541
 30
0.0
  0
VERTEX
  5
370
  8
LAYER_1
 10
-25.65831682758699
 20
-20.86152834829439
 30
0.0
  0
VERTEX
  5
371
  8
LAYER_1
 10
-25.77756408687353
 20
-20.8904435902564
 30
0.0
  0
VERTEX
  5
372
  8
LAYER_1
 10
-25.86875677316041
 20
-20.9258968668153
 30
0.0
  0
VERTEX
  5
373
  8
LAYER_1
 10
-25.94232319083513
 20
-20.97107794549492
 30
0.0
  0
VERTEX
  5
374
  8
LAYER_1
 10
-26.0086916442852
 20
-21.02917659381912
 30
0.0
  0
VERTEX
  5
375
  8
LAYER_1
 10
-26.07829043789815
 20
-21.10338257931173
 30
0.0
  0
VERTEX
  5
376
  8
LAYER_1
 10
-26.25935428058953
 20
-21.31851318573133
 30
0.0
  0
VERTEX
  5
377
  8
LAYER_1
 10
-26.40586728099878
 20
-21.52272979342201
 30
0.0
  0
VERTEX
  5
378
  8
LAYER_1
 10
-26.51893994248804
 20
-21.71929972134036
 30
0.0
  0
VERTEX
  5
379
  8
LAYER_1
 10
-26.59968276841944
 20
-21.91149028844296
 30
0.0
  0
VERTEX
  5
37A
  8
LAYER_1
 10
-26.64920626215512
 20
-22.10256881368641
 30
0.0
  0
VERTEX
  5
37B
  8
LAYER_1
 10
-26.66862092705722
 20
-22.2958026160273
 30
0.0
  0
VERTEX
  5
37C
  8
LAYER_1
 10
-26.65903726648789
 20
-22.49445901442223
 30
0.0
  0
VERTEX
  5
37D
  8
LAYER_1
 10
-26.62156578380924
 20
-22.70180532782778
 30
0.0
  0
VERTEX
  5
37E
  8
LAYER_1
 10
-26.57891750051743
 20
-22.86216268636954
 30
0.0
  0
VERTEX
  5
37F
  8
LAYER_1
 10
-26.53465073207908
 20
-22.99925486239104
 30
0.0
  0
VERTEX
  5
380
  8
LAYER_1
 10
-26.49399529192646
 20
-23.09852577147246
 30
0.0
  0
VERTEX
  5
381
  8
LAYER_1
 10
-26.46218099349188
 20
-23.14541932919396
 30
0.0
  0
VERTEX
  5
382
  8
LAYER_1
 10
-26.42974388280634
 20
-23.18110874802957
 30
0.0
  0
VERTEX
  5
383
  8
LAYER_1
 10
-26.40934141140749
 20
-23.23553214835646
 30
0.0
  0
VERTEX
  5
384
  8
LAYER_1
 10
-26.40028107925291
 20
-23.30144866935187
 30
0.0
  0
VERTEX
  5
385
  8
LAYER_1
 10
-26.40187038630019
 20
-23.37161745019306
 30
0.0
  0
VERTEX
  5
386
  8
LAYER_1
 10
-26.4134168325069
 20
-23.43879763005728
 30
0.0
  0
VERTEX
  5
387
  8
LAYER_1
 10
-26.43422791783065
 20
-23.49574834812178
 30
0.0
  0
VERTEX
  5
388
  8
LAYER_1
 10
-26.463611142229
 20
-23.53522874356383
 30
0.0
  0
VERTEX
  5
389
  8
LAYER_1
 10
-26.4813009003179
 20
-23.54615480129433
 30
0.0
  0
VERTEX
  5
38A
  8
LAYER_1
 10
-26.50087400565955
 20
-23.54999795556068
 30
0.0
  0
VERTEX
  5
38B
  8
LAYER_1
 10
-26.546910209391
 20
-23.54186657999397
 30
0.0
  0
VERTEX
  5
38C
  8
LAYER_1
 10
-26.59601649617635
 20
-23.51783213809882
 30
0.0
  0
VERTEX
  5
38D
  8
LAYER_1
 10
-26.64771263166972
 20
-23.47843415708275
 30
0.0
  0
VERTEX
  5
38E
  8
LAYER_1
 10
-26.70151838152521
 20
-23.42421216415323
 30
0.0
  0
VERTEX
  5
38F
  8
LAYER_1
 10
-26.81353778693899
 20
-23.27345425138391
 30
0.0
  0
VERTEX
  5
390
  8
LAYER_1
 10
-26.92823283765057
 20
-23.06987461745086
 30
0.0
  0
VERTEX
  5
391
  8
LAYER_1
 10
-26.95104088652948
 20
-23.01292058375109
 30
0.0
  0
VERTEX
  5
392
  8
LAYER_1
 10
-26.97099467270571
 20
-22.93991025222785
 30
0.0
  0
VERTEX
  5
393
  8
LAYER_1
 10
-27.00227621169603
 20
-22.7537275320316
 30
0.0
  0
VERTEX
  5
394
  8
LAYER_1
 10
-27.02195096411344
 20
-22.52734012950335
 30
0.0
  0
VERTEX
  5
395
  8
LAYER_1
 10
-27.02989243944985
 20
-22.27676171728434
 30
0.0
  0
VERTEX
  5
396
  8
LAYER_1
 10
-27.02597414719715
 20
-22.01800596801582
 30
0.0
  0
VERTEX
  5
397
  8
LAYER_1
 10
-27.01006959684725
 20
-21.76708655433902
 30
0.0
  0
VERTEX
  5
398
  8
LAYER_1
 10
-26.98205229789204
 20
-21.54001714889518
 30
0.0
  0
VERTEX
  5
399
  8
LAYER_1
 10
-26.94179575982344
 20
-21.35281142432555
 30
0.0
  0
VERTEX
  5
39A
  8
LAYER_1
 10
-26.89277964003335
 20
-21.17735309819545
 30
0.0
  0
VERTEX
  5
39B
  8
LAYER_1
 10
-26.88982946227492
 20
-21.12948925980741
 30
0.0
  0
VERTEX
  5
39C
  8
LAYER_1
 10
-26.89612552303199
 20
-21.11449990804659
 30
0.0
  0
VERTEX
  5
39D
  8
LAYER_1
 10
-26.90850965653788
 20
-21.1050822626751
 30
0.0
  0
VERTEX
  5
39E
  8
LAYER_1
 10
-26.95426406076998
 20
-21.10179207540182
 30
0.0
  0
VERTEX
  5
39F
  8
LAYER_1
 10
-27.03253651291894
 20
-21.11727866659085
 30
0.0
  0
VERTEX
  5
3A0
  8
LAYER_1
 10
-27.30841091275843
 20
-21.19522205876903
 30
0.0
  0
VERTEX
  5
3A1
  8
LAYER_1
 10
-27.35813544655247
 20
-21.21246962469982
 30
0.0
  0
VERTEX
  5
3A2
  8
LAYER_1
 10
-27.39572789361717
 20
-21.23717045180917
 30
0.0
  0
VERTEX
  5
3A3
  8
LAYER_1
 10
-27.42245885987731
 20
-21.27690628977652
 30
0.0
  0
VERTEX
  5
3A4
  8
LAYER_1
 10
-27.43959895125769
 20
-21.33925888828131
 30
0.0
  0
VERTEX
  5
3A5
  8
LAYER_1
 10
-27.44841877368313
 20
-21.43180999700299
 30
0.0
  0
VERTEX
  5
3A6
  8
LAYER_1
 10
-27.45018893307841
 20
-21.562141365621
 30
0.0
  0
VERTEX
  5
3A7
  8
LAYER_1
 10
-27.43766268647772
 20
-21.96647188126374
 30
0.0
  0
VERTEX
  5
3A8
  8
LAYER_1
 10
-27.42538492601522
 20
-22.17579721263763
 30
0.0
  0
VERTEX
  5
3A9
  8
LAYER_1
 10
-27.40576961852168
 20
-22.37203153535236
 30
0.0
  0
VERTEX
  5
3AA
  8
LAYER_1
 10
-27.37861905897479
 20
-22.55550130448157
 30
0.0
  0
VERTEX
  5
3AB
  8
LAYER_1
 10
-27.34373554235221
 20
-22.72653297509892
 30
0.0
  0
VERTEX
  5
3AC
  8
LAYER_1
 10
-27.30092136363161
 20
-22.88545300227805
 30
0.0
  0
VERTEX
  5
3AD
  8
LAYER_1
 10
-27.24997881779066
 20
-23.0325878410926
 30
0.0
  0
VERTEX
  5
3AE
  8
LAYER_1
 10
-27.19071019980703
 20
-23.16826394661624
 30
0.0
  0
VERTEX
  5
3AF
  8
LAYER_1
 10
-27.12291780465838
 20
-23.29280777392258
 30
0.0
  0
VERTEX
  5
3B0
  8
LAYER_1
 10
-27.04640392732238
 20
-23.4065457780853
 30
0.0
  0
VERTEX
  5
3B1
  8
LAYER_1
 10
-26.96097086277672
 20
-23.50980441417802
 30
0.0
  0
VERTEX
  5
3B2
  8
LAYER_1
 10
-26.86642090599905
 20
-23.6029101372744
 30
0.0
  0
VERTEX
  5
3B3
  8
LAYER_1
 10
-26.76255635196704
 20
-23.68618940244809
 30
0.0
  0
VERTEX
  5
3B4
  8
LAYER_1
 10
-26.64917949565837
 20
-23.75996866477272
 30
0.0
  0
VERTEX
  5
3B5
  8
LAYER_1
 10
-26.5260926320507
 20
-23.82457437932195
 30
0.0
  0
VERTEX
  5
3B6
  8
LAYER_1
 10
-26.3930980561217
 20
-23.88033300116942
 30
0.0
  0
VERTEX
  5
3B7
  8
LAYER_1
 10
-26.24999806284904
 20
-23.92757098538878
 30
0.0
  0
VERTEX
  5
3B8
  8
LAYER_1
 10
-26.07237962938219
 20
-23.97078483554731
 30
0.0
  0
VERTEX
  5
3B9
  8
LAYER_1
 10
-25.87676834814766
 20
-24.00337828530854
 30
0.0
  0
VERTEX
  5
3BA
  8
LAYER_1
 10
-25.66874006095179
 20
-24.02521129866833
 30
0.0
  0
VERTEX
  5
3BB
  8
LAYER_1
 10
-25.45387060960092
 20
-24.03614383962251
 30
0.0
  0
VERTEX
  5
3BC
  8
LAYER_1
 10
-25.23773583590137
 20
-24.03603587216694
 30
0.0
  0
VERTEX
  5
3BD
  8
LAYER_1
 10
-25.02591158165949
 20
-24.02474736029745
 30
0.0
  0
VERTEX
  5
3BE
  8
LAYER_1
 10
-24.8239736886816
 20
-24.00213826800991
 30
0.0
  0
SEQEND
  5
CFC
  8
LAYER_1
  0
POLYLINE
  5
74
  8
LAYER_1
 66
     1
 10
0.0
 20
0.0
 30
0.0
 70
     1
  0
VERTEX
  5
3BF
  8
LAYER_1
 10
25.12500397861004
 20
-5.544400025922073
 30
0.0
  0
VERTEX
  5
3C0
  8
LAYER_1
 10
25.76250400394201
 20
-5.614813397229
 30
0.0
  0
VERTEX
  5
3C1
  8
LAYER_1
 10
27.03750405460596
 20
-5.589153256393004
 30
0.0
  0
VERTEX
  5
3C2
  8
LAYER_1
 10
27.69206813715036
 20
-5.567089931186883
 30
0.0
  0
VERTEX
  5
3C3
  8
LAYER_1
 10
28.27088623722974
 20
-5.526374052748153
 30
0.0
  0
VERTEX
  5
3C4
  8
LAYER_1
 10
28.82363826946656
 20
-5.462409794346888
 30
0.0
  0
VERTEX
  5
3C5
  8
LAYER_1
 10
29.40000414848328
 20
-5.370601329253162
 30
0.0
  0
VERTEX
  5
3C6
  8
LAYER_1
 10
30.07163160676071
 20
-5.246574822682376
 30
0.0
  0
VERTEX
  5
3C7
  8
LAYER_1
 10
30.66498134856737
 20
-5.120013987715891
 30
0.0
  0
VERTEX
  5
3C8
  8
LAYER_1
 10
31.36646751976178
 20
-4.947922650898091
 30
0.0
  0
VERTEX
  5
3C9
  8
LAYER_1
 10
32.36250426620245
 20
-4.687304638773355
 30
0.0
  0
VERTEX
  5
3CA
  8
LAYER_1
 10
33.03750429302454
 20
-4.508558905718914
 30
0.0
  0
VERTEX
  5
3CB
  8
LAYER_1
 10
34.27500434219837
 20
-4.099029312153704
 30
0.0
  0
VERTEX
  5
3CC
  8
LAYER_1
 10
35.40896942684722
 20
-3.71340340453285
 30
0.0
  0
VERTEX
  5
3CD
  8
LAYER_1
 10
36.51914334127854
 20
-3.314136590571477
 30
0.0
  0
VERTEX
  5
3CE
  8
LAYER_1
 10
37.63625919617583
 20
-2.889865334638673
 30
0.0
  0
VERTEX
  5
3CF
  8
LAYER_1
 10
38.79105010222258
 20
-2.429226101103524
 30
0.0
  0
VERTEX
  5
3D0
  8
LAYER_1
 10
40.01250457018614
 20
-1.931294698487747
 30
0.0
  0
VERTEX
  5
3D1
  8
LAYER_1
 10
40.68750459700823
 20
-1.66853318060906
 30
0.0
  0
VERTEX
  5
3D2
  8
LAYER_1
 10
41.5500046312809
 20
-1.313568690238128
 30
0.0
  0
VERTEX
  5
3D3
  8
LAYER_1
 10
43.01250468939543
 20
-0.711831348856407
 30
0.0
  0
VERTEX
  5
3D4
  8
LAYER_1
 10
44.32500474154949
 20
-0.1663483821231324
 30
0.0
  0
VERTEX
  5
3D5
  8
LAYER_1
 10
45.0375047698617
 20
0.132361733599339
 30
0.0
  0
VERTEX
  5
3D6
  8
LAYER_1
 10
49.2375049367547
 20
1.895185697327776
 30
0.0
  0
VERTEX
  5
3D7
  8
LAYER_1
 10
50.17500497400761
 20
2.269958472232403
 30
0.0
  0
VERTEX
  5
3D8
  8
LAYER_1
 10
50.85514415601389
 20
2.526570750281292
 30
0.0
  0
VERTEX
  5
3D9
  8
LAYER_1
 10
51.55654223306037
 20
2.761355551316086
 30
0.0
  0
VERTEX
  5
3DA
  8
LAYER_1
 10
52.27704414498762
 20
2.973798159324409
 30
0.0
  0
VERTEX
  5
3DB
  8
LAYER_1
 10
53.01449483163624
 20
3.163383858293887
 30
0.0
  0
VERTEX
  5
3DC
  8
LAYER_1
 10
53.76673923284682
 20
3.329597932212145
 30
0.0
  0
VERTEX
  5
3DD
  8
LAYER_1
 10
54.53162228845994
 20
3.471925665066808
 30
0.0
  0
VERTEX
  5
3DE
  8
LAYER_1
 10
55.30698893831621
 20
3.589852340845501
 30
0.0
  0
VERTEX
  5
3DF
  8
LAYER_1
 10
56.09068412225619
 20
3.682863243535849
 30
0.0
  0
VERTEX
  5
3E0
  8
LAYER_1
 10
56.94386306933913
 20
3.769988355015386
 30
0.0
  0
VERTEX
  5
3E1
  8
LAYER_1
 10
60.33750537782907
 20
3.6849744511061
 30
0.0
  0
VERTEX
  5
3E2
  8
LAYER_1
 10
61.01250540465117
 20
3.574639765794373
 30
0.0
  0
VERTEX
  5
3E3
  8
LAYER_1
 10
61.66534535656585
 20
3.463833764744718
 30
0.0
  0
VERTEX
  5
3E4
  8
LAYER_1
 10
62.23996446401543
 20
3.357027412831624
 30
0.0
  0
VERTEX
  5
3E5
  8
LAYER_1
 10
62.74613849374325
 20
3.251724146387597
 30
0.0
  0
VERTEX
  5
3E6
  8
LAYER_1
 10
63.19364321249266
 20
3.145427401745147
 30
0.0
  0
VERTEX
  5
3E7
  8
LAYER_1
 10
63.59225438700698
 20
3.035640615236785
 30
0.0
  0
VERTEX
  5
3E8
  8
LAYER_1
 10
63.95174778402958
 20
2.919867223195019
 30
0.0
  0
VERTEX
  5
3E9
  8
LAYER_1
 10
64.28189917030379
 20
2.795610661952359
 30
0.0
  0
VERTEX
  5
3EA
  8
LAYER_1
 10
64.59248431257296
 20
2.660374367841314
 30
0.0
  0
VERTEX
  5
3EB
  8
LAYER_1
 10
64.7629989285875
 20
2.58707141791055
 30
0.0
  0
VERTEX
  5
3EC
  8
LAYER_1
 10
64.91863101723774
 20
2.533460500539039
 30
0.0
  0
VERTEX
  5
3ED
  8
LAYER_1
 10
65.06147983195652
 20
2.499463959614121
 30
0.0
  0
VERTEX
  5
3EE
  8
LAYER_1
 10
65.19364462617663
 20
2.485004139023136
 30
0.0
  0
VERTEX
  5
3EF
  8
LAYER_1
 10
65.3172246533309
 20
2.490003382653423
 30
0.0
  0
VERTEX
  5
3F0
  8
LAYER_1
 10
65.4343191668521
 20
2.51438403439232
 30
0.0
  0
VERTEX
  5
3F1
  8
LAYER_1
 10
65.54702742017307
 20
2.558068438127168
 30
0.0
  0
VERTEX
  5
3F2
  8
LAYER_1
 10
65.65744866672662
 20
2.620978937745306
 30
0.0
  0
VERTEX
  5
3F3
  8
LAYER_1
 10
65.73037434040944
 20
2.673810292406503
 30
0.0
  0
VERTEX
  5
3F4
  8
LAYER_1
 10
65.796638188213
 20
2.73153609147836
 30
0.0
  0
VERTEX
  5
3F5
  8
LAYER_1
 10
65.85613332530231
 20
2.793739540114715
 30
0.0
  0
VERTEX
  5
3F6
  8
LAYER_1
 10
65.90875286684238
 20
2.860003843469408
 30
0.0
  0
VERTEX
  5
3F7
  8
LAYER_1
 10
65.95438992799819
 20
2.929912206696276
 30
0.0
  0
VERTEX
  5
3F8
  8
LAYER_1
 10
65.99293762393475
 20
3.003047834949159
 30
0.0
  0
VERTEX
  5
3F9
  8
LAYER_1
 10
66.02428906981706
 20
3.078993933381895
 30
0.0
  0
VERTEX
  5
3FA
  8
LAYER_1
 10
66.04833738081014
 20
3.157333707148323
 30
0.0
  0
VERTEX
  5
3FB
  8
LAYER_1
 10
66.06497567207896
 20
3.237650361402282
 30
0.0
  0
VERTEX
  5
3FC
  8
LAYER_1
 10
66.07409705878854
 20
3.319527101297609
 30
0.0
  0
VERTEX
  5
3FD
  8
LAYER_1
 10
66.07559465610387
 20
3.402547131988145
 30
0.0
  0
VERTEX
  5
3FE
  8
LAYER_1
 10
66.06936157918994
 20
3.486293658627726
 30
0.0
  0
VERTEX
  5
3FF
  8
LAYER_1
 10
66.05529094321179
 20
3.570349886370193
 30
0.0
  0
VERTEX
  5
400
  8
LAYER_1
 10
66.03327586333438
 20
3.654299020369384
 30
0.0
  0
VERTEX
  5
401
  8
LAYER_1
 10
66.00320945472274
 20
3.737724265779137
 30
0.0
  0
VERTEX
  5
402
  8
LAYER_1
 10
65.96498483254183
 20
3.820208827753291
 30
0.0
  0
VERTEX
  5
403
  8
LAYER_1
 10
65.9012637938527
 20
3.923480391856119
 30
0.0
  0
VERTEX
  5
404
  8
LAYER_1
 10
65.81254492179295
 20
4.036903027973
 30
0.0
  0
VERTEX
  5
405
  8
LAYER_1
 10
65.70093536556675
 20
4.158971859264074
 30
0.0
  0
VERTEX
  5
406
  8
LAYER_1
 10
65.56854227437826
 20
4.288182008889484
 30
0.0
  0
VERTEX
  5
407
  8
LAYER_1
 10
65.41747279743164
 20
4.423028600009371
 30
0.0
  0
VERTEX
  5
408
  8
LAYER_1
 10
65.24983408393106
 20
4.562006755783877
 30
0.0
  0
VERTEX
  5
409
  8
LAYER_1
 10
64.87327754408466
 20
4.846338253937313
 30
0.0
  0
VERTEX
  5
40A
  8
LAYER_1
 10
64.45572984847236
 20
5.129137488630928
 30
0.0
  0
VERTEX
  5
40B
  8
LAYER_1
 10
64.01404819072745
 20
5.398365445145854
 30
0.0
  0
VERTEX
  5
40C
  8
LAYER_1
 10
63.56508976448326
 20
5.641983108763226
 30
0.0
  0
VERTEX
  5
40D
  8
LAYER_1
 10
63.34314963618434
 20
5.750425888635684
 30
0.0
  0
VERTEX
  5
40E
  8
LAYER_1
 10
63.12571176337309
 20
5.847951464764179
 30
0.0
  0
VERTEX
  5
40F
  8
LAYER_1
 10
62.43750546127558
 20
6.141753070637023
 30
0.0
  0
VERTEX
  5
410
  8
LAYER_1
 10
61.0875054076314
 20
6.437766836415349
 30
0.0
  0
VERTEX
  5
411
  8
LAYER_1
 10
60.10866232909213
 20
6.648298295782431
 30
0.0
  0
VERTEX
  5
412
  8
LAYER_1
 10
59.27257944386081
 20
6.817798502764328
 30
0.0
  0
VERTEX
  5
413
  8
LAYER_1
 10
58.55042024460147
 20
6.950294731585133
 30
0.0
  0
VERTEX
  5
414
  8
LAYER_1
 10
57.91334822397813
 20
7.049814256468942
 30
0.0
  0
VERTEX
  5
415
  8
LAYER_1
 10
57.33252687465482
 20
7.120384351639846
 30
0.0
  0
VERTEX
  5
416
  8
LAYER_1
 10
56.77911968929556
 20
7.166032291321939
 30
0.0
  0
VERTEX
  5
417
  8
LAYER_1
 10
56.22429016056437
 20
7.190785349739314
 30
0.0
  0
VERTEX
  5
418
  8
LAYER_1
 10
55.63920178112528
 20
7.198670801116066
 30
0.0
  0
VERTEX
  5
419
  8
LAYER_1
 10
55.04087367204935
 20
7.189784420530515
 30
0.0
  0
VERTEX
  5
41A
  8
LAYER_1
 10
54.42528337731143
 20
7.161022423948621
 30
0.0
  0
VERTEX
  5
41B
  8
LAYER_1
 10
53.78853449492087
 20
7.111539173854984
 30
0.0
  0
VERTEX
  5
41C
  8
LAYER_1
 10
53.12673062288704
 20
7.040489032734207
 30
0.0
  0
VERTEX
  5
41D
  8
LAYER_1
 10
52.43597535921928
 20
6.947026363070892
 30
0.0
  0
VERTEX
  5
41E
  8
LAYER_1
 10
51.71237230192698
 20
6.830305527349638
 30
0.0
  0
VERTEX
  5
41F
  8
LAYER_1
 10
50.95202504901947
 20
6.68948088805505
 30
0.0
  0
VERTEX
  5
420
  8
LAYER_1
 10
50.15103719850612
 20
6.523706807671726
 30
0.0
  0
VERTEX
  5
421
  8
LAYER_1
 10
49.30551234839628
 20
6.33213764868427
 30
0.0
  0
VERTEX
  5
422
  8
LAYER_1
 10
48.41155409669931
 20
6.113927773577283
 30
0.0
  0
VERTEX
  5
423
  8
LAYER_1
 10
47.46526604142455
 20
5.868231544835366
 30
0.0
  0
VERTEX
  5
424
  8
LAYER_1
 10
46.46275178058139
 20
5.594203324943122
 30
0.0
  0
VERTEX
  5
425
  8
LAYER_1
 10
45.40011491217916
 20
5.290997476385151
 30
0.0
  0
VERTEX
  5
426
  8
LAYER_1
 10
44.27345903422723
 20
4.957768361646055
 30
0.0
  0
VERTEX
  5
427
  8
LAYER_1
 10
43.07888774473496
 20
4.593670343210436
 30
0.0
  0
VERTEX
  5
428
  8
LAYER_1
 10
41.81250464171171
 20
4.197857783562895
 30
0.0
  0
VERTEX
  5
429
  8
LAYER_1
 10
40.91250460594893
 20
3.913445371723384
 30
0.0
  0
VERTEX
  5
42A
  8
LAYER_1
 10
35.88750440627337
 20
2.269549403181529
 30
0.0
  0
VERTEX
  5
42B
  8
LAYER_1
 10
34.98750437051058
 20
2.001916851227591
 30
0.0
  0
VERTEX
  5
42C
  8
LAYER_1
 10
34.32422841706095
 20
1.809641612988671
 30
0.0
  0
VERTEX
  5
42D
  8
LAYER_1
 10
33.69460191210342
 20
1.637723916081784
 30
0.0
  0
VERTEX
  5
42E
  8
LAYER_1
 10
33.09016990702359
 20
1.484287967712641
 30
0.0
  0
VERTEX
  5
42F
  8
LAYER_1
 10
32.50247745320705
 20
1.347457975086954
 30
0.0
  0
VERTEX
  5
430
  8
LAYER_1
 10
31.92306960203938
 20
1.225358145410432
 30
0.0
  0
VERTEX
  5
431
  8
LAYER_1
 10
31.34349140490619
 20
1.116112685888786
 30
0.0
  0
VERTEX
  5
432
  8
LAYER_1
 10
30.75528791319306
 20
1.017845803727726
 30
0.0
  0
VERTEX
  5
433
  8
LAYER_1
 10
30.1500041782856
 20
0.9286817061329629
 30
0.0
  0
VERTEX
  5
434
  8
LAYER_1
 10
29.2125041410327
 20
0.7990918026365819
 30
0.0
  0
VERTEX
  5
435
  8
LAYER_1
 10
27.63750407844782
 20
0.8007421149530103
 30
0.0
  0
VERTEX
  5
436
  8
LAYER_1
 10
27.03281496944915
 20
0.8074246089419432
 30
0.0
  0
VERTEX
  5
437
  8
LAYER_1
 10
26.45365590090637
 20
0.8272138713120529
 30
0.0
  0
VERTEX
  5
438
  8
LAYER_1
 10
25.89388655226578
 20
0.8616699439620228
 30
0.0
  0
VERTEX
  5
439
  8
LAYER_1
 10
25.34736660297365
 20
0.9123528687905353
 30
0.0
  0
VERTEX
  5
43A
  8
LAYER_1
 10
24.80795573247628
 20
0.9808226876962738
 30
0.0
  0
VERTEX
  5
43B
  8
LAYER_1
 10
24.26951362021995
 20
1.068639442577921
 30
0.0
  0
VERTEX
  5
43C
  8
LAYER_1
 10
23.72589994565095
 20
1.17736317533416
 30
0.0
  0
VERTEX
  5
43D
  8
LAYER_1
 10
23.17097438821556
 20
1.308553927863674
 30
0.0
  0
VERTEX
  5
43E
  8
LAYER_1
 10
22.59859662736007
 20
1.463771742065145
 30
0.0
  0
VERTEX
  5
43F
  8
LAYER_1
 10
22.00262634253075
 20
1.644576659837257
 30
0.0
  0
VERTEX
  5
440
  8
LAYER_1
 10
21.37692321317391
 20
1.852528723078693
 30
0.0
  0
VERTEX
  5
441
  8
LAYER_1
 10
20.71534691873581
 20
2.089187973688135
 30
0.0
  0
VERTEX
  5
442
  8
LAYER_1
 10
20.01175713866276
 20
2.356114453564267
 30
0.0
  0
VERTEX
  5
443
  8
LAYER_1
 10
19.26001355240103
 20
2.654868204605771
 30
0.0
  0
VERTEX
  5
444
  8
LAYER_1
 10
18.45397583939692
 20
2.98700926871133
 30
0.0
  0
VERTEX
  5
445
  8
LAYER_1
 10
17.5875036790967
 20
3.354097687779628
 30
0.0
  0
VERTEX
  5
446
  8
LAYER_1
 10
16.60146639071154
 20
3.766836933307756
 30
0.0
  0
VERTEX
  5
447
  8
LAYER_1
 10
15.68818882765953
 20
4.129910817995404
 30
0.0
  0
VERTEX
  5
448
  8
LAYER_1
 10
14.88303344511799
 20
4.429679165320516
 30
0.0
  0
VERTEX
  5
449
  8
LAYER_1
 10
14.22136269826427
 20
4.652501798761037
 30
0.0
  0
VERTEX
  5
44A
  8
LAYER_1
 10
13.40522181875976
 20
4.906323330878337
 30
0.0
  0
VERTEX
  5
44B
  8
LAYER_1
 10
13.20843854679441
 20
5.103106602843681
 30
0.0
  0
VERTEX
  5
44C
  8
LAYER_1
 10
13.14929881889625
 20
5.157754168942501
 30
0.0
  0
VERTEX
  5
44D
  8
LAYER_1
 10
13.08898129229975
 20
5.203057296496429
 30
0.0
  0
VERTEX
  5
44E
  8
LAYER_1
 10
13.02395408605036
 20
5.240240995993203
 30
0.0
  0
VERTEX
  5
44F
  8
LAYER_1
 10
12.95068531919355
 20
5.270530277920564
 30
0.0
  0
VERTEX
  5
450
  8
LAYER_1
 10
12.86564311077475
 20
5.295150152766251
 30
0.0
  0
VERTEX
  5
451
  8
LAYER_1
 10
12.76529557983942
 20
5.315325631018005
 30
0.0
  0
VERTEX
  5
452
  8
LAYER_1
 10
12.50455702660099
 20
5.347243439690672
 30
0.0
  0
VERTEX
  5
453
  8
LAYER_1
 10
12.24497666012888
 20
5.378734805954244
 30
0.0
  0
VERTEX
  5
454
  8
LAYER_1
 10
12.14640919858976
 20
5.398295687094046
 30
0.0
  0
VERTEX
  5
455
  8
LAYER_1
 10
12.064129618287
 20
5.421971496194773
 30
0.0
  0
VERTEX
  5
456
  8
LAYER_1
 10
11.9947424692994
 20
5.450940830223114
 30
0.0
  0
VERTEX
  5
457
  8
LAYER_1
 10
11.93485230170577
 20
5.486382286145755
 30
0.0
  0
VERTEX
  5
458
  8
LAYER_1
 10
11.88106366558492
 20
5.529474460929383
 30
0.0
  0
VERTEX
  5
459
  8
LAYER_1
 10
11.82998111101563
 20
5.581395951540685
 30
0.0
  0
VERTEX
  5
45A
  8
LAYER_1
 10
11.77897120021526
 20
5.633445455282846
 30
0.0
  0
VERTEX
  5
45B
  8
LAYER_1
 10
11.72593136380429
 20
5.676321365421268
 30
0.0
  0
VERTEX
  5
45C
  8
LAYER_1
 10
11.66746766458221
 20
5.711188304721986
 30
0.0
  0
VERTEX
  5
45D
  8
LAYER_1
 10
11.60018616534849
 20
5.739210895951029
 30
0.0
  0
VERTEX
  5
45E
  8
LAYER_1
 10
11.52069292890261
 20
5.761553761874432
 30
0.0
  0
VERTEX
  5
45F
  8
LAYER_1
 10
11.42559401804406
 20
5.779381525258227
 30
0.0
  0
VERTEX
  5
460
  8
LAYER_1
 10
11.17500342428684
 20
5.806150235471122
 30
0.0
  0
VERTEX
  5
461
  8
LAYER_1
 10
10.26757711814787
 20
5.884222525124642
 30
0.0
  0
VERTEX
  5
462
  8
LAYER_1
 10
10.05058282650109
 20
5.898879582819861
 30
0.0
  0
VERTEX
  5
463
  8
LAYER_1
 10
9.903547425247156
 20
5.890183998560683
 30
0.0
  0
VERTEX
  5
464
  8
LAYER_1
 10
9.848619577603518
 20
5.875689144583667
 30
0.0
  0
VERTEX
  5
465
  8
LAYER_1
 10
9.802007775461306
 20
5.853688344780615
 30
0.0
  0
VERTEX
  5
466
  8
LAYER_1
 10
9.72150073821878
 20
5.78494519391316
 30
0.0
  0
VERTEX
  5
467
  8
LAYER_1
 10
9.679295233530969
 20
5.741512533016904
 30
0.0
  0
VERTEX
  5
468
  8
LAYER_1
 10
9.637492408085826
 20
5.710034688738755
 30
0.0
  0
VERTEX
  5
469
  8
LAYER_1
 10
9.588912949454542
 20
5.690231711226192
 30
0.0
  0
VERTEX
  5
46A
  8
LAYER_1
 10
9.526377545208293
 20
5.681823650626685
 30
0.0
  0
VERTEX
  5
46B
  8
LAYER_1
 10
9.442706882918262
 20
5.684530557087712
 30
0.0
  0
VERTEX
  5
46C
  8
LAYER_1
 10
9.33072165015563
 20
5.698072480756748
 30
0.0
  0
VERTEX
  5
46D
  8
LAYER_1
 10
8.99309022349729
 20
5.756541580308749
 30
0.0
  0
VERTEX
  5
46E
  8
LAYER_1
 10
8.647959837706399
 20
5.816518371241354
 30
0.0
  0
VERTEX
  5
46F
  8
LAYER_1
 10
8.534393800676405
 20
5.829822556105615
 30
0.0
  0
VERTEX
  5
470
  8
LAYER_1
 10
8.44900311873327
 20
5.831312812277908
 30
0.0
  0
VERTEX
  5
471
  8
LAYER_1
 10
8.383419730259412
 20
5.820470798540279
 30
0.0
  0
VERTEX
  5
472
  8
LAYER_1
 10
8.329275573637249
 20
5.796778173674777
 30
0.0
  0
VERTEX
  5
473
  8
LAYER_1
 10
8.221832709477681
 20
5.708767725688332
 30
0.0
  0
VERTEX
  5
474
  8
LAYER_1
 10
8.052835617017905
 20
5.550003200769424
 30
0.0
  0
VERTEX
  5
475
  8
LAYER_1
 10
-6.477829593968551
 20
5.550003200769424
 30
0.0
  0
VERTEX
  5
476
  8
LAYER_1
 10
-6.646826686428312
 20
5.708767725688304
 30
0.0
  0
VERTEX
  5
477
  8
LAYER_1
 10
-6.703196564199819
 20
5.759716596463404
 30
0.0
  0
VERTEX
  5
478
  8
LAYER_1
 10
-6.754269550587864
 20
5.796778173674728
 30
0.0
  0
VERTEX
  5
479
  8
LAYER_1
 10
-6.808413707210028
 20
5.820470798540227
 30
0.0
  0
VERTEX
  5
47A
  8
LAYER_1
 10
-6.873997095683892
 20
5.831312812277856
 30
0.0
  0
VERTEX
  5
47B
  8
LAYER_1
 10
-6.959387777627034
 20
5.829822556105569
 30
0.0
  0
VERTEX
  5
47C
  8
LAYER_1
 10
-7.072953814657035
 20
5.81651837124132
 30
0.0
  0
VERTEX
  5
47D
  8
LAYER_1
 10
-7.418084200447936
 20
5.756541580308749
 30
0.0
  0
VERTEX
  5
47E
  8
LAYER_1
 10
-7.755868644835223
 20
5.698039390054117
 30
0.0
  0
VERTEX
  5
47F
  8
LAYER_1
 10
-7.867864386668378
 20
5.684500654886051
 30
0.0
  0
VERTEX
  5
480
  8
LAYER_1
 10
-7.951526730361175
 20
5.681815444079779
 30
0.0
  0
VERTEX
  5
481
  8
LAYER_1
 10
-8.014053867488586
 20
5.69026772092702
 30
0.0
  0
VERTEX
  5
482
  8
LAYER_1
 10
-8.062643989625588
 20
5.710141448719492
 30
0.0
  0
VERTEX
  5
483
  8
LAYER_1
 10
-8.14680595522826
 20
5.785289110307005
 30
0.0
  0
VERTEX
  5
484
  8
LAYER_1
 10
-8.185270717224045
 20
5.823232457866479
 30
0.0
  0
VERTEX
  5
485
  8
LAYER_1
 10
-8.225961846713563
 20
5.853030627163335
 30
0.0
  0
VERTEX
  5
486
  8
LAYER_1
 10
-8.271352914994102
 20
5.875188161813656
 30
0.0
  0
VERTEX
  5
487
  8
LAYER_1
 10
-8.323917493362952
 20
5.890209605433526
 30
0.0
  0
VERTEX
  5
488
  8
LAYER_1
 10
-8.460461465554737
 20
5.900862394046239
 30
0.0
  0
VERTEX
  5
489
  8
LAYER_1
 10
-8.65538233366722
 20
5.889025341930136
 30
0.0
  0
VERTEX
  5
48A
  8
LAYER_1
 10
-9.562497399747372
 20
5.810302117574992
 30
0.0
  0
VERTEX
  5
48B
  8
LAYER_1
 10
-9.83432912803286
 20
5.781422505038445
 30
0.0
  0
VERTEX
  5
48C
  8
LAYER_1
 10
-9.934915014199543
 20
5.763318998278667
 30
0.0
  0
VERTEX
  5
48D
  8
LAYER_1
 10
-10.01712497491873
 20
5.741046017821246
 30
0.0
  0
VERTEX
  5
48E
  8
LAYER_1
 10
-10.08484205509281
 20
5.713308308638703
 30
0.0
  0
VERTEX
  5
48F
  8
LAYER_1
 10
-10.1419492996242
 20
5.678810615703556
 30
0.0
  0
VERTEX
  5
490
  8
LAYER_1
 10
-10.1923297534153
 20
5.636257683988328
 30
0.0
  0
VERTEX
  5
491
  8
LAYER_1
 10
-10.23986646136852
 20
5.584354258465538
 30
0.0
  0
VERTEX
  5
492
  8
LAYER_1
 10
-10.28639740059441
 20
5.5337928491568
 30
0.0
  0
VERTEX
  5
493
  8
LAYER_1
 10
-10.33631333097451
 20
5.491654320762363
 30
0.0
  0
VERTEX
  5
494
  8
LAYER_1
 10
-10.39265840892324
 20
5.456839382362784
 30
0.0
  0
VERTEX
  5
495
  8
LAYER_1
 10
-10.45847679085499
 20
5.428248743038617
 30
0.0
  0
VERTEX
  5
496
  8
LAYER_1
 10
-10.53681263318419
 20
5.404783111870421
 30
0.0
  0
VERTEX
  5
497
  8
LAYER_1
 10
-10.63071009232524
 20
5.385343197938749
 30
0.0
  0
VERTEX
  5
498
  8
LAYER_1
 10
-10.8773664867005
 20
5.354143358107208
 30
0.0
  0
VERTEX
  5
499
  8
LAYER_1
 10
-11.06357320830256
 20
5.331648452096131
 30
0.0
  0
VERTEX
  5
49A
  8
LAYER_1
 10
-11.22506621434183
 20
5.302360007740183
 30
0.0
  0
VERTEX
  5
49B
  8
LAYER_1
 10
-11.36292781639541
 20
5.265775751649017
 30
0.0
  0
VERTEX
  5
49C
  8
LAYER_1
 10
-11.47824032604036
 20
5.221393410432286
 30
0.0
  0
VERTEX
  5
49D
  8
LAYER_1
 10
-11.57208605485378
 20
5.168710710699642
 30
0.0
  0
VERTEX
  5
49E
  8
LAYER_1
 10
-11.64554731441276
 20
5.107225379060736
 30
0.0
  0
VERTEX
  5
49F
  8
LAYER_1
 10
-11.69970641629437
 20
5.036435142125222
 30
0.0
  0
VERTEX
  5
4A0
  8
LAYER_1
 10
-11.73564567207569
 20
4.95583772650275
 30
0.0
  0
VERTEX
  5
4A1
  8
LAYER_1
 10
-11.76691718905494
 20
4.894274561927682
 30
0.0
  0
VERTEX
  5
4A2
  8
LAYER_1
 10
-11.8173002207845
 20
4.836178039267372
 30
0.0
  0
VERTEX
  5
4A3
  8
LAYER_1
 10
-11.8798405431141
 20
4.788087535514971
 30
0.0
  0
VERTEX
  5
4A4
  8
LAYER_1
 10
-11.94758393189347
 20
4.756542427663632
 30
0.0
  0
VERTEX
  5
4A5
  8
LAYER_1
 10
-12.11249750107527
 20
4.705408809312743
 30
0.0
  0
VERTEX
  5
4A6
  8
LAYER_1
 10
-13.31249754875898
 20
4.14502672810454
 30
0.0
  0
VERTEX
  5
4A7
  8
LAYER_1
 10
-14.02830374921534
 20
3.819593785423005
 30
0.0
  0
VERTEX
  5
4A8
  8
LAYER_1
 10
-14.7180865637811
 20
3.524704738034089
 30
0.0
  0
VERTEX
  5
4A9
  8
LAYER_1
 10
-15.38565386301932
 20
3.259654859056444
 30
0.0
  0
VERTEX
  5
4AA
  8
LAYER_1
 10
-16.03481351749306
 20
3.023739421608718
 30
0.0
  0
VERTEX
  5
4AB
  8
LAYER_1
 10
-16.66937339776538
 20
2.816253698809563
 30
0.0
  0
VERTEX
  5
4AC
  8
LAYER_1
 10
-17.29314137439933
 20
2.636492963777629
 30
0.0
  0
VERTEX
  5
4AD
  8
LAYER_1
 10
-17.90992531795798
 20
2.483752489631565
 30
0.0
  0
VERTEX
  5
4AE
  8
LAYER_1
 10
-18.52353309900437
 20
2.357327549490023
 30
0.0
  0
VERTEX
  5
4AF
  8
LAYER_1
 10
-19.13777258810158
 20
2.256513416471652
 30
0.0
  0
VERTEX
  5
4B0
  8
LAYER_1
 10
-19.75645165581264
 20
2.180605363695103
 30
0.0
  0
VERTEX
  5
4B1
  8
LAYER_1
 10
-20.38337817270063
 20
2.128898664279027
 30
0.0
  0
VERTEX
  5
4B2
  8
LAYER_1
 10
-21.02236000932859
 20
2.100688591342073
 30
0.0
  0
VERTEX
  5
4B3
  8
LAYER_1
 10
-21.67720503625959
 20
2.095270418002891
 30
0.0
  0
VERTEX
  5
4B4
  8
LAYER_1
 10
-22.35172112405669
 20
2.111939417380132
 30
0.0
  0
VERTEX
  5
4B5
  8
LAYER_1
 10
-23.04971614328293
 20
2.149990862592447
 30
0.0
  0
VERTEX
  5
4B6
  8
LAYER_1
 10
-23.77499796450138
 20
2.208720026758485
 30
0.0
  0
VERTEX
  5
4B7
  8
LAYER_1
 10
-24.93749801069498
 20
2.3168247176975
 30
0.0
  0
VERTEX
  5
4B8
  8
LAYER_1
 10
-25.46249803155661
 20
2.42939716464285
 30
0.0
  0
VERTEX
  5
4B9
  8
LAYER_1
 10
-26.04423108952128
 20
2.558269924480182
 30
0.0
  0
VERTEX
  5
4BA
  8
LAYER_1
 10
-26.59289306554293
 20
2.689134175131709
 30
0.0
  0
VERTEX
  5
4BB
  8
LAYER_1
 10
-27.12428085272818
 20
2.826595001212087
 30
0.0
  0
VERTEX
  5
4BC
  8
LAYER_1
 10
-27.65419134418369
 20
2.97525748733597
 30
0.0
  0
VERTEX
  5
4BD
  8
LAYER_1
 10
-28.19842143301607
 20
3.139726718118014
 30
0.0
  0
VERTEX
  5
4BE
  8
LAYER_1
 10
-28.77276801233198
 20
3.324607778172874
 30
0.0
  0
VERTEX
  5
4BF
  8
LAYER_1
 10
-29.39302797523803
 20
3.534505752115206
 30
0.0
  0
VERTEX
  5
4C0
  8
LAYER_1
 10
-30.07499821484089
 20
3.774025724559664
 30
0.0
  0
VERTEX
  5
4C1
  8
LAYER_1
 10
-31.01249825209379
 20
4.108070269661013
 30
0.0
  0
VERTEX
  5
4C2
  8
LAYER_1
 10
-34.7624984011054
 20
5.487026570956246
 30
0.0
  0
VERTEX
  5
4C3
  8
LAYER_1
 10
-35.51249843090773
 20
5.748042570196375
 30
0.0
  0
VERTEX
  5
4C4
  8
LAYER_1
 10
-36.58101982028256
 20
6.11451785398865
 30
0.0
  0
VERTEX
  5
4C5
  8
LAYER_1
 10
-37.61879496382622
 20
6.460380861901067
 30
0.0
  0
VERTEX
  5
4C6
  8
LAYER_1
 10
-38.55967187890859
 20
6.763920220338929
 30
0.0
  0
VERTEX
  5
4C7
  8
LAYER_1
 10
-39.33749858289957
 20
7.003424555707539
 30
0.0
  0
VERTEX
  5
4C8
  8
LAYER_1
 10
-40.27108324735087
 20
7.265457562896533
 30
0.0
  0
VERTEX
  5
4C9
  8
LAYER_1
 10
-41.25108342921686
 20
7.512036916578476
 30
0.0
  0
VERTEX
  5
4CA
  8
LAYER_1
 10
-42.26020785183187
 20
7.739882041509666
 30
0.0
  0
VERTEX
  5
4CB
  8
LAYER_1
 10
-43.28116523853024
 20
7.945712362446395
 30
0.0
  0
VERTEX
  5
4CC
  8
LAYER_1
 10
-44.29666431264629
 20
8.12624730414496
 30
0.0
  0
VERTEX
  5
4CD
  8
LAYER_1
 10
-45.28941379751433
 20
8.278206291361652
 30
0.0
  0
VERTEX
  5
4CE
  8
LAYER_1
 10
-46.24212241646869
 20
8.39830874885277
 30
0.0
  0
VERTEX
  5
4CF
  8
LAYER_1
 10
-46.69805787727023
 20
8.445388599187579
 30
0.0
  0
VERTEX
  5
4D0
  8
LAYER_1
 10
-47.13749889284372
 20
8.483274101374604
 30
0.0
  0
VERTEX
  5
4D1
  8
LAYER_1
 10
-48.26249893754721
 20
8.569912672555446
 30
0.0
  0
VERTEX
  5
4D2
  8
LAYER_1
 10
-51.86249908059835
 20
8.484298611184528
 30
0.0
  0
VERTEX
  5
4D3
  8
LAYER_1
 10
-52.57499910891056
 20
8.364081349209997
 30
0.0
  0
VERTEX
  5
4D4
  8
LAYER_1
 10
-53.24120897028798
 20
8.242279794045082
 30
0.0
  0
VERTEX
  5
4D5
  8
LAYER_1
 10
-53.89159742944
 20
8.104430222272343
 30
0.0
  0
VERTEX
  5
4D6
  8
LAYER_1
 10
-54.52528628214372
 20
7.950788502788976
 30
0.0
  0
VERTEX
  5
4D7
  8
LAYER_1
 10
-55.1413973241762
 20
7.781610504492177
 30
0.0
  0
VERTEX
  5
4D8
  8
LAYER_1
 10
-55.73905235131453
 20
7.597152096279144
 30
0.0
  0
VERTEX
  5
4D9
  8
LAYER_1
 10
-56.31737315933582
 20
7.397669147047075
 30
0.0
  0
VERTEX
  5
4DA
  8
LAYER_1
 10
-56.87548154401712
 20
7.183417525693166
 30
0.0
  0
VERTEX
  5
4DB
  8
LAYER_1
 10
-57.41249930113554
 20
6.954653101114616
 30
0.0
  0
VERTEX
  5
4DC
  8
LAYER_1
 10
-58.00493923778372
 20
6.671737471950724
 30
0.0
  0
VERTEX
  5
4DD
  8
LAYER_1
 10
-58.65484834343377
 20
6.335561832419167
 30
0.0
  0
VERTEX
  5
4DE
  8
LAYER_1
 10
-59.23960239689269
 20
6.011681584085323
 30
0.0
  0
VERTEX
  5
4DF
  8
LAYER_1
 10
-59.46922620992765
 20
5.874838294606725
 30
0.0
  0
VERTEX
  5
4E0
  8
LAYER_1
 10
-59.63657717696744
 20
5.765652128514574
 30
0.0
  0
VERTEX
  5
4E1
  8
LAYER_1
 10
-59.78802793689413
 20
5.666318825399348
 30
0.0
  0
VERTEX
  5
4E2
  8
LAYER_1
 10
-59.8725981789704
 20
5.625003203749657
 30
0.0
  0
VERTEX
  5
4E3
  8
LAYER_1
 10
-59.90954138560774
 20
5.625003203749657
 30
0.0
  0
VERTEX
  5
4E4
  8
LAYER_1
 10
-61.36458914422835
 20
4.612503163516521
 30
0.0
  0
VERTEX
  5
4E5
  8
LAYER_1
 10
-61.53046042513924
 20
4.500003159046173
 30
0.0
  0
VERTEX
  5
4E6
  8
LAYER_1
 10
-61.70521825704628
 20
4.372691406778941
 30
0.0
  0
VERTEX
  5
4E7
  8
LAYER_1
 10
-61.94628054129382
 20
4.184749218810007
 30
0.0
  0
VERTEX
  5
4E8
  8
LAYER_1
 10
-62.55405429461959
 20
3.688116834311863
 30
0.0
  0
VERTEX
  5
4E9
  8
LAYER_1
 10
-63.20725334073487
 20
3.132392602641412
 30
0.0
  0
VERTEX
  5
4EA
  8
LAYER_1
 10
-63.75934933525799
 20
2.639863120888322
 30
0.0
  0
VERTEX
  5
4EB
  8
LAYER_1
 10
-64.03983336445302
 20
2.385602250534859
 30
0.0
  0
VERTEX
  5
4EC
  8
LAYER_1
 10
-64.22604068559815
 20
2.227363104497044
 30
0.0
  0
VERTEX
  5
4ED
  8
LAYER_1
 10
-64.29580010622686
 20
2.158394733130366
 30
0.0
  0
VERTEX
  5
4EE
  8
LAYER_1
 10
-64.36169174794792
 20
2.06320905420753
 30
0.0
  0
VERTEX
  5
4EF
  8
LAYER_1
 10
-64.42121420838444
 20
1.948957118590401
 30
0.0
  0
VERTEX
  5
4F0
  8
LAYER_1
 10
-64.47186608515958
 20
1.822789977140845
 30
0.0
  0
VERTEX
  5
4F1
  8
LAYER_1
 10
-64.51114597589645
 20
1.691858680720725
 30
0.0
  0
VERTEX
  5
4F2
  8
LAYER_1
 10
-64.5365524782182
 20
1.563314280191906
 30
0.0
  0
VERTEX
  5
4F3
  8
LAYER_1
 10
-64.54558418974796
 20
1.444307826416253
 30
0.0
  0
VERTEX
  5
4F4
  8
LAYER_1
 10
-64.53573970810886
 20
1.34199037025563
 30
0.0
  0
VERTEX
  5
4F5
  8
LAYER_1
 10
-64.49779908337085
 20
1.22932908756669
 30
0.0
  0
VERTEX
  5
4F6
  8
LAYER_1
 10
-64.43545305408222
 20
1.115105118539608
 30
0.0
  0
VERTEX
  5
4F7
  8
LAYER_1
 10
-64.35312737276443
 20
1.003556620787621
 30
0.0
  0
VERTEX
  5
4F8
  8
LAYER_1
 10
-64.25524779193894
 20
0.8989217519239645
 30
0.0
  0
VERTEX
  5
4F9
  8
LAYER_1
 10
-64.14624006412721
 20
0.805438669561876
 30
0.0
  0
VERTEX
  5
4FA
  8
LAYER_1
 10
-64.03052994185066
 20
0.727345531314592
 30
0.0
  0
VERTEX
  5
4FB
  8
LAYER_1
 10
-63.91254317763079
 20
0.6688804947953491
 30
0.0
  0
VERTEX
  5
4FC
  8
LAYER_1
 10
-63.79670552398903
 20
0.6342817176173838
 30
0.0
  0
VERTEX
  5
4FD
  8
LAYER_1
 10
-63.67689613044369
 20
0.6229815320079961
 30
0.0
  0
VERTEX
  5
4FE
  8
LAYER_1
 10
-63.54693867546399
 20
0.6302291905185342
 30
0.0
  0
VERTEX
  5
4FF
  8
LAYER_1
 10
-63.4160316925135
 20
0.654899219997576
 30
0.0
  0
VERTEX
  5
500
  8
LAYER_1
 10
-63.29337371505574
 20
0.6958661472936996
 30
0.0
  0
VERTEX
  5
501
  8
LAYER_1
 10
-63.03749952465296
 20
0.8038739060395557
 30
0.0
  0
VERTEX
  5
502
  8
LAYER_1
 10
-62.28749949485064
 20
1.367460246232625
 30
0.0
  0
VERTEX
  5
503
  8
LAYER_1
 10
-61.87104639683605
 20
1.671610235103072
 30
0.0
  0
VERTEX
  5
504
  8
LAYER_1
 10
-61.45095825839664
 20
1.960850712398952
 30
0.0
  0
VERTEX
  5
505
  8
LAYER_1
 10
-61.02697570754381
 20
2.235294102905624
 30
0.0
  0
VERTEX
  5
506
  8
LAYER_1
 10
-60.59883937228892
 20
2.495052831408443
 30
0.0
  0
VERTEX
  5
507
  8
LAYER_1
 10
-60.16628988064339
 20
2.740239322692767
 30
0.0
  0
VERTEX
  5
508
  8
LAYER_1
 10
-59.72906786061859
 20
2.970966001543951
 30
0.0
  0
VERTEX
  5
509
  8
LAYER_1
 10
-59.28691394022592
 20
3.187345292747353
 30
0.0
  0
VERTEX
  5
50A
  8
LAYER_1
 10
-58.83956874747676
 20
3.38948962108833
 30
0.0
  0
VERTEX
  5
50B
  8
LAYER_1
 10
-58.38677291038252
 20
3.577511411352239
 30
0.0
  0
VERTEX
  5
50C
  8
LAYER_1
 10
-57.92826705695457
 20
3.751523088324436
 30
0.0
  0
VERTEX
  5
50D
  8
LAYER_1
 10
-57.46379181520429
 20
3.911637076790279
 30
0.0
  0
VERTEX
  5
50E
  8
LAYER_1
 10
-56.99308781314309
 20
4.057965801535123
 30
0.0
  0
VERTEX
  5
50F
  8
LAYER_1
 10
-56.51589567878235
 20
4.190621687344326
 30
0.0
  0
VERTEX
  5
510
  8
LAYER_1
 10
-56.03195604013347
 20
4.309717159003245
 30
0.0
  0
VERTEX
  5
511
  8
LAYER_1
 10
-55.54100952520783
 20
4.415364641297236
 30
0.0
  0
VERTEX
  5
512
  8
LAYER_1
 10
-55.04279676201681
 20
4.507676559011657
 30
0.0
  0
VERTEX
  5
513
  8
LAYER_1
 10
-54.76207683759074
 20
4.550811330344298
 30
0.0
  0
VERTEX
  5
514
  8
LAYER_1
 10
-54.46045944714685
 20
4.588237856035402
 30
0.0
  0
VERTEX
  5
515
  8
LAYER_1
 10
-53.80493524633167
 20
4.645958490949091
 30
0.0
  0
VERTEX
  5
516
  8
LAYER_1
 10
-53.09703011582361
 20
4.680823104664917
 30
0.0
  0
VERTEX
  5
517
  8
LAYER_1
 10
-52.35755001187498
 20
4.692816338095071
 30
0.0
  0
VERTEX
  5
518
  8
LAYER_1
 10
-51.6073008907381
 20
4.681922832151743
 30
0.0
  0
VERTEX
  5
519
  8
LAYER_1
 10
-50.86708870866526
 20
4.648127227747125
 30
0.0
  0
VERTEX
  5
51A
  8
LAYER_1
 10
-50.15771942190881
 20
4.591414165793408
 30
0.0
  0
VERTEX
  5
51B
  8
LAYER_1
 10
-49.82110272560307
 20
4.554458788520698
 30
0.0
  0
VERTEX
  5
51C
  8
LAYER_1
 10
-49.49999898672104
 20
4.511768287202784
 30
0.0
  0
VERTEX
  5
51D
  8
LAYER_1
 10
-48.93228067326289
 20
4.422396125091993
 30
0.0
  0
VERTEX
  5
51E
  8
LAYER_1
 10
-48.3470479656302
 20
4.31735831562772
 30
0.0
  0
VERTEX
  5
51F
  8
LAYER_1
 10
-47.74518964934365
 20
4.196917860424582
 30
0.0
  0
VERTEX
  5
520
  8
LAYER_1
 10
-47.12759450992397
 20
4.061337761097196
 30
0.0
  0
VERTEX
  5
521
  8
LAYER_1
 10
-46.49515133289186
 20
3.910881019260179
 30
0.0
  0
VERTEX
  5
522
  8
LAYER_1
 10
-45.848748903768
 20
3.745810636528149
 30
0.0
  0
VERTEX
  5
523
  8
LAYER_1
 10
-45.1892760080731
 20
3.566389614515721
 30
0.0
  0
VERTEX
  5
524
  8
LAYER_1
 10
-44.51762143132787
 20
3.372880954837512
 30
0.0
  0
VERTEX
  5
525
  8
LAYER_1
 10
-43.834673959053
 20
3.165547659108141
 30
0.0
  0
VERTEX
  5
526
  8
LAYER_1
 10
-43.1413223767692
 20
2.944652728942222
 30
0.0
  0
VERTEX
  5
527
  8
LAYER_1
 10
-42.43845546999715
 20
2.710459165954373
 30
0.0
  0
VERTEX
  5
528
  8
LAYER_1
 10
-41.72696202425757
 20
2.463229971759211
 30
0.0
  0
VERTEX
  5
529
  8
LAYER_1
 10
-41.00773082507116
 20
2.203228147971354
 30
0.0
  0
VERTEX
  5
52A
  8
LAYER_1
 10
-40.28165065795862
 20
1.930716696205416
 30
0.0
  0
VERTEX
  5
52B
  8
LAYER_1
 10
-39.54961030844065
 20
1.645958618076017
 30
0.0
  0
VERTEX
  5
52C
  8
LAYER_1
 10
-38.81249856203794
 20
1.349216915197772
 30
0.0
  0
VERTEX
  5
52D
  8
LAYER_1
 10
-37.34999850392342
 20
0.7528609180670287
 30
0.0
  0
VERTEX
  5
52E
  8
LAYER_1
 10
-36.41249846667051
 20
0.3714083121678016
 30
0.0
  0
VERTEX
  5
52F
  8
LAYER_1
 10
-35.58749843388796
 20
0.004405989812895
 30
0.0
  0
VERTEX
  5
530
  8
LAYER_1
 10
-32.36249830573797
 20
-1.406982641587462
 30
0.0
  0
VERTEX
  5
531
  8
LAYER_1
 10
-31.94999828934669
 20
-1.596354386907294
 30
0.0
  0
VERTEX
  5
532
  8
LAYER_1
 10
-31.02071298184956
 20
-2.01316348099846
 30
0.0
  0
VERTEX
  5
533
  8
LAYER_1
 10
-30.057331368472
 20
-2.426980399017438
 30
0.0
  0
VERTEX
  5
534
  8
LAYER_1
 10
-29.09780031759976
 20
-2.821846543208854
 30
0.0
  0
VERTEX
  5
535
  8
LAYER_1
 10
-28.18006669761859
 20
-3.181803315817334
 30
0.0
  0
VERTEX
  5
536
  8
LAYER_1
 10
-27.67263523553058
 20
-3.375311295437115
 30
0.0
  0
VERTEX
  5
537
  8
LAYER_1
 10
-26.53006663205348
 20
-3.706080241091229
 30
0.0
  0
VERTEX
  5
538
  8
LAYER_1
 10
-25.90740017385745
 20
-3.876991945842498
 30
0.0
  0
VERTEX
  5
539
  8
LAYER_1
 10
-25.31377282980373
 20
-4.01955980066634
 30
0.0
  0
VERTEX
  5
53A
  8
LAYER_1
 10
-24.73691973772419
 20
-4.135471793398864
 30
0.0
  0
VERTEX
  5
53B
  8
LAYER_1
 10
-24.16457603545071
 20
-4.226415911876177
 30
0.0
  0
VERTEX
  5
53C
  8
LAYER_1
 10
-23.58447686081516
 20
-4.294080143934389
 30
0.0
  0
VERTEX
  5
53D
  8
LAYER_1
 10
-22.98435735164942
 20
-4.340152477409605
 30
0.0
  0
VERTEX
  5
53E
  8
LAYER_1
 10
-22.35195264578537
 20
-4.366320900137934
 30
0.0
  0
VERTEX
  5
53F
  8
LAYER_1
 10
-21.67499788105488
 20
-4.374273399955484
 30
0.0
  0
VERTEX
  5
540
  8
LAYER_1
 10
-21.02766588526686
 20
-4.365881943291924
 30
0.0
  0
VERTEX
  5
541
  8
LAYER_1
 10
-20.41811745363457
 20
-4.341052642410547
 30
0.0
  0
VERTEX
  5
542
  8
LAYER_1
 10
-19.83717392786289
 20
-4.298610763538873
 30
0.0
  0
VERTEX
  5
543
  8
LAYER_1
 10
-19.2756566496567
 20
-4.237381572904416
 30
0.0
  0
VERTEX
  5
544
  8
LAYER_1
 10
-18.72438696072089
 20
-4.156190336734696
 30
0.0
  0
VERTEX
  5
545
  8
LAYER_1
 10
-18.17418620276032
 20
-4.053862321257228
 30
0.0
  0
VERTEX
  5
546
  8
LAYER_1
 10
-17.61587571747988
 20
-3.929222792699528
 30
0.0
  0
VERTEX
  5
547
  8
LAYER_1
 10
-17.04027684658446
 20
-3.781097017289113
 30
0.0
  0
VERTEX
  5
548
  8
LAYER_1
 10
-16.41630797242811
 20
-3.59794709915012
 30
0.0
  0
VERTEX
  5
549
  8
LAYER_1
 10
-15.7776305863098
 20
-3.385860523462235
 30
0.0
  0
VERTEX
  5
54A
  8
LAYER_1
 10
-15.13279792755143
 20
-3.148439018608631
 30
0.0
  0
VERTEX
  5
54B
  8
LAYER_1
 10
-14.49036323547486
 20
-2.889284312972483
 30
0.0
  0
VERTEX
  5
54C
  8
LAYER_1
 10
-13.85887974940198
 20
-2.611998134936968
 30
0.0
  0
VERTEX
  5
54D
  8
LAYER_1
 10
-13.24690070865466
 20
-2.320182212885258
 30
0.0
  0
VERTEX
  5
54E
  8
LAYER_1
 10
-12.66297935255479
 20
-2.017438275200529
 30
0.0
  0
VERTEX
  5
54F
  8
LAYER_1
 10
-12.11566892042423
 20
-1.707368050265956
 30
0.0
  0
VERTEX
  5
550
  8
LAYER_1
 10
-11.87606929065728
 20
-1.571301278229576
 30
0.0
  0
VERTEX
  5
551
  8
LAYER_1
 10
-11.78957810966975
 20
-1.52978578233264
 30
0.0
  0
VERTEX
  5
552
  8
LAYER_1
 10
-11.71947469637588
 20
-1.504308193219437
 30
0.0
  0
VERTEX
  5
553
  8
LAYER_1
 10
-11.66139555959793
 20
-1.493637995917139
 30
0.0
  0
VERTEX
  5
554
  8
LAYER_1
 10
-11.61097720815819
 20
-1.49654467545292
 30
0.0
  0
VERTEX
  5
555
  8
LAYER_1
 10
-11.56385615087891
 20
-1.511797716853953
 30
0.0
  0
VERTEX
  5
556
  8
LAYER_1
 10
-11.51566889658237
 20
-1.53816660514741
 30
0.0
  0
VERTEX
  5
557
  8
LAYER_1
 10
-11.41664907685688
 20
-1.579527475510413
 30
0.0
  0
VERTEX
  5
558
  8
LAYER_1
 10
-11.26026997901188
 20
-1.621020269274572
 30
0.0
  0
VERTEX
  5
559
  8
LAYER_1
 10
-11.06800250622418
 20
-1.657823252380444
 30
0.0
  0
VERTEX
  5
55A
  8
LAYER_1
 10
-10.86131756167055
 20
-1.685114690768586
 30
0.0
  0
VERTEX
  5
55B
  8
LAYER_1
 10
-10.60230049040341
 20
-1.717994292381783
 30
0.0
  0
VERTEX
  5
55C
  8
LAYER_1
 10
-10.50781373806592
 20
-1.73737007348741
 30
0.0
  0
VERTEX
  5
55D
  8
LAYER_1
 10
-10.43184953306538
 20
-1.76051367140677
 30
0.0
  0
VERTEX
  5
55E
  8
LAYER_1
 10
-10.37078889425643
 20
-1.788782958600646
 30
0.0
  0
VERTEX
  5
55F
  8
LAYER_1
 10
-10.32101284049375
 20
-1.823535807529825
 30
0.0
  0
VERTEX
  5
560
  8
LAYER_1
 10
-10.27890239063199
 20
-1.86613009065509
 30
0.0
  0
VERTEX
  5
561
  8
LAYER_1
 10
-10.24083856352581
 20
-1.917923680437227
 30
0.0
  0
VERTEX
  5
562
  8
LAYER_1
 10
-10.17622057372854
 20
-1.996379328973997
 30
0.0
  0
VERTEX
  5
563
  8
LAYER_1
 10
-10.09970364710629
 20
-2.053635027127523
 30
0.0
  0
VERTEX
  5
564
  8
LAYER_1
 10
-10.01279914789876
 20
-2.088835713981992
 30
0.0
  0
VERTEX
  5
565
  8
LAYER_1
 10
-9.917018440345643
 20
-2.101126328621589
 30
0.0
  0
VERTEX
  5
566
  8
LAYER_1
 10
-9.824965211117966
 20
-2.108385759610769
 30
0.0
  0
VERTEX
  5
567
  8
LAYER_1
 10
-9.713079474016503
 20
-2.127568578616663
 30
0.0
  0
VERTEX
  5
568
  8
LAYER_1
 10
-9.463818715412462
 20
-2.191385817705228
 30
0.0
  0
VERTEX
  5
569
  8
LAYER_1
 10
-9.237252642974017
 20
-2.27194091994055
 30
0.0
  0
VERTEX
  5
56A
  8
LAYER_1
 10
-9.153735263579545
 20
-2.31204606787989
 30
0.0
  0
VERTEX
  5
56B
  8
LAYER_1
 10
-9.10139773514166
 20
-2.348596759375894
 30
0.0
  0
VERTEX
  5
56C
  8
LAYER_1
 10
-9.047412052245697
 20
-2.368554553760561
 30
0.0
  0
VERTEX
  5
56D
  8
LAYER_1
 10
-8.938418153881967
 20
-2.3848982606309
 30
0.0
  0
VERTEX
  5
56E
  8
LAYER_1
 10
-8.790252825288315
 20
-2.395941305813561
 30
0.0
  0
VERTEX
  5
56F
  8
LAYER_1
 10
-8.618752851702581
 20
-2.399997115135193
 30
0.0
  0
VERTEX
  5
570
  8
LAYER_1
 10
-8.386448738947937
 20
-2.393574337943616
 30
0.0
  0
VERTEX
  5
571
  8
LAYER_1
 10
-8.303225955962258
 20
-2.383306684692339
 30
0.0
  0
VERTEX
  5
572
  8
LAYER_1
 10
-8.236177687771724
 20
-2.366344471215795
 30
0.0
  0
VERTEX
  5
573
  8
LAYER_1
 10
-8.18097018377687
 20
-2.34119490967278
 30
0.0
  0
VERTEX
  5
574
  8
LAYER_1
 10
-8.133269693378233
 20
-2.30636521222209
 30
0.0
  0
VERTEX
  5
575
  8
LAYER_1
 10
-8.043054750971763
 20
-2.201694258232862
 30
0.0
  0
VERTEX
  5
576
  8
LAYER_1
 10
-7.898601177923723
 20
-2.003391401330546
 30
0.0
  0
VERTEX
  5
577
  8
LAYER_1
 10
-7.34879707524756
 20
-2.127552913435679
 30
0.0
  0
VERTEX
  5
578
  8
LAYER_1
 10
-7.033643331143768
 20
-2.195144942821751
 30
0.0
  0
VERTEX
  5
579
  8
LAYER_1
 10
-6.929713917485957
 20
-2.211098122006149
 30
0.0
  0
VERTEX
  5
57A
  8
LAYER_1
 10
-6.851278471095275
 20
-2.214770080803305
 30
0.0
  0
VERTEX
  5
57B
  8
LAYER_1
 10
-6.790633738225032
 20
-2.20587132167711
 30
0.0
  0
VERTEX
  5
57C
  8
LAYER_1
 10
-6.740076465128532
 20
-2.184112347091454
 30
0.0
  0
VERTEX
  5
57D
  8
LAYER_1
 10
-6.638411283269988
 20
-2.100855761397312
 30
0.0
  0
VERTEX
  5
57E
  8
LAYER_1
 10
-6.477829593968551
 20
-1.949997097253799
 30
0.0
  0
VERTEX
  5
57F
  8
LAYER_1
 10
8.175003305077553
 20
-1.949997097253799
 30
0.0
  0
VERTEX
  5
580
  8
LAYER_1
 10
8.175003305077553
 20
-2.022358318242567
 30
0.0
  0
VERTEX
  5
581
  8
LAYER_1
 10
8.188782877584467
 20
-2.084905098996286
 30
0.0
  0
VERTEX
  5
582
  8
LAYER_1
 10
8.22886665049711
 20
-2.134369746842616
 30
0.0
  0
VERTEX
  5
583
  8
LAYER_1
 10
8.293372206903332
 20
-2.170454201074923
 30
0.0
  0
VERTEX
  5
584
  8
LAYER_1
 10
8.380417129890983
 20
-2.192860400986573
 30
0.0
  0
VERTEX
  5
585
  8
LAYER_1
 10
8.488119002547915
 20
-2.201290285870932
 30
0.0
  0
VERTEX
  5
586
  8
LAYER_1
 10
8.614595407961975
 20
-2.195445795021368
 30
0.0
  0
VERTEX
  5
587
  8
LAYER_1
 10
8.757963929221013
 20
-2.175028867731244
 30
0.0
  0
VERTEX
  5
588
  8
LAYER_1
 10
8.916342149412884
 20
-2.139741443293929
 30
0.0
  0
VERTEX
  5
589
  8
LAYER_1
 10
9.26671137894418
 20
-2.055968653471426
 30
0.0
  0
VERTEX
  5
58A
  8
LAYER_1
 10
9.384057108067932
 20
-2.037931076573436
 30
0.0
  0
VERTEX
  5
58B
  8
LAYER_1
 10
9.471808911130852
 20
-2.036668236199903
 30
0.0
  0
VERTEX
  5
58C
  8
LAYER_1
 10
9.536690786408258
 20
-2.052836775737541
 30
0.0
  0
VERTEX
  5
58D
  8
LAYER_1
 10
9.58542673217547
 20
-2.087093338573063
 30
0.0
  0
VERTEX
  5
58E
  8
LAYER_1
 10
9.624740746707813
 20
-2.140094568093183
 30
0.0
  0
VERTEX
  5
58F
  8
LAYER_1
 10
9.661356828280603
 20
-2.212497107684612
 30
0.0
  0
VERTEX
  5
590
  8
LAYER_1
 10
9.690144027716219
 20
-2.269965024442183
 30
0.0
  0
VERTEX
  5
591
  8
LAYER_1
 10
9.721077948905732
 20
-2.314398307491517
 30
0.0
  0
VERTEX
  5
592
  8
LAYER_1
 10
9.759232392648414
 20
-2.347452785711556
 30
0.0
  0
VERTEX
  5
593
  8
LAYER_1
 10
9.809681159743532
 20
-2.370784287981238
 30
0.0
  0
VERTEX
  5
594
  8
LAYER_1
 10
9.877498050990361
 20
-2.386048643179502
 30
0.0
  0
VERTEX
  5
595
  8
LAYER_1
 10
9.967756867188172
 20
-2.39490168018529
 30
0.0
  0
VERTEX
  5
596
  8
LAYER_1
 10
10.23589547763382
 20
-2.399997115135193
 30
0.0
  0
VERTEX
  5
597
  8
LAYER_1
 10
10.42580691560217
 20
-2.394750831836392
 30
0.0
  0
VERTEX
  5
598
  8
LAYER_1
 10
10.58132795232878
 20
-2.380466397111933
 30
0.0
  0
VERTEX
  5
599
  8
LAYER_1
 10
10.68640973390081
 20
-2.359325433719733
 30
0.0
  0
VERTEX
  5
59A
  8
LAYER_1
 10
10.7150206371561
 20
-2.34686551088508
 30
0.0
  0
VERTEX
  5
59B
  8
LAYER_1
 10
10.72500340640545
 20
-2.33350956441771
 30
0.0
  0
VERTEX
  5
59C
  8
LAYER_1
 10
10.73627677800596
 20
-2.30861239233443
 30
0.0
  0
VERTEX
  5
59D
  8
LAYER_1
 10
10.77056731730823
 20
-2.283757067131257
 30
0.0
  0
VERTEX
  5
59E
  8
LAYER_1
 10
10.8285806610634
 20
-2.258753407479318
 30
0.0
  0
VERTEX
  5
59F
  8
LAYER_1
 10
10.91102244602257
 20
-2.233411232049745
 30
0.0
  0
VERTEX
  5
5A0
  8
LAYER_1
 10
11.15201388655741
 20
-2.180950608542211
 30
0.0
  0
VERTEX
  5
5A1
  8
LAYER_1
 10
11.49918673292171
 20
-2.124853745977688
 30
0.0
  0
VERTEX
  5
5A2
  8
LAYER_1
 10
11.63319924825034
 20
-2.096223924319466
 30
0.0
  0
VERTEX
  5
5A3
  8
LAYER_1
 10
11.73623440371753
 20
-2.052758817119733
 30
0.0
  0
VERTEX
  5
5A4
  8
LAYER_1
 10
11.81177980277153
 20
-1.992431399839063
 30
0.0
  0
VERTEX
  5
5A5
  8
LAYER_1
 10
11.86332304886054
 20
-1.913214647938034
 30
0.0
  0
VERTEX
  5
5A6
  8
LAYER_1
 10
11.90460747451439
 20
-1.853311840069177
 30
0.0
  0
VERTEX
  5
5A7
  8
LAYER_1
 10
11.97009062649507
 20
-1.80068541740857
 30
0.0
  0
VERTEX
  5
5A8
  8
LAYER_1
 10
12.05897116890818
 20
-1.755554417715403
 30
0.0
  0
VERTEX
  5
5A9
  8
LAYER_1
 10
12.17044776585933
 20
-1.718137878748868
 30
0.0
  0
VERTEX
  5
5AA
  8
LAYER_1
 10
12.30371908145412
 20
-1.688654838268156
 30
0.0
  0
VERTEX
  5
5AB
  8
LAYER_1
 10
12.45798377979817
 20
-1.667324334032458
 30
0.0
  0
VERTEX
  5
5AC
  8
LAYER_1
 10
12.63244052499707
 20
-1.654365403800966
 30
0.0
  0
VERTEX
  5
5AD
  8
LAYER_1
 10
12.82628798115644
 20
-1.64999708533287
 30
0.0
  0
VERTEX
  5
5AE
  8
LAYER_1
 10
12.91299715599846
 20
-1.641591420305133
 30
0.0
  0
VERTEX
  5
5AF
  8
LAYER_1
 10
12.99728594397411
 20
-1.618704708595949
 30
0.0
  0
VERTEX
  5
5B0
  8
LAYER_1
 10
13.06951539212541
 20
-1.584832375266358
 30
0.0
  0
VERTEX
  5
5B1
  8
LAYER_1
 10
13.1200465474944
 20
-1.543469845377402
 30
0.0
  0
VERTEX
  5
5B2
  8
LAYER_1
 10
13.15033618620068
 20
-1.516336813232761
 30
0.0
  0
VERTEX
  5
5B3
  8
LAYER_1
 10
13.18829212830686
 20
-1.503198717284836
 30
0.0
  0
VERTEX
  5
5B4
  8
LAYER_1
 10
13.23817103526214
 20
-1.505683744999302
 30
0.0
  0
VERTEX
  5
5B5
  8
LAYER_1
 10
13.30422956851578
 20
-1.525420083841837
 30
0.0
  0
VERTEX
  5
5B6
  8
LAYER_1
 10
13.50191215971499
 20
-1.623159444773822
 30
0.0
  0
VERTEX
  5
5B7
  8
LAYER_1
 10
13.81539319349834
 20
-1.809442299806207
 30
0.0
  0
VERTEX
  5
5B8
  8
LAYER_1
 10
14.39575381171291
 20
-2.151089074812543
 30
0.0
  0
VERTEX
  5
5B9
  8
LAYER_1
 10
15.00626727118479
 20
-2.482695742787553
 30
0.0
  0
VERTEX
  5
5BA
  8
LAYER_1
 10
15.64408625038329
 20
-2.803321986177263
 30
0.0
  0
VERTEX
  5
5BB
  8
LAYER_1
 10
16.30636342777768
 20
-3.112027487427697
 30
0.0
  0
VERTEX
  5
5BC
  8
LAYER_1
 10
16.99025148183724
 20
-3.407871928984878
 30
0.0
  0
VERTEX
  5
5BD
  8
LAYER_1
 10
17.69290309103127
 20
-3.68991499329483
 30
0.0
  0
VERTEX
  5
5BE
  8
LAYER_1
 10
18.41147093382905
 20
-3.957216362803577
 30
0.0
  0
VERTEX
  5
5BF
  8
LAYER_1
 10
19.14310768869987
 20
-4.208835719957145
 30
0.0
  0
VERTEX
  5
5C0
  8
LAYER_1
 10
19.88496603411301
 20
-4.443832747201556
 30
0.0
  0
VERTEX
  5
5C1
  8
LAYER_1
 10
20.63419864853775
 20
-4.661267126982835
 30
0.0
  0
VERTEX
  5
5C2
  8
LAYER_1
 10
21.38795821044339
 20
-4.860198541747005
 30
0.0
  0
VERTEX
  5
5C3
  8
LAYER_1
 10
22.14339739829922
 20
-5.039686673940091
 30
0.0
  0
VERTEX
  5
5C4
  8
LAYER_1
 10
22.89766889057451
 20
-5.198791206008117
 30
0.0
  0
VERTEX
  5
5C5
  8
LAYER_1
 10
23.64792536573855
 20
-5.336571820397107
 30
0.0
  0
VERTEX
  5
5C6
  8
LAYER_1
 10
24.39131950226064
 20
-5.452088199553084
 30
0.0
  0
SEQEND
  5
CFD
  8
LAYER_1
  0
POLYLINE
  5
75
  8
LAYER_1
 66
     1
 10
0.0
 20
0.0
 30
0.0
 70
     1
  0
VERTEX
  5
5C7
  8
LAYER_1
 10
5.440313870729057
 20
10.80423084752908
 30
0.0
  0
VERTEX
  5
5C8
  8
LAYER_1
 10
5.582337778609926
 20
10.7464899354439
 30
0.0
  0
VERTEX
  5
5C9
  8
LAYER_1
 10
5.749344469271531
 20
10.69886624854059
 30
0.0
  0
VERTEX
  5
5CA
  8
LAYER_1
 10
5.920508198387397
 20
10.66629827610401
 30
0.0
  0
VERTEX
  5
5CB
  8
LAYER_1
 10
6.07500322163105
 20
10.65372450741901
 30
0.0
  0
VERTEX
  5
5CC
  8
LAYER_1
 10
6.24734584137672
 20
10.66569212074036
 30
0.0
  0
VERTEX
  5
5CD
  8
LAYER_1
 10
6.429236563602116
 20
10.70183450968645
 30
0.0
  0
VERTEX
  5
5CE
  8
LAYER_1
 10
6.614372324187409
 20
10.75919316530314
 30
0.0
  0
VERTEX
  5
5CF
  8
LAYER_1
 10
6.796450059012777
 20
10.83480957863627
 30
0.0
  0
VERTEX
  5
5D0
  8
LAYER_1
 10
6.969166703958397
 20
10.92572524073171
 30
0.0
  0
VERTEX
  5
5D1
  8
LAYER_1
 10
7.126219194904442
 20
11.02898164263529
 30
0.0
  0
VERTEX
  5
5D2
  8
LAYER_1
 10
7.26130446773109
 20
11.14162027539288
 30
0.0
  0
VERTEX
  5
5D3
  8
LAYER_1
 10
7.368119458318517
 20
11.26068263005033
 30
0.0
  0
VERTEX
  5
5D4
  8
LAYER_1
 10
7.475534539881105
 20
11.40955630708632
 30
0.0
  0
VERTEX
  5
5D5
  8
LAYER_1
 10
7.561660031356785
 20
11.54212508978242
 30
0.0
  0
VERTEX
  5
5D6
  8
LAYER_1
 10
7.628686961059635
 20
11.66450270073968
 30
0.0
  0
VERTEX
  5
5D7
  8
LAYER_1
 10
7.678806357303733
 20
11.78280286255916
 30
0.0
  0
VERTEX
  5
5D8
  8
LAYER_1
 10
7.714209248403158
 20
11.90313929784192
 30
0.0
  0
VERTEX
  5
5D9
  8
LAYER_1
 10
7.737086662671988
 20
12.03162572918901
 30
0.0
  0
VERTEX
  5
5DA
  8
LAYER_1
 10
7.749629628424301
 20
12.1743758792015
 30
0.0
  0
VERTEX
  5
5DB
  8
LAYER_1
 10
7.754029173974175
 20
12.33750347048044
 30
0.0
  0
VERTEX
  5
5DC
  8
LAYER_1
 10
7.748566352108121
 20
12.51633691828849
 30
0.0
  0
VERTEX
  5
5DD
  8
LAYER_1
 10
7.729265352075629
 20
12.68211504190957
 30
0.0
  0
VERTEX
  5
5DE
  8
LAYER_1
 10
7.69512794773428
 20
12.83730374871438
 30
0.0
  0
VERTEX
  5
5DF
  8
LAYER_1
 10
7.645155912941657
 20
12.98436894607364
 30
0.0
  0
VERTEX
  5
5E0
  8
LAYER_1
 10
7.578351021555344
 20
13.12577654135805
 30
0.0
  0
VERTEX
  5
5E1
  8
LAYER_1
 10
7.493715047432923
 20
13.26399244193831
 30
0.0
  0
VERTEX
  5
5E2
  8
LAYER_1
 10
7.390249764431978
 20
13.40148255518512
 30
0.0
  0
VERTEX
  5
5E3
  8
LAYER_1
 10
7.26695694641009
 20
13.54071278846919
 30
0.0
  0
VERTEX
  5
5E4
  8
LAYER_1
 10
7.050703579672557
 20
13.76892206771495
 30
0.0
  0
VERTEX
  5
5E5
  8
LAYER_1
 10
8.491411066244368
 20
16.08750361949205
 30
0.0
  0
VERTEX
  5
5E6
  8
LAYER_1
 10
12.02112675006762
 20
21.86250384896994
 30
0.0
  0
VERTEX
  5
5E7
  8
LAYER_1
 10
12.03750345855951
 20
21.88640082950634
 30
0.0
  0
VERTEX
  5
5E8
  8
LAYER_1
 10
17.51250367611647
 20
22.04688815104304
 30
0.0
  0
VERTEX
  5
5E9
  8
LAYER_1
 10
21.58859658566222
 20
22.14589589763389
 30
0.0
  0
VERTEX
  5
5EA
  8
LAYER_1
 10
21.6687483105506
 20
21.84823511593588
 30
0.0
  0
VERTEX
  5
5EB
  8
LAYER_1
 10
21.70806612704559
 20
21.72191694451609
 30
0.0
  0
VERTEX
  5
5EC
  8
LAYER_1
 10
21.75592331253691
 20
21.60210206502325
 30
0.0
  0
VERTEX
  5
5ED
  8
LAYER_1
 10
21.81182421958893
 20
21.48886414738367
 30
0.0
  0
VERTEX
  5
5EE
  8
LAYER_1
 10
21.87527320076604
 20
21.38227686152361
 30
0.0
  0
VERTEX
  5
5EF
  8
LAYER_1
 10
21.94577460863262
 20
21.28241387736939
 30
0.0
  0
VERTEX
  5
5F0
  8
LAYER_1
 10
22.02283279575304
 20
21.18934886484727
 30
0.0
  0
VERTEX
  5
5F1
  8
LAYER_1
 10
22.10595211469169
 20
21.10315549388355
 30
0.0
  0
VERTEX
  5
5F2
  8
LAYER_1
 10
22.19463691801296
 20
21.02390743440452
 30
0.0
  0
VERTEX
  5
5F3
  8
LAYER_1
 10
22.28839155828122
 20
20.95167835633646
 30
0.0
  0
VERTEX
  5
5F4
  8
LAYER_1
 10
22.38672038806086
 20
20.88654192960566
 30
0.0
  0
VERTEX
  5
5F5
  8
LAYER_1
 10
22.48912775991625
 20
20.82857182413841
 30
0.0
  0
VERTEX
  5
5F6
  8
LAYER_1
 10
22.59511802641178
 20
20.77784170986099
 30
0.0
  0
VERTEX
  5
5F7
  8
LAYER_1
 10
22.70419554011183
 20
20.7344252566997
 30
0.0
  0
VERTEX
  5
5F8
  8
LAYER_1
 10
22.81586465358078
 20
20.69839613458082
 30
0.0
  0
VERTEX
  5
5F9
  8
LAYER_1
 10
22.92962971938302
 20
20.66982801343064
 30
0.0
  0
VERTEX
  5
5FA
  8
LAYER_1
 10
23.04499509008292
 20
20.64879456317545
 30
0.0
  0
VERTEX
  5
5FB
  8
LAYER_1
 10
23.16146511824486
 20
20.63536945374153
 30
0.0
  0
VERTEX
  5
5FC
  8
LAYER_1
 10
23.27854415643323
 20
20.62962635505517
 30
0.0
  0
VERTEX
  5
5FD
  8
LAYER_1
 10
23.39573655721241
 20
20.63163893704267
 30
0.0
  0
VERTEX
  5
5FE
  8
LAYER_1
 10
23.51254667314678
 20
20.64148086963029
 30
0.0
  0
VERTEX
  5
5FF
  8
LAYER_1
 10
23.62847885680073
 20
20.65922582274435
 30
0.0
  0
VERTEX
  5
600
  8
LAYER_1
 10
23.74303746073862
 20
20.68494746631112
 30
0.0
  0
VERTEX
  5
601
  8
LAYER_1
 10
23.85572683752485
 20
20.71871947025689
 30
0.0
  0
VERTEX
  5
602
  8
LAYER_1
 10
23.9660513397238
 20
20.76061550450794
 30
0.0
  0
VERTEX
  5
603
  8
LAYER_1
 10
24.07351531989984
 20
20.81070923899057
 30
0.0
  0
VERTEX
  5
604
  8
LAYER_1
 10
24.17762313061737
 20
20.86907434363106
 30
0.0
  0
VERTEX
  5
605
  8
LAYER_1
 10
24.27787912444075
 20
20.93578448835571
 30
0.0
  0
VERTEX
  5
606
  8
LAYER_1
 10
24.37378765393437
 20
21.01091334309079
 30
0.0
  0
VERTEX
  5
607
  8
LAYER_1
 10
24.46485307166262
 20
21.0945345777626
 30
0.0
  0
VERTEX
  5
608
  8
LAYER_1
 10
24.55057973018987
 20
21.18672186229742
 30
0.0
  0
VERTEX
  5
609
  8
LAYER_1
 10
24.63047198208052
 20
21.28754886662155
 30
0.0
  0
VERTEX
  5
60A
  8
LAYER_1
 10
24.70403417989893
 20
21.39708926066126
 30
0.0
  0
VERTEX
  5
60B
  8
LAYER_1
 10
24.79800724232882
 20
21.56787386502145
 30
0.0
  0
VERTEX
  5
60C
  8
LAYER_1
 10
24.87167394551755
 20
21.74131005782842
 30
0.0
  0
VERTEX
  5
60D
  8
LAYER_1
 10
24.92537654636258
 20
21.91627895260173
 30
0.0
  0
VERTEX
  5
60E
  8
LAYER_1
 10
24.95945730176138
 20
22.09166166286094
 30
0.0
  0
VERTEX
  5
60F
  8
LAYER_1
 10
24.97425846861139
 20
22.26633930212559
 30
0.0
  0
VERTEX
  5
610
  8
LAYER_1
 10
24.97012230381009
 20
22.43919298391525
 30
0.0
  0
VERTEX
  5
611
  8
LAYER_1
 10
24.94739106425494
 20
22.60910382174947
 30
0.0
  0
VERTEX
  5
612
  8
LAYER_1
 10
24.9064070068434
 20
22.77495292914781
 30
0.0
  0
VERTEX
  5
613
  8
LAYER_1
 10
24.84751238847293
 20
22.93562141962981
 30
0.0
  0
VERTEX
  5
614
  8
LAYER_1
 10
24.771049466041
 20
23.08999040671504
 30
0.0
  0
VERTEX
  5
615
  8
LAYER_1
 10
24.67736049644505
 20
23.23694100392304
 30
0.0
  0
VERTEX
  5
616
  8
LAYER_1
 10
24.56678773658257
 20
23.37535432477339
 30
0.0
  0
VERTEX
  5
617
  8
LAYER_1
 10
24.439673443351
 20
23.50411148278562
 30
0.0
  0
VERTEX
  5
618
  8
LAYER_1
 10
24.29635987364782
 20
23.62209359147931
 30
0.0
  0
VERTEX
  5
619
  8
LAYER_1
 10
24.13718928437048
 20
23.72818176437399
 30
0.0
  0
VERTEX
  5
61A
  8
LAYER_1
 10
23.96250393241644
 20
23.82125711498922
 30
0.0
  0
VERTEX
  5
61B
  8
LAYER_1
 10
23.80796629106803
 20
23.88752724091368
 30
0.0
  0
VERTEX
  5
61C
  8
LAYER_1
 10
23.6587909905248
 20
23.93722065805605
 30
0.0
  0
VERTEX
  5
61D
  8
LAYER_1
 10
23.51327991545287
 20
23.97044057258953
 30
0.0
  0
VERTEX
  5
61E
  8
LAYER_1
 10
23.36973495051839
 20
23.98729019068733
 30
0.0
  0
VERTEX
  5
61F
  8
LAYER_1
 10
23.2264579803875
 20
23.98787271852266
 30
0.0
  0
VERTEX
  5
620
  8
LAYER_1
 10
23.08175088972634
 20
23.97229136226875
 30
0.0
  0
VERTEX
  5
621
  8
LAYER_1
 10
22.93391556320106
 20
23.94064932809879
 30
0.0
  0
VERTEX
  5
622
  8
LAYER_1
 10
22.78125388547778
 20
23.893049822186
 30
0.0
  0
VERTEX
  5
623
  8
LAYER_1
 10
22.6720497795759
 20
23.85876871592864
 30
0.0
  0
VERTEX
  5
624
  8
LAYER_1
 10
22.58262106508482
 20
23.83962599245923
 30
0.0
  0
VERTEX
  5
625
  8
LAYER_1
 10
22.52219625799626
 20
23.83696443726718
 30
0.0
  0
VERTEX
  5
626
  8
LAYER_1
 10
22.50574423097532
 20
23.84223371824061
 30
0.0
  0
VERTEX
  5
627
  8
LAYER_1
 10
22.50000387430191
 20
23.85212683584191
 30
0.0
  0
VERTEX
  5
628
  8
LAYER_1
 10
22.50000387430191
 20
23.91157403734806
 30
0.0
  0
VERTEX
  5
629
  8
LAYER_1
 10
22.21171583852939
 20
24.42453900425376
 30
0.0
  0
VERTEX
  5
62A
  8
LAYER_1
 10
21.52638582376218
 20
25.68750400096178
 30
0.0
  0
VERTEX
  5
62B
  8
LAYER_1
 10
21.12934384476748
 20
26.4375040307641
 30
0.0
  0
VERTEX
  5
62C
  8
LAYER_1
 10
19.70587295959663
 20
29.06250413507223
 30
0.0
  0
VERTEX
  5
62D
  8
LAYER_1
 10
19.46192655082058
 20
29.51250415295362
 30
0.0
  0
VERTEX
  5
62E
  8
LAYER_1
 10
19.03231165074361
 20
30.30000418424606
 30
0.0
  0
VERTEX
  5
62F
  8
LAYER_1
 10
18.42014400619645
 20
31.41281287842219
 30
0.0
  0
VERTEX
  5
630
  8
LAYER_1
 10
17.99364485295023
 20
32.18812155918725
 30
0.0
  0
VERTEX
  5
631
  8
LAYER_1
 10
18.28676105601083
 20
32.72531293057625
 30
0.0
  0
VERTEX
  5
632
  8
LAYER_1
 10
18.90108035030154
 20
33.86250432580709
 30
0.0
  0
VERTEX
  5
633
  8
LAYER_1
 10
19.58007791591815
 20
35.10800879284641
 30
0.0
  0
VERTEX
  5
634
  8
LAYER_1
 10
20.33063670722643
 20
36.4955088479807
 30
0.0
  0
VERTEX
  5
635
  8
LAYER_1
 10
21.03756789010055
 20
37.80000448226929
 30
0.0
  0
VERTEX
  5
636
  8
LAYER_1
 10
21.6981746742677
 20
39.00918123567494
 30
0.0
  0
VERTEX
  5
637
  8
LAYER_1
 10
22.34300533336109
 20
40.22112352746149
 30
0.0
  0
VERTEX
  5
638
  8
LAYER_1
 10
22.43533419401341
 20
40.38391810179299
 30
0.0
  0
VERTEX
  5
639
  8
LAYER_1
 10
22.5134477636874
 20
40.48701808084986
 30
0.0
  0
VERTEX
  5
63A
  8
LAYER_1
 10
22.54865522803961
 20
40.51771088541764
 30
0.0
  0
VERTEX
  5
63B
  8
LAYER_1
 10
22.58208656600573
 20
40.53531398708753
 30
0.0
  0
VERTEX
  5
63C
  8
LAYER_1
 10
22.6143343430386
 20
40.54043870116648
 30
0.0
  0
VERTEX
  5
63D
  8
LAYER_1
 10
22.64599112459106
 20
40.53369634296141
 30
0.0
  0
VERTEX
  5
63E
  8
LAYER_1
 10
22.76061620123407
 20
40.49875226460277
 30
0.0
  0
VERTEX
  5
63F
  8
LAYER_1
 10
22.90140180254264
 20
40.47207275494466
 30
0.0
  0
VERTEX
  5
640
  8
LAYER_1
 10
23.05970554970228
 20
40.45391006372825
 30
0.0
  0
VERTEX
  5
641
  8
LAYER_1
 10
23.22688506389848
 20
40.44451644069471
 30
0.0
  0
VERTEX
  5
642
  8
LAYER_1
 10
23.39429796631677
 20
40.44414413558519
 30
0.0
  0
VERTEX
  5
643
  8
LAYER_1
 10
23.55330187814264
 20
40.45304539814087
 30
0.0
  0
VERTEX
  5
644
  8
LAYER_1
 10
23.69525442056161
 20
40.47147247810292
 30
0.0
  0
VERTEX
  5
645
  8
LAYER_1
 10
23.81151321475917
 20
40.4996776252125
 30
0.0
  0
VERTEX
  5
646
  8
LAYER_1
 10
23.94525778282651
 20
40.5574330520213
 30
0.0
  0
VERTEX
  5
647
  8
LAYER_1
 10
24.10013926340443
 20
40.64562110651929
 30
0.0
  0
VERTEX
  5
648
  8
LAYER_1
 10
24.25696180746809
 20
40.75224459679934
 30
0.0
  0
VERTEX
  5
649
  8
LAYER_1
 10
24.39652956599262
 20
40.86530633095428
 30
0.0
  0
VERTEX
  5
64A
  8
LAYER_1
 10
24.53402884738651
 20
41.00230335119291
 30
0.0
  0
VERTEX
  5
64B
  8
LAYER_1
 10
24.65292651934787
 20
41.14775695133895
 30
0.0
  0
VERTEX
  5
64C
  8
LAYER_1
 10
24.75323511401193
 20
41.30041925729043
 30
0.0
  0
VERTEX
  5
64D
  8
LAYER_1
 10
24.83496716351389
 20
41.45904239494537
 30
0.0
  0
VERTEX
  5
64E
  8
LAYER_1
 10
24.89813519998897
 20
41.62237849020183
 30
0.0
  0
VERTEX
  5
64F
  8
LAYER_1
 10
24.94275175557238
 20
41.78917966895782
 30
0.0
  0
VERTEX
  5
650
  8
LAYER_1
 10
24.96882936239933
 20
41.95819805711139
 30
0.0
  0
VERTEX
  5
651
  8
LAYER_1
 10
24.97638055260503
 20
42.12818578056056
 30
0.0
  0
VERTEX
  5
652
  8
LAYER_1
 10
24.96541785832471
 20
42.29789496520338
 30
0.0
  0
VERTEX
  5
653
  8
LAYER_1
 10
24.93595381169355
 20
42.46607773693788
 30
0.0
  0
VERTEX
  5
654
  8
LAYER_1
 10
24.8880009448468
 20
42.63148622166207
 30
0.0
  0
VERTEX
  5
655
  8
LAYER_1
 10
24.82157178991964
 20
42.79287254527402
 30
0.0
  0
VERTEX
  5
656
  8
LAYER_1
 10
24.7366788790473
 20
42.94898883367175
 30
0.0
  0
VERTEX
  5
657
  8
LAYER_1
 10
24.633334744365
 20
43.09858721275329
 30
0.0
  0
VERTEX
  5
658
  8
LAYER_1
 10
24.51155191800793
 20
43.24041980841668
 30
0.0
  0
VERTEX
  5
659
  8
LAYER_1
 10
24.37134293211132
 20
43.37323874655995
 30
0.0
  0
VERTEX
  5
65A
  8
LAYER_1
 10
24.19090122043733
 20
43.5124555955653
 30
0.0
  0
VERTEX
  5
65B
  8
LAYER_1
 10
24.00698465496083
 20
43.62365773483936
 30
0.0
  0
VERTEX
  5
65C
  8
LAYER_1
 10
23.8183787812619
 20
43.70710473083599
 30
0.0
  0
VERTEX
  5
65D
  8
LAYER_1
 10
23.62386914492058
 20
43.76305615000906
 30
0.0
  0
VERTEX
  5
65E
  8
LAYER_1
 10
23.42224129151694
 20
43.79177155881245
 30
0.0
  0
VERTEX
  5
65F
  8
LAYER_1
 10
23.21228076663105
 20
43.79351052370001
 30
0.0
  0
VERTEX
  5
660
  8
LAYER_1
 10
22.99277311584295
 20
43.76853261112563
 30
0.0
  0
VERTEX
  5
661
  8
LAYER_1
 10
22.76250388473272
 20
43.71709738754318
 30
0.0
  0
VERTEX
  5
662
  8
LAYER_1
 10
22.68236487325189
 20
43.69036133700104
 30
0.0
  0
VERTEX
  5
663
  8
LAYER_1
 10
22.60034036175414
 20
43.65387923098373
 30
0.0
  0
VERTEX
  5
664
  8
LAYER_1
 10
22.43365056918076
 20
43.55487014866917
 30
0.0
  0
VERTEX
  5
665
  8
LAYER_1
 10
22.26846596795842
 20
43.42645673289073
 30
0.0
  0
VERTEX
  5
666
  8
LAYER_1
 10
22.11081801903293
 20
43.27502557593962
 30
0.0
  0
VERTEX
  5
667
  8
LAYER_1
 10
21.96673818335011
 20
43.10696327010704
 30
0.0
  0
VERTEX
  5
668
  8
LAYER_1
 10
21.84225792185578
 20
42.92865640768424
 30
0.0
  0
VERTEX
  5
669
  8
LAYER_1
 10
21.74340869549577
 20
42.74649158096241
 30
0.0
  0
VERTEX
  5
66A
  8
LAYER_1
 10
21.7054805520367
 20
42.65595824108036
 30
0.0
  0
VERTEX
  5
66B
  8
LAYER_1
 10
21.67622196521589
 20
42.56685538223276
 30
0.0
  0
VERTEX
  5
66C
  8
LAYER_1
 10
21.57476871102251
 20
42.20449993201947
 30
0.0
  0
VERTEX
  5
66D
  8
LAYER_1
 10
19.9125037714839
 20
42.2971896285104
 30
0.0
  0
VERTEX
  5
66E
  8
LAYER_1
 10
13.98750353604555
 20
42.45182339513134
 30
0.0
  0
VERTEX
  5
66F
  8
LAYER_1
 10
12.05357243641477
 20
42.4875046685338
 30
0.0
  0
VERTEX
  5
670
  8
LAYER_1
 10
11.91937788525053
 20
42.7125046774745
 30
0.0
  0
VERTEX
  5
671
  8
LAYER_1
 10
10.26085730936944
 20
45.41250478476286
 30
0.0
  0
VERTEX
  5
672
  8
LAYER_1
 10
7.741281734544231
 20
49.53750494867563
 30
0.0
  0
VERTEX
  5
673
  8
LAYER_1
 10
7.051065716030536
 20
50.6538840120112
 30
0.0
  0
VERTEX
  5
674
  8
LAYER_1
 10
7.280946908129735
 20
50.87863545428341
 30
0.0
  0
VERTEX
  5
675
  8
LAYER_1
 10
7.390241882481654
 20
50.99495800884544
 30
0.0
  0
VERTEX
  5
676
  8
LAYER_1
 10
7.486358317531565
 20
51.11695646022204
 30
0.0
  0
VERTEX
  5
677
  8
LAYER_1
 10
7.569256906930487
 20
51.24403349607195
 30
0.0
  0
VERTEX
  5
678
  8
LAYER_1
 10
7.638898344329437
 20
51.37559180405392
 30
0.0
  0
VERTEX
  5
679
  8
LAYER_1
 10
7.695243323379432
 20
51.51103407182669
 30
0.0
  0
VERTEX
  5
67A
  8
LAYER_1
 10
7.738252537731491
 20
51.64976298704899
 30
0.0
  0
VERTEX
  5
67B
  8
LAYER_1
 10
7.767886681036629
 20
51.79118123737958
 30
0.0
  0
VERTEX
  5
67C
  8
LAYER_1
 10
7.784106446945863
 20
51.93469151047719
 30
0.0
  0
VERTEX
  5
67D
  8
LAYER_1
 10
7.786872529110213
 20
52.07969649400059
 30
0.0
  0
VERTEX
  5
67E
  8
LAYER_1
 10
7.776145621180694
 20
52.22559887560851
 30
0.0
  0
VERTEX
  5
67F
  8
LAYER_1
 10
7.751886416808325
 20
52.3718013429597
 30
0.0
  0
VERTEX
  5
680
  8
LAYER_1
 10
7.714055609644124
 20
52.51770658371288
 30
0.0
  0
VERTEX
  5
681
  8
LAYER_1
 10
7.662613893339106
 20
52.66271728552682
 30
0.0
  0
VERTEX
  5
682
  8
LAYER_1
 10
7.59752196154429
 20
52.80623613606026
 30
0.0
  0
VERTEX
  5
683
  8
LAYER_1
 10
7.518740507910691
 20
52.94766582297193
 30
0.0
  0
VERTEX
  5
684
  8
LAYER_1
 10
7.426230226089331
 20
53.0864090339206
 30
0.0
  0
VERTEX
  5
685
  8
LAYER_1
 10
7.310388510940885
 20
53.22647480276309
 30
0.0
  0
VERTEX
  5
686
  8
LAYER_1
 10
7.179300496428185
 20
53.3497191632073
 30
0.0
  0
VERTEX
  5
687
  8
LAYER_1
 10
7.035045455167665
 20
53.45601651099443
 30
0.0
  0
VERTEX
  5
688
  8
LAYER_1
 10
6.879702659775752
 20
53.54524124186561
 30
0.0
  0
VERTEX
  5
689
  8
LAYER_1
 10
6.715351382868882
 20
53.61726775156203
 30
0.0
  0
VERTEX
  5
68A
  8
LAYER_1
 10
6.544070897063481
 20
53.67197043582483
 30
0.0
  0
VERTEX
  5
68B
  8
LAYER_1
 10
6.367940474975983
 20
53.70922369039519
 30
0.0
  0
VERTEX
  5
68C
  8
LAYER_1
 10
6.189039389222817
 20
53.72890191101426
 30
0.0
  0
VERTEX
  5
68D
  8
LAYER_1
 10
6.009446912420415
 20
53.7308794934232
 30
0.0
  0
VERTEX
  5
68E
  8
LAYER_1
 10
5.831242317185209
 20
53.71503083336319
 30
0.0
  0
VERTEX
  5
68F
  8
LAYER_1
 10
5.65650487613363
 20
53.68123032657537
 30
0.0
  0
VERTEX
  5
690
  8
LAYER_1
 10
5.487313861882106
 20
53.62935236880091
 30
0.0
  0
VERTEX
  5
691
  8
LAYER_1
 10
5.32574854704707
 20
53.55927135578098
 30
0.0
  0
VERTEX
  5
692
  8
LAYER_1
 10
5.173888204244952
 20
53.47086168325673
 30
0.0
  0
VERTEX
  5
693
  8
LAYER_1
 10
5.033812106092186
 20
53.36399774696932
 30
0.0
  0
VERTEX
  5
694
  8
LAYER_1
 10
4.9075995252052
 20
53.23855394265993
 30
0.0
  0
VERTEX
  5
695
  8
LAYER_1
 10
4.782307752117246
 20
53.09046437334221
 30
0.0
  0
VERTEX
  5
696
  8
LAYER_1
 10
4.682201511754413
 20
52.9570748058392
 30
0.0
  0
VERTEX
  5
697
  8
LAYER_1
 10
4.604686976014823
 20
52.83163644749149
 30
0.0
  0
VERTEX
  5
698
  8
LAYER_1
 10
4.547170316796601
 20
52.70740050563968
 30
0.0
  0
VERTEX
  5
699
  8
LAYER_1
 10
4.507057705997871
 20
52.57761818762438
 30
0.0
  0
VERTEX
  5
69A
  8
LAYER_1
 10
4.481755315516756
 20
52.43554070078619
 30
0.0
  0
VERTEX
  5
69B
  8
LAYER_1
 10
4.468669317251381
 20
52.27441925246571
 30
0.0
  0
VERTEX
  5
69C
  8
LAYER_1
 10
4.46520588309987
 20
52.08750505000353
 30
0.0
  0
VERTEX
  5
69D
  8
LAYER_1
 10
4.470570681748532
 20
51.88743690951948
 30
0.0
  0
VERTEX
  5
69E
  8
LAYER_1
 10
4.487024161052728
 20
51.71170630224518
 30
0.0
  0
VERTEX
  5
69F
  8
LAYER_1
 10
4.516640577716288
 20
51.55491869087297
 30
0.0
  0
VERTEX
  5
6A0
  8
LAYER_1
 10
4.561494188443042
 20
51.41167953809519
 30
0.0
  0
VERTEX
  5
6A1
  8
LAYER_1
 10
4.62365924993682
 20
51.27659430660419
 30
0.0
  0
VERTEX
  5
6A2
  8
LAYER_1
 10
4.705210018901452
 20
51.14426845909232
 30
0.0
  0
VERTEX
  5
6A3
  8
LAYER_1
 10
4.808220752040769
 20
51.00930745825194
 30
0.0
  0
VERTEX
  5
6A4
  8
LAYER_1
 10
4.934765706058599
 20
50.86631676677538
 30
0.0
  0
VERTEX
  5
6A5
  8
LAYER_1
 10
5.154275102329549
 20
50.63133118907405
 30
0.0
  0
VERTEX
  5
6A6
  8
LAYER_1
 10
4.18212025175977
 20
49.07191802864169
 30
0.0
  0
VERTEX
  5
6A7
  8
LAYER_1
 10
3.274572804116003
 20
47.60706684464155
 30
0.0
  0
VERTEX
  5
6A8
  8
LAYER_1
 10
2.457750645687497
 20
46.27500481903553
 30
0.0
  0
VERTEX
  5
6A9
  8
LAYER_1
 10
0.9580007321348631
 20
43.81750340920156
 30
0.0
  0
VERTEX
  5
6AA
  8
LAYER_1
 10
0.2104655740847079
 20
42.59750204854144
 30
0.0
  0
VERTEX
  5
6AB
  8
LAYER_1
 10
-0.0651358042427432
 20
42.45000466704369
 30
0.0
  0
VERTEX
  5
6AC
  8
LAYER_1
 10
-2.662497125566006
 20
42.44769835921714
 30
0.0
  0
VERTEX
  5
6AD
  8
LAYER_1
 10
-7.312497310340405
 20
42.3055381924961
 30
0.0
  0
VERTEX
  5
6AE
  8
LAYER_1
 10
-9.428101409377447
 20
42.20796499593656
 30
0.0
  0
VERTEX
  5
6AF
  8
LAYER_1
 10
-9.475626133988513
 20
42.49773483819564
 30
0.0
  0
VERTEX
  5
6B0
  8
LAYER_1
 10
-9.504031486665436
 20
42.63359663488981
 30
0.0
  0
VERTEX
  5
6B1
  8
LAYER_1
 10
-9.543104648455937
 20
42.76231949189081
 30
0.0
  0
VERTEX
  5
6B2
  8
LAYER_1
 10
-9.592221711452702
 20
42.88382223709064
 30
0.0
  0
VERTEX
  5
6B3
  8
LAYER_1
 10
-9.65075876774841
 20
42.99802369838132
 30
0.0
  0
VERTEX
  5
6B4
  8
LAYER_1
 10
-9.718091909435753
 20
43.10484270365488
 30
0.0
  0
VERTEX
  5
6B5
  8
LAYER_1
 10
-9.793597228607414
 20
43.20419808080332
 30
0.0
  0
VERTEX
  5
6B6
  8
LAYER_1
 10
-9.876650817356076
 20
43.29600865771867
 30
0.0
  0
VERTEX
  5
6B7
  8
LAYER_1
 10
-9.966628767774422
 20
43.38019326229293
 30
0.0
  0
VERTEX
  5
6B8
  8
LAYER_1
 10
-10.06290717195514
 20
43.45667072241814
 30
0.0
  0
VERTEX
  5
6B9
  8
LAYER_1
 10
-10.16486212199092
 20
43.5253598659863
 30
0.0
  0
VERTEX
  5
6BA
  8
LAYER_1
 10
-10.27186970997444
 20
43.58617952088944
 30
0.0
  0
VERTEX
  5
6BB
  8
LAYER_1
 10
-10.38330602799838
 20
43.63904851501957
 30
0.0
  0
VERTEX
  5
6BC
  8
LAYER_1
 10
-10.49854716815544
 20
43.68388567626871
 30
0.0
  0
VERTEX
  5
6BD
  8
LAYER_1
 10
-10.61696922253829
 20
43.72060983252888
 30
0.0
  0
VERTEX
  5
6BE
  8
LAYER_1
 10
-10.73794828323962
 20
43.74913981169209
 30
0.0
  0
VERTEX
  5
6BF
  8
LAYER_1
 10
-10.86086044235213
 20
43.76939444165036
 30
0.0
  0
VERTEX
  5
6C0
  8
LAYER_1
 10
-10.98508179196848
 20
43.78129255029572
 30
0.0
  0
VERTEX
  5
6C1
  8
LAYER_1
 10
-11.10998842418137
 20
43.78475296552017
 30
0.0
  0
VERTEX
  5
6C2
  8
LAYER_1
 10
-11.23495643108348
 20
43.77969451521574
 30
0.0
  0
VERTEX
  5
6C3
  8
LAYER_1
 10
-11.3593619047675
 20
43.76603602727443
 30
0.0
  0
VERTEX
  5
6C4
  8
LAYER_1
 10
-11.48258093732611
 20
43.74369632958827
 30
0.0
  0
VERTEX
  5
6C5
  8
LAYER_1
 10
-11.60398962085199
 20
43.71259425004929
 30
0.0
  0
VERTEX
  5
6C6
  8
LAYER_1
 10
-11.72296404743784
 20
43.67264861654949
 30
0.0
  0
VERTEX
  5
6C7
  8
LAYER_1
 10
-11.83888030917633
 20
43.6237782569809
 30
0.0
  0
VERTEX
  5
6C8
  8
LAYER_1
 10
-11.95111449816015
 20
43.56590199923552
 30
0.0
  0
VERTEX
  5
6C9
  8
LAYER_1
 10
-12.05904270648199
 20
43.49893867120537
 30
0.0
  0
VERTEX
  5
6CA
  8
LAYER_1
 10
-12.16204102623453
 20
43.42280710078249
 30
0.0
  0
VERTEX
  5
6CB
  8
LAYER_1
 10
-12.25948554951045
 20
43.33742611585887
 30
0.0
  0
VERTEX
  5
6CC
  8
LAYER_1
 10
-12.35075236840245
 20
43.24271454432654
 30
0.0
  0
VERTEX
  5
6CD
  8
LAYER_1
 10
-12.43521757500321
 20
43.13859121407752
 30
0.0
  0
VERTEX
  5
6CE
  8
LAYER_1
 10
-12.5122572614054
 20
43.02497495300383
 30
0.0
  0
VERTEX
  5
6CF
  8
LAYER_1
 10
-12.58124751970172
 20
42.90178458899747
 30
0.0
  0
VERTEX
  5
6D0
  8
LAYER_1
 10
-12.64732876656261
 20
42.743204710048
 30
0.0
  0
VERTEX
  5
6D1
  8
LAYER_1
 10
-12.6974804829049
 20
42.56439346241756
 30
0.0
  0
VERTEX
  5
6D2
  8
LAYER_1
 10
-12.73139138175185
 20
42.372264747817
 30
0.0
  0
VERTEX
  5
6D3
  8
LAYER_1
 10
-12.74875017612676
 20
42.17373246795719
 30
0.0
  0
VERTEX
  5
6D4
  8
LAYER_1
 10
-12.7492455790529
 20
41.975710524549
 30
0.0
  0
VERTEX
  5
6D5
  8
LAYER_1
 10
-12.73256630355356
 20
41.78511281930329
 30
0.0
  0
VERTEX
  5
6D6
  8
LAYER_1
 10
-12.69840106265203
 20
41.60885325393092
 30
0.0
  0
VERTEX
  5
6D7
  8
LAYER_1
 10
-12.64643856937157
 20
41.45384573014275
 30
0.0
  0
VERTEX
  5
6D8
  8
LAYER_1
 10
-12.58790887203636
 20
41.34022065272319
 30
0.0
  0
VERTEX
  5
6D9
  8
LAYER_1
 10
-12.50850856681981
 20
41.22007328894539
 30
0.0
  0
VERTEX
  5
6DA
  8
LAYER_1
 10
-12.41222394973078
 20
41.09753766748216
 30
0.0
  0
VERTEX
  5
6DB
  8
LAYER_1
 10
-12.30304131677811
 20
40.97674781700633
 30
0.0
  0
VERTEX
  5
6DC
  8
LAYER_1
 10
-12.18494696397063
 20
40.86183776619069
 30
0.0
  0
VERTEX
  5
6DD
  8
LAYER_1
 10
-12.06192718731722
 20
40.75694154370808
 30
0.0
  0
VERTEX
  5
6DE
  8
LAYER_1
 10
-11.93796828282669
 20
40.6661931782313
 30
0.0
  0
VERTEX
  5
6DF
  8
LAYER_1
 10
-11.81705654650791
 20
40.59372669843317
 30
0.0
  0
VERTEX
  5
6E0
  8
LAYER_1
 10
-11.70603596975818
 20
40.54943704694634
 30
0.0
  0
VERTEX
  5
6E1
  8
LAYER_1
 10
-11.56414953131375
 20
40.51426011071081
 30
0.0
  0
VERTEX
  5
6E2
  8
LAYER_1
 10
-11.39979400988897
 20
40.48867102689442
 30
0.0
  0
VERTEX
  5
6E3
  8
LAYER_1
 10
-11.22136618419818
 20
40.47314493266504
 30
0.0
  0
VERTEX
  5
6E4
  8
LAYER_1
 10
-11.03726283295571
 20
40.46815696519049
 30
0.0
  0
VERTEX
  5
6E5
  8
LAYER_1
 10
-10.85588073487588
 20
40.47418226163857
 30
0.0
  0
VERTEX
  5
6E6
  8
LAYER_1
 10
-10.68561666867304
 20
40.49169595917715
 30
0.0
  0
VERTEX
  5
6E7
  8
LAYER_1
 10
-10.53486741306152
 20
40.52117319497407
 30
0.0
  0
VERTEX
  5
6E8
  8
LAYER_1
 10
-10.40523163229004
 20
40.54575450353494
 30
0.0
  0
VERTEX
  5
6E9
  8
LAYER_1
 10
-10.35772280061517
 20
40.54175904129487
 30
0.0
  0
VERTEX
  5
6EA
  8
LAYER_1
 10
-10.31677764702926
 20
40.52356458869627
 30
0.0
  0
VERTEX
  5
6EB
  8
LAYER_1
 10
-10.27866440074361
 20
40.48866496123047
 30
0.0
  0
VERTEX
  5
6EC
  8
LAYER_1
 10
-10.2396512909695
 20
40.43455397438881
 30
0.0
  0
VERTEX
  5
6ED
  8
LAYER_1
 10
-10.14399839780111
 20
40.25867318454326
 30
0.0
  0
VERTEX
  5
6EE
  8
LAYER_1
 10
-9.980759416910274
 20
39.93750456720591
 30
0.0
  0
VERTEX
  5
6EF
  8
LAYER_1
 10
-9.101947308484966
 20
38.2875045016408
 30
0.0
  0
VERTEX
  5
6F0
  8
LAYER_1
 10
-7.066282474100404
 20
34.53750435262918
 30
0.0
  0
VERTEX
  5
6F1
  8
LAYER_1
 10
-5.831918232640419
 20
32.28750426322222
 30
0.0
  0
VERTEX
  5
6F2
  8
LAYER_1
 10
-5.825458442689495
 20
32.13750425726175
 30
0.0
  0
VERTEX
  5
6F3
  8
LAYER_1
 10
-7.296973392519661
 20
29.43750414997339
 30
0.0
  0
VERTEX
  5
6F4
  8
LAYER_1
 10
-7.501063223791135
 20
29.06250413507223
 30
0.0
  0
VERTEX
  5
6F5
  8
LAYER_1
 10
-8.115796869597602
 20
27.93750409036875
 30
0.0
  0
VERTEX
  5
6F6
  8
LAYER_1
 10
-8.7989136222737
 20
26.68178755718004
 30
0.0
  0
VERTEX
  5
6F7
  8
LAYER_1
 10
-9.490770565432783
 20
25.38750398904085
 30
0.0
  0
VERTEX
  5
6F8
  8
LAYER_1
 10
-9.943300568046325
 20
24.54307521577264
 30
0.0
  0
VERTEX
  5
6F9
  8
LAYER_1
 10
-10.21125584750786
 20
24.07125033554336
 30
0.0
  0
VERTEX
  5
6FA
  8
LAYER_1
 10
-10.2953686294126
 20
23.94361263529378
 30
0.0
  0
VERTEX
  5
6FB
  8
LAYER_1
 10
-10.3565585265565
 20
23.87138384427449
 30
0.0
  0
VERTEX
  5
6FC
  8
LAYER_1
 10
-10.40256580428195
 20
23.84198327447567
 30
0.0
  0
VERTEX
  5
6FD
  8
LAYER_1
 10
-10.44113072793135
 20
23.84283023788751
 30
0.0
  0
VERTEX
  5
6FE
  8
LAYER_1
 10
-10.64216877979731
 20
23.87412951670025
 30
0.0
  0
VERTEX
  5
6FF
  8
LAYER_1
 10
-10.99019211945595
 20
23.90679509013341
 30
0.0
  0
VERTEX
  5
700
  8
LAYER_1
 10
-11.17257426324134
 20
23.91420576062556
 30
0.0
  0
VERTEX
  5
701
  8
LAYER_1
 10
-11.34045655682604
 20
23.90751041097842
 30
0.0
  0
VERTEX
  5
702
  8
LAYER_1
 10
-11.49668291099587
 20
23.88580249089666
 30
0.0
  0
VERTEX
  5
703
  8
LAYER_1
 10
-11.64409723653667
 20
23.84817545008497
 30
0.0
  0
VERTEX
  5
704
  8
LAYER_1
 10
-11.78554344423427
 20
23.79372273824802
 30
0.0
  0
VERTEX
  5
705
  8
LAYER_1
 10
-11.92386544487451
 20
23.72153780509049
 30
0.0
  0
VERTEX
  5
706
  8
LAYER_1
 10
-12.06190714924321
 20
23.63071410031706
 30
0.0
  0
VERTEX
  5
707
  8
LAYER_1
 10
-12.20251246812619
 20
23.52034507363241
 30
0.0
  0
VERTEX
  5
708
  8
LAYER_1
 10
-12.3206199471805
 20
23.41109685906412
 30
0.0
  0
VERTEX
  5
709
  8
LAYER_1
 10
-12.42153742439657
 20
23.29604092679189
 30
0.0
  0
VERTEX
  5
70A
  8
LAYER_1
 10
-12.50633283858144
 20
23.17278907336869
 30
0.0
  0
VERTEX
  5
70B
  8
LAYER_1
 10
-12.57607412854213
 20
23.03895309534746
 30
0.0
  0
VERTEX
  5
70C
  8
LAYER_1
 10
-12.63182923308566
 20
22.89214478928116
 30
0.0
  0
VERTEX
  5
70D
  8
LAYER_1
 10
-12.67466609101907
 20
22.72997595172276
 30
0.0
  0
VERTEX
  5
70E
  8
LAYER_1
 10
-12.70565264114937
 20
22.5500583792252
 30
0.0
  0
VERTEX
  5
70F
  8
LAYER_1
 10
-12.72585682228358
 20
22.35000386834145
 30
0.0
  0
VERTEX
  5
710
  8
LAYER_1
 10
-12.73084313632722
 20
22.13082384095136
 30
0.0
  0
VERTEX
  5
711
  8
LAYER_1
 10
-12.71279070599046
 20
21.9265268171686
 30
0.0
  0
VERTEX
  5
712
  8
LAYER_1
 10
-12.67116258952805
 20
21.73592683299873
 30
0.0
  0
VERTEX
  5
713
  8
LAYER_1
 10
-12.60542184519474
 20
21.55783792444734
 30
0.0
  0
VERTEX
  5
714
  8
LAYER_1
 10
-12.51503153124528
 20
21.39107412752
 30
0.0
  0
VERTEX
  5
715
  8
LAYER_1
 10
-12.39945470593443
 20
21.2344494782223
 30
0.0
  0
VERTEX
  5
716
  8
LAYER_1
 10
-12.25815442751693
 20
21.08677801255981
 30
0.0
  0
VERTEX
  5
717
  8
LAYER_1
 10
-12.09059375424752
 20
20.94687376653812
 30
0.0
  0
VERTEX
  5
718
  8
LAYER_1
 10
-11.97897501887352
 20
20.86783013662696
 30
0.0
  0
VERTEX
  5
719
  8
LAYER_1
 10
-11.86628876511812
 20
20.79822362103038
 30
0.0
  0
VERTEX
  5
71A
  8
LAYER_1
 10
-11.75262478727347
 20
20.73806042391586
 30
0.0
  0
VERTEX
  5
71B
  8
LAYER_1
 10
-11.63807287963175
 20
20.68734674945086
 30
0.0
  0
VERTEX
  5
71C
  8
LAYER_1
 10
-11.52272283648511
 20
20.64608880180286
 30
0.0
  0
VERTEX
  5
71D
  8
LAYER_1
 10
-11.40666445212571
 20
20.61429278513933
 30
0.0
  0
VERTEX
  5
71E
  8
LAYER_1
 10
-11.28998752084573
 20
20.59196490362773
 30
0.0
  0
VERTEX
  5
71F
  8
LAYER_1
 10
-11.17278183693731
 20
20.57911136143555
 30
0.0
  0
VERTEX
  5
720
  8
LAYER_1
 10
-11.05513719469264
 20
20.57573836273026
 30
0.0
  0
VERTEX
  5
721
  8
LAYER_1
 10
-10.93714338840385
 20
20.58185211167931
 30
0.0
  0
VERTEX
  5
722
  8
LAYER_1
 10
-10.81889021236313
 20
20.59745881245018
 30
0.0
  0
VERTEX
  5
723
  8
LAYER_1
 10
-10.70046746086263
 20
20.62256466921036
 30
0.0
  0
VERTEX
  5
724
  8
LAYER_1
 10
-10.58196492819452
 20
20.65717588612731
 30
0.0
  0
VERTEX
  5
725
  8
LAYER_1
 10
-10.46347240865095
 20
20.70129866736848
 30
0.0
  0
VERTEX
  5
726
  8
LAYER_1
 10
-10.3450796965241
 20
20.75493921710137
 30
0.0
  0
VERTEX
  5
727
  8
LAYER_1
 10
-10.22687658610612
 20
20.81810373949344
 30
0.0
  0
VERTEX
  5
728
  8
LAYER_1
 10
-10.08727953574697
 20
20.91386657637335
 30
0.0
  0
VERTEX
  5
729
  8
LAYER_1
 10
-9.949417424187414
 20
21.03659744358496
 30
0.0
  0
VERTEX
  5
72A
  8
LAYER_1
 10
-9.818492375099874
 20
21.17888806203202
 30
0.0
  0
VERTEX
  5
72B
  8
LAYER_1
 10
-9.699706512156764
 20
21.33333015261828
 30
0.0
  0
VERTEX
  5
72C
  8
LAYER_1
 10
-9.598261959030507
 20
21.49251543624749
 30
0.0
  0
VERTEX
  5
72D
  8
LAYER_1
 10
-9.519360839393517
 20
21.64903563382341
 30
0.0
  0
VERTEX
  5
72E
  8
LAYER_1
 10
-9.468205276918217
 20
21.79548246624978
 30
0.0
  0
VERTEX
  5
72F
  8
LAYER_1
 10
-9.45465774326383
 20
21.86261328331431
 30
0.0
  0
VERTEX
  5
730
  8
LAYER_1
 10
-9.449997395277023
 20
21.92444765443035
 30
0.0
  0
VERTEX
  5
731
  8
LAYER_1
 10
-9.449997395277023
 20
22.14817478164157
 30
0.0
  0
VERTEX
  5
732
  8
LAYER_1
 10
-7.25624730810523
 20
22.09752514211176
 30
0.0
  0
VERTEX
  5
733
  8
LAYER_1
 10
-2.512497119605541
 20
21.97077761865846
 30
0.0
  0
VERTEX
  5
734
  8
LAYER_1
 10
0.0375029817223549
 20
21.89467973473494
 30
0.0
  0
VERTEX
  5
735
  8
LAYER_1
 10
0.2097510659339576
 20
21.83556427921347
 30
0.0
  0
VERTEX
  5
736
  8
LAYER_1
 10
1.862239684604603
 20
19.08750373870134
 30
0.0
  0
VERTEX
  5
737
  8
LAYER_1
 10
5.155500009720015
 20
13.76250352710485
 30
0.0
  0
VERTEX
  5
738
  8
LAYER_1
 10
4.974729627612433
 20
13.62279668561492
 30
0.0
  0
VERTEX
  5
739
  8
LAYER_1
 10
4.865885190532458
 20
13.52111380295185
 30
0.0
  0
VERTEX
  5
73A
  8
LAYER_1
 10
4.763611453115559
 20
13.39191425957898
 30
0.0
  0
VERTEX
  5
73B
  8
LAYER_1
 10
4.670385140087262
 20
13.24091019168652
 30
0.0
  0
VERTEX
  5
73C
  8
LAYER_1
 10
4.588682976173093
 20
13.07381373546471
 30
0.0
  0
VERTEX
  5
73D
  8
LAYER_1
 10
4.520981686098577
 20
12.89633702710379
 30
0.0
  0
VERTEX
  5
73E
  8
LAYER_1
 10
4.469757994589242
 20
12.714192202794
 30
0.0
  0
VERTEX
  5
73F
  8
LAYER_1
 10
4.437488626370611
 20
12.53309139872556
 30
0.0
  0
VERTEX
  5
740
  8
LAYER_1
 10
4.426650306168213
 20
12.35874675108872
 30
0.0
  0
VERTEX
  5
741
  8
LAYER_1
 10
4.431305768068765
 20
12.23247894609847
 30
0.0
  0
VERTEX
  5
742
  8
LAYER_1
 10
4.444156280472846
 20
12.10952730531072
 30
0.0
  0
VERTEX
  5
743
  8
LAYER_1
 10
4.465122861440687
 20
11.99001295242543
 30
0.0
  0
VERTEX
  5
744
  8
LAYER_1
 10
4.494126529032514
 20
11.87405701114259
 30
0.0
  0
VERTEX
  5
745
  8
LAYER_1
 10
4.531088301308559
 20
11.76178060516217
 30
0.0
  0
VERTEX
  5
746
  8
LAYER_1
 10
4.575929196329052
 20
11.65330485818413
 30
0.0
  0
VERTEX
  5
747
  8
LAYER_1
 10
4.628570232154221
 20
11.54875089390845
 30
0.0
  0
VERTEX
  5
748
  8
LAYER_1
 10
4.688932426844296
 20
11.44823983603511
 30
0.0
  0
VERTEX
  5
749
  8
LAYER_1
 10
4.756936798459507
 20
11.35189280826407
 30
0.0
  0
VERTEX
  5
74A
  8
LAYER_1
 10
4.832504365060083
 20
11.25983093429531
 30
0.0
  0
VERTEX
  5
74B
  8
LAYER_1
 10
4.915556144706253
 20
11.1721753378288
 30
0.0
  0
VERTEX
  5
74C
  8
LAYER_1
 10
5.006013155458247
 20
11.08904714256452
 30
0.0
  0
VERTEX
  5
74D
  8
LAYER_1
 10
5.103796415376296
 20
11.01056747220243
 30
0.0
  0
VERTEX
  5
74E
  8
LAYER_1
 10
5.208826942520627
 20
10.93685745044251
 30
0.0
  0
VERTEX
  5
74F
  8
LAYER_1
 10
5.321025754951471
 20
10.86803820098474
 30
0.0
  0
SEQEND
  5
CFE
  8
LAYER_1
  0
POLYLINE
  5
76
  8
LAYER_1
 66
     1
 10
0.0
 20
0.0
 30
0.0
 70
     1
  0
VERTEX
  5
750
  8
LAYER_1
 10
-46.6124988719821
 20
14.7695107707948
 30
0.0
  0
VERTEX
  5
751
  8
LAYER_1
 10
-45.52499882876873
 20
14.70272387276559
 30
0.0
  0
VERTEX
  5
752
  8
LAYER_1
 10
-44.98142458841903
 20
14.67992186981241
 30
0.0
  0
VERTEX
  5
753
  8
LAYER_1
 10
-44.3053112803027
 20
14.66720826547558
 30
0.0
  0
VERTEX
  5
754
  8
LAYER_1
 10
-43.58279172034236
 20
14.66547288022805
 30
0.0
  0
VERTEX
  5
755
  8
LAYER_1
 10
-42.8999987244606
 20
14.67560553454274
 30
0.0
  0
VERTEX
  5
756
  8
LAYER_1
 10
-41.36249866336584
 20
14.7152740943491
 30
0.0
  0
VERTEX
  5
757
  8
LAYER_1
 10
-40.72499863803387
 20
14.77525190976112
 30
0.0
  0
VERTEX
  5
758
  8
LAYER_1
 10
-40.21804367474373
 20
14.82921805008539
 30
0.0
  0
VERTEX
  5
759
  8
LAYER_1
 10
-39.69783924670368
 20
14.89650010466628
 30
0.0
  0
VERTEX
  5
75A
  8
LAYER_1
 10
-39.17245007822385
 20
14.97563224485793
 30
0.0
  0
VERTEX
  5
75B
  8
LAYER_1
 10
-38.64994089361433
 20
15.06514864201448
 30
0.0
  0
VERTEX
  5
75C
  8
LAYER_1
 10
-38.13837641718523
 20
15.16358346749008
 30
0.0
  0
VERTEX
  5
75D
  8
LAYER_1
 10
-37.64582137324666
 20
15.26947089263887
 30
0.0
  0
VERTEX
  5
75E
  8
LAYER_1
 10
-37.18034048610873
 20
15.381345088815
 30
0.0
  0
VERTEX
  5
75F
  8
LAYER_1
 10
-36.74999848008156
 20
15.4977402273726
 30
0.0
  0
VERTEX
  5
760
  8
LAYER_1
 10
-36.33749846369028
 20
15.61660331640677
 30
0.0
  0
VERTEX
  5
761
  8
LAYER_1
 10
-34.23749838024378
 20
16.27967413875152
 30
0.0
  0
VERTEX
  5
762
  8
LAYER_1
 10
-33.91956574877802
 20
16.42733888880755
 30
0.0
  0
VERTEX
  5
763
  8
LAYER_1
 10
-33.68250015200942
 20
16.53162711853461
 30
0.0
  0
VERTEX
  5
764
  8
LAYER_1
 10
-33.55899251885815
 20
16.57500363886356
 30
0.0
  0
VERTEX
  5
765
  8
LAYER_1
 10
-33.51635192040405
 20
16.57500363886356
 30
0.0
  0
VERTEX
  5
766
  8
LAYER_1
 10
-31.67032365104607
 20
17.39191145391365
 30
0.0
  0
VERTEX
  5
767
  8
LAYER_1
 10
-31.28186048003556
 20
17.62095757172058
 30
0.0
  0
VERTEX
  5
768
  8
LAYER_1
 10
-30.99501407540527
 20
17.78272139242172
 30
0.0
  0
VERTEX
  5
769
  8
LAYER_1
 10
-30.85086355547909
 20
17.85000368952751
 30
0.0
  0
VERTEX
  5
76A
  8
LAYER_1
 10
-30.80832980193314
 20
17.85000368952751
 30
0.0
  0
VERTEX
  5
76B
  8
LAYER_1
 10
-30.16041399721115
 20
18.2357192915153
 30
0.0
  0
VERTEX
  5
76C
  8
LAYER_1
 10
-29.48550098041116
 20
18.65369417512172
 30
0.0
  0
VERTEX
  5
76D
  8
LAYER_1
 10
-28.77267698494846
 20
19.11696932653302
 30
0.0
  0
VERTEX
  5
76E
  8
LAYER_1
 10
-28.03285577740778
 20
19.61250375956297
 30
0.0
  0
VERTEX
  5
76F
  8
LAYER_1
 10
-27.87267694918567
 20
19.72441553038533
 30
0.0
  0
VERTEX
  5
770
  8
LAYER_1
 10
-27.62705869424572
 20
19.91191553783591
 30
0.0
  0
VERTEX
  5
771
  8
LAYER_1
 10
-27.33150548925958
 20
20.13750378042459
 30
0.0
  0
VERTEX
  5
772
  8
LAYER_1
 10
-27.16070441814109
 20
20.26568421200351
 30
0.0
  0
VERTEX
  5
773
  8
LAYER_1
 10
-26.91879594540348
 20
20.46157319984556
 30
0.0
  0
VERTEX
  5
774
  8
LAYER_1
 10
-25.98749805241823
 20
21.25036415373333
 30
0.0
  0
VERTEX
  5
775
  8
LAYER_1
 10
-25.53749803453684
 20
21.63477441340862
 30
0.0
  0
VERTEX
  5
776
  8
LAYER_1
 10
-23.88614423822746
 20
23.28750390559435
 30
0.0
  0
VERTEX
  5
777
  8
LAYER_1
 10
-23.71197342347606
 20
23.51250391453505
 30
0.0
  0
VERTEX
  5
778
  8
LAYER_1
 10
-23.51856446719568
 20
23.74851954891346
 30
0.0
  0
VERTEX
  5
779
  8
LAYER_1
 10
-23.2981402483427
 20
24.00000393390656
 30
0.0
  0
VERTEX
  5
77A
  8
LAYER_1
 10
-23.02034057916993
 20
24.3285976969637
 30
0.0
  0
VERTEX
  5
77B
  8
LAYER_1
 10
-22.68898639126962
 20
24.75000396370888
 30
0.0
  0
VERTEX
  5
77C
  8
LAYER_1
 10
-22.3194948945785
 20
25.23750398308039
 30
0.0
  0
VERTEX
  5
77D
  8
LAYER_1
 10
-22.22825064282731
 20
25.31250398606062
 30
0.0
  0
VERTEX
  5
77E
  8
LAYER_1
 10
-21.22499786317348
 20
26.77990100869714
 30
0.0
  0
VERTEX
  5
77F
  8
LAYER_1
 10
-21.22499786317348
 20
26.85245252941638
 30
0.0
  0
VERTEX
  5
780
  8
LAYER_1
 10
-21.21907989418833
 20
26.88062292457065
 30
0.0
  0
VERTEX
  5
781
  8
LAYER_1
 10
-21.20296661229804
 20
26.90369204092434
 30
0.0
  0
VERTEX
  5
782
  8
LAYER_1
 10
-21.17911895510042
 20
26.91927928170386
 30
0.0
  0
VERTEX
  5
783
  8
LAYER_1
 10
-21.14999786019325
 20
26.92500405013561
 30
0.0
  0
VERTEX
  5
784
  8
LAYER_1
 10
-21.12087676528608
 20
26.93103962041612
 30
0.0
  0
VERTEX
  5
785
  8
LAYER_1
 10
-21.09702910808846
 20
26.94747310385313
 30
0.0
  0
VERTEX
  5
786
  8
LAYER_1
 10
-21.08091582619818
 20
26.97179465933991
 30
0.0
  0
VERTEX
  5
787
  8
LAYER_1
 10
-21.07499785721302
 20
27.00149444576971
 30
0.0
  0
VERTEX
  5
788
  8
LAYER_1
 10
-21.05887511847791
 20
27.05622799909109
 30
0.0
  0
VERTEX
  5
789
  8
LAYER_1
 10
-21.01497657241698
 20
27.14871080106485
 30
0.0
  0
VERTEX
  5
78A
  8
LAYER_1
 10
-20.87067007918393
 20
27.39524446141593
 30
0.0
  0
VERTEX
  5
78B
  8
LAYER_1
 10
-20.58411331063275
 20
27.86250408738852
 30
0.0
  0
VERTEX
  5
78C
  8
LAYER_1
 10
-20.24914150296317
 20
28.46250411123037
 30
0.0
  0
VERTEX
  5
78D
  8
LAYER_1
 10
-19.91434010142587
 20
29.08830027601838
 30
0.0
  0
VERTEX
  5
78E
  8
LAYER_1
 10
-19.58243021222405
 20
29.76601788846125
 30
0.0
  0
VERTEX
  5
78F
  8
LAYER_1
 10
-19.25833124676063
 20
30.48342177671679
 30
0.0
  0
VERTEX
  5
790
  8
LAYER_1
 10
-18.94696261643851
 20
31.22827676894282
 30
0.0
  0
VERTEX
  5
791
  8
LAYER_1
 10
-18.65324373266063
 20
31.98834769329717
 30
0.0
  0
VERTEX
  5
792
  8
LAYER_1
 10
-18.3820940068299
 20
32.75139937793764
 30
0.0
  0
VERTEX
  5
793
  8
LAYER_1
 10
-18.13843285034923
 20
33.50519665102207
 30
0.0
  0
VERTEX
  5
794
  8
LAYER_1
 10
-17.92717967462154
 20
34.23750434070826
 30
0.0
  0
VERTEX
  5
795
  8
LAYER_1
 10
-17.78565755350915
 20
34.76250436156988
 30
0.0
  0
VERTEX
  5
796
  8
LAYER_1
 10
-17.31231569254853
 20
37.08750445395708
 30
0.0
  0
VERTEX
  5
797
  8
LAYER_1
 10
-17.17584795713234
 20
38.2875045016408
 30
0.0
  0
VERTEX
  5
798
  8
LAYER_1
 10
-17.09396522140165
 20
39.58627403047849
 30
0.0
  0
VERTEX
  5
799
  8
LAYER_1
 10
-17.06066013029621
 20
40.2680765944292
 30
0.0
  0
VERTEX
  5
79A
  8
LAYER_1
 10
-17.04958840661321
 20
40.93421672682702
 30
0.0
  0
VERTEX
  5
79B
  8
LAYER_1
 10
-17.06075311112485
 20
41.62951053899026
 30
0.0
  0
VERTEX
  5
79C
  8
LAYER_1
 10
-17.09415730460331
 20
42.3987741422372
 30
0.0
  0
VERTEX
  5
79D
  8
LAYER_1
 10
-17.17623212353566
 20
43.91250472515821
 30
0.0
  0
VERTEX
  5
79E
  8
LAYER_1
 10
-17.32712435817763
 20
45.18750477582216
 30
0.0
  0
VERTEX
  5
79F
  8
LAYER_1
 10
-17.83884678910822
 20
47.58750487118959
 30
0.0
  0
VERTEX
  5
7A0
  8
LAYER_1
 10
-18.00691660957249
 20
48.26250489801168
 30
0.0
  0
VERTEX
  5
7A1
  8
LAYER_1
 10
-18.29605239071879
 20
49.16250493377447
 30
0.0
  0
VERTEX
  5
7A2
  8
LAYER_1
 10
-18.50551662990792
 20
49.78900207845696
 30
0.0
  0
VERTEX
  5
7A3
  8
LAYER_1
 10
-18.73154125323189
 20
50.42323796940688
 30
0.0
  0
VERTEX
  5
7A4
  8
LAYER_1
 10
-18.94636489716075
 20
50.98960736489234
 30
0.0
  0
VERTEX
  5
7A5
  8
LAYER_1
 10
-19.12222619816451
 20
51.41250502318144
 30
0.0
  0
VERTEX
  5
7A6
  8
LAYER_1
 10
-19.18993066882894
 20
51.5625050291419
 30
0.0
  0
VERTEX
  5
7A7
  8
LAYER_1
 10
-20.31615459407706
 20
53.8875051215291
 30
0.0
  0
VERTEX
  5
7A8
  8
LAYER_1
 10
-20.54453429419159
 20
54.26250513643026
 30
0.0
  0
VERTEX
  5
7A9
  8
LAYER_1
 10
-20.83020592203428
 20
54.75196503481322
 30
0.0
  0
VERTEX
  5
7AA
  8
LAYER_1
 10
-20.95879334949407
 20
54.97145195051012
 30
0.0
  0
VERTEX
  5
7AB
  8
LAYER_1
 10
-21.18749786168337
 20
55.33842363484948
 30
0.0
  0
VERTEX
  5
7AC
  8
LAYER_1
 10
-21.4874978736043
 20
55.8104223514039
 30
0.0
  0
VERTEX
  5
7AD
  8
LAYER_1
 10
-22.8302434555175
 20
57.63750527054071
 30
0.0
  0
VERTEX
  5
7AE
  8
LAYER_1
 10
-22.90887069436322
 20
57.73486638879683
 30
0.0
  0
VERTEX
  5
7AF
  8
LAYER_1
 10
-23.13749793916941
 20
57.99918605227379
 30
0.0
  0
VERTEX
  5
7B0
  8
LAYER_1
 10
-23.70894112374779
 20
58.65182496381996
 30
0.0
  0
VERTEX
  5
7B1
  8
LAYER_1
 10
-23.97712460559461
 20
58.95479909849441
 30
0.0
  0
VERTEX
  5
7B2
  8
LAYER_1
 10
-24.25531898669904
 20
59.25724987961499
 30
0.0
  0
VERTEX
  5
7B3
  8
LAYER_1
 10
-24.83933699120459
 20
59.85848751656499
 30
0.0
  0
VERTEX
  5
7B4
  8
LAYER_1
 10
-25.45618822631216
 20
60.45135014541079
 30
0.0
  0
VERTEX
  5
7B5
  8
LAYER_1
 10
-26.10106578106946
 20
61.03165003689317
 30
0.0
  0
VERTEX
  5
7B6
  8
LAYER_1
 10
-26.76916274452418
 20
61.59519946175293
 30
0.0
  0
VERTEX
  5
7B7
  8
LAYER_1
 10
-27.45567220572403
 20
62.13781069073087
 30
0.0
  0
VERTEX
  5
7B8
  8
LAYER_1
 10
-28.15578725371673
 20
62.65529599456779
 30
0.0
  0
VERTEX
  5
7B9
  8
LAYER_1
 10
-28.86470097754997
 20
63.14346764400452
 30
0.0
  0
VERTEX
  5
7BA
  8
LAYER_1
 10
-29.75478699641173
 20
63.72197780088605
 30
0.0
  0
VERTEX
  5
7BB
  8
LAYER_1
 10
-30.06886843815732
 20
63.91368480236262
 30
0.0
  0
VERTEX
  5
7BC
  8
LAYER_1
 10
-30.3374982252717
 20
64.06659449062201
 30
0.0
  0
VERTEX
  5
7BD
  8
LAYER_1
 10
-30.71249824017286
 20
64.27148024454328
 30
0.0
  0
VERTEX
  5
7BE
  8
LAYER_1
 10
-31.83749828487635
 20
64.82968701420418
 30
0.0
  0
VERTEX
  5
7BF
  8
LAYER_1
 10
-32.31106405180075
 20
65.06062266011797
 30
0.0
  0
VERTEX
  5
7C0
  8
LAYER_1
 10
-32.76049973583557
 20
65.27111943104543
 30
0.0
  0
VERTEX
  5
7C1
  8
LAYER_1
 10
-33.19249491419677
 20
65.46391772048742
 30
0.0
  0
VERTEX
  5
7C2
  8
LAYER_1
 10
-33.61373916410032
 20
65.64175792194473
 30
0.0
  0
VERTEX
  5
7C3
  8
LAYER_1
 10
-34.03092206276217
 20
65.80738042891822
 30
0.0
  0
VERTEX
  5
7C4
  8
LAYER_1
 10
-34.45073318739829
 20
65.96352563490872
 30
0.0
  0
VERTEX
  5
7C5
  8
LAYER_1
 10
-34.87986211522463
 20
66.11293393341705
 30
0.0
  0
VERTEX
  5
7C6
  8
LAYER_1
 10
-35.32499842345715
 20
66.25834571794405
 30
0.0
  0
VERTEX
  5
7C7
  8
LAYER_1
 10
-36.18749845772982
 20
66.53171039838074
 30
0.0
  0
VERTEX
  5
7C8
  8
LAYER_1
 10
-36.44999846816063
 20
66.60078758552311
 30
0.0
  0
VERTEX
  5
7C9
  8
LAYER_1
 10
-37.12499849498272
 20
66.78066431379386
 30
0.0
  0
VERTEX
  5
7CA
  8
LAYER_1
 10
-37.537498511374
 20
66.89146385492225
 30
0.0
  0
VERTEX
  5
7CB
  8
LAYER_1
 10
-38.54907678901622
 20
67.09100817364492
 30
0.0
  0
VERTEX
  5
7CC
  8
LAYER_1
 10
-39.42900909692794
 20
67.25183020076864
 30
0.0
  0
VERTEX
  5
7CD
  8
LAYER_1
 10
-39.82549088819613
 20
67.31623508712855
 30
0.0
  0
VERTEX
  5
7CE
  8
LAYER_1
 10
-40.1240768516011
 20
67.35827624394486
 30
0.0
  0
VERTEX
  5
7CF
  8
LAYER_1
 10
-40.68749863654375
 20
67.42599999552209
 30
0.0
  0
VERTEX
  5
7D0
  8
LAYER_1
 10
-42.09374869242301
 20
67.50231627921193
 30
0.0
  0
VERTEX
  5
7D1
  8
LAYER_1
 10
-42.80142145512819
 20
67.53142849086169
 30
0.0
  0
VERTEX
  5
7D2
  8
LAYER_1
 10
-43.49999874830232
 20
67.54113256141162
 30
0.0
  0
VERTEX
  5
7D3
  8
LAYER_1
 10
-44.19857604147649
 20
67.53142849086169
 30
0.0
  0
VERTEX
  5
7D4
  8
LAYER_1
 10
-44.90624880418173
 20
67.50231627921193
 30
0.0
  0
VERTEX
  5
7D5
  8
LAYER_1
 10
-46.31249886006117
 20
67.42599999552209
 30
0.0
  0
VERTEX
  5
7D6
  8
LAYER_1
 10
-46.88330987765502
 20
67.35757042810226
 30
0.0
  0
VERTEX
  5
7D7
  8
LAYER_1
 10
-47.41170359436201
 20
67.28355318457841
 30
0.0
  0
VERTEX
  5
7D8
  8
LAYER_1
 10
-48.02088091052789
 20
67.17744469708373
 30
0.0
  0
VERTEX
  5
7D9
  8
LAYER_1
 10
-48.73419498826891
 20
67.03485330866899
 30
0.0
  0
VERTEX
  5
7DA
  8
LAYER_1
 10
-49.57499898970127
 20
66.85138736238488
 30
0.0
  0
VERTEX
  5
7DB
  8
LAYER_1
 10
-50.43749902397394
 20
66.6572377787526
 30
0.0
  0
VERTEX
  5
7DC
  8
LAYER_1
 10
-50.58749902993441
 20
66.60020124080808
 30
0.0
  0
VERTEX
  5
7DD
  8
LAYER_1
 10
-50.86968654114753
 20
66.51052245462904
 30
0.0
  0
VERTEX
  5
7DE
  8
LAYER_1
 10
-51.33749905973673
 20
66.37500561773777
 30
0.0
  0
VERTEX
  5
7DF
  8
LAYER_1
 10
-51.80531157832593
 20
66.23837828483254
 30
0.0
  0
VERTEX
  5
7E0
  8
LAYER_1
 10
-52.08749908953905
 20
66.14602958270507
 30
0.0
  0
VERTEX
  5
7E1
  8
LAYER_1
 10
-52.23749909549952
 20
66.08521263279812
 30
0.0
  0
VERTEX
  5
7E2
  8
LAYER_1
 10
-53.1374991312623
 20
65.73547031159188
 30
0.0
  0
VERTEX
  5
7E3
  8
LAYER_1
 10
-53.57572180492571
 20
65.55591953634213
 30
0.0
  0
VERTEX
  5
7E4
  8
LAYER_1
 10
-54.10359291965142
 20
65.32558461419735
 30
0.0
  0
VERTEX
  5
7E5
  8
LAYER_1
 10
-54.65466716029914
 20
65.07413552807157
 30
0.0
  0
VERTEX
  5
7E6
  8
LAYER_1
 10
-55.16249921172857
 20
64.83124226087878
 30
0.0
  0
VERTEX
  5
7E7
  8
LAYER_1
 10
-56.28749925643206
 20
64.27675653137192
 30
0.0
  0
VERTEX
  5
7E8
  8
LAYER_1
 10
-56.66530165826693
 20
64.06963102463595
 30
0.0
  0
VERTEX
  5
7E9
  8
LAYER_1
 10
-57.0007961312274
 20
63.87377832103394
 30
0.0
  0
VERTEX
  5
7EA
  8
LAYER_1
 10
-57.27687947002384
 20
63.69375551119447
 30
0.0
  0
VERTEX
  5
7EB
  8
LAYER_1
 10
-57.46612144167553
 20
63.57457581895869
 30
0.0
  0
VERTEX
  5
7EC
  8
LAYER_1
 10
-57.54247482414688
 20
63.53832093470555
 30
0.0
  0
VERTEX
  5
7ED
  8
LAYER_1
 10
-57.59282709575611
 20
63.52500550448895
 30
0.0
  0
VERTEX
  5
7EE
  8
LAYER_1
 10
-57.62473302642618
 20
63.51908753550379
 30
0.0
  0
VERTEX
  5
7EF
  8
LAYER_1
 10
-57.65086122317209
 20
63.5029742536135
 30
0.0
  0
VERTEX
  5
7F0
  8
LAYER_1
 10
-57.66851541016258
 20
63.47912659641588
 30
0.0
  0
VERTEX
  5
7F1
  8
LAYER_1
 10
-57.67499931156635
 20
63.45000550150871
 30
0.0
  0
VERTEX
  5
7F2
  8
LAYER_1
 10
-57.68070767589798
 20
63.42088440660154
 30
0.0
  0
VERTEX
  5
7F3
  8
LAYER_1
 10
-57.69625025204843
 20
63.39703674940392
 30
0.0
  0
VERTEX
  5
7F4
  8
LAYER_1
 10
-57.71925326475111
 20
63.38092346751364
 30
0.0
  0
VERTEX
  5
7F5
  8
LAYER_1
 10
-57.74734293873939
 20
63.37500549852848
 30
0.0
  0
VERTEX
  5
7F6
  8
LAYER_1
 10
-57.80079358556813
 20
63.35705774455512
 30
0.0
  0
VERTEX
  5
7F7
  8
LAYER_1
 10
-57.89284875204434
 20
63.30819009759794
 30
0.0
  0
VERTEX
  5
7F8
  8
LAYER_1
 10
-58.14109295438561
 20
63.14754881450961
 30
0.0
  0
VERTEX
  5
7F9
  8
LAYER_1
 10
-58.64999935030937
 20
62.7951701562375
 30
0.0
  0
VERTEX
  5
7FA
  8
LAYER_1
 10
-58.95867123757489
 20
62.57524938112449
 30
0.0
  0
VERTEX
  5
7FB
  8
LAYER_1
 10
-59.43749938160181
 20
62.22192603459141
 30
0.0
  0
VERTEX
  5
7FC
  8
LAYER_1
 10
-60.03749940544367
 20
61.77360388719853
 30
0.0
  0
VERTEX
  5
7FD
  8
LAYER_1
 10
-60.07499940693378
 20
61.72796909390044
 30
0.0
  0
VERTEX
  5
7FE
  8
LAYER_1
 10
-60.15792906911871
 20
61.65243652922942
 30
0.0
  0
VERTEX
  5
7FF
  8
LAYER_1
 10
-60.30465357398147
 20
61.53491986007734
 30
0.0
  0
VERTEX
  5
800
  8
LAYER_1
 10
-60.56878494711954
 20
61.32065215707934
 30
0.0
  0
VERTEX
  5
801
  8
LAYER_1
 10
-60.93399069686001
 20
61.01250540465117
 30
0.0
  0
VERTEX
  5
802
  8
LAYER_1
 10
-61.371173654181
 20
60.63750538975
 30
0.0
  0
VERTEX
  5
803
  8
LAYER_1
 10
-62.16683658792687
 20
59.84997722866055
 30
0.0
  0
VERTEX
  5
804
  8
LAYER_1
 10
-62.69847242463643
 20
59.31190001723544
 30
0.0
  0
VERTEX
  5
805
  8
LAYER_1
 10
-63.16917602758279
 20
58.81068199906839
 30
0.0
  0
VERTEX
  5
806
  8
LAYER_1
 10
-63.57468859422151
 20
58.35099360914768
 30
0.0
  0
VERTEX
  5
807
  8
LAYER_1
 10
-63.9107513220081
 20
57.93750528246164
 30
0.0
  0
VERTEX
  5
808
  8
LAYER_1
 10
-64.1609003127011
 20
57.63195349419692
 30
0.0
  0
VERTEX
  5
809
  8
LAYER_1
 10
-64.42499957978725
 20
57.30672577701509
 30
0.0
  0
VERTEX
  5
80A
  8
LAYER_1
 10
-64.58496052364353
 20
57.10435300606839
 30
0.0
  0
VERTEX
  5
80B
  8
LAYER_1
 10
-64.70624959096313
 20
56.96138468227352
 30
0.0
  0
VERTEX
  5
80C
  8
LAYER_1
 10
-64.77246053109411
 20
56.8744618566689
 30
0.0
  0
VERTEX
  5
80D
  8
LAYER_1
 10
-64.79260213345697
 20
56.83570154540136
 30
0.0
  0
VERTEX
  5
80E
  8
LAYER_1
 10
-64.79999959468842
 20
56.80683677286049
 30
0.0
  0
VERTEX
  5
80F
  8
LAYER_1
 10
-64.81961503673023
 20
56.76163373154682
 30
0.0
  0
VERTEX
  5
810
  8
LAYER_1
 10
-64.87302341852724
 20
56.67838803500678
 30
0.0
  0
VERTEX
  5
811
  8
LAYER_1
 10
-65.04859133541633
 20
56.44522961563362
 30
0.0
  0
VERTEX
  5
812
  8
LAYER_1
 10
-65.34941668634559
 20
56.03436770368481
 30
0.0
  0
VERTEX
  5
813
  8
LAYER_1
 10
-65.72359136223842
 20
55.47867439857461
 30
0.0
  0
VERTEX
  5
814
  8
LAYER_1
 10
-66.1499996483326
 20
54.81984358621318
 30
0.0
  0
VERTEX
  5
815
  8
LAYER_1
 10
-66.1499996483326
 20
54.76533574719016
 30
0.0
  0
VERTEX
  5
816
  8
LAYER_1
 10
-66.77692216600622
 20
53.73750511556864
 30
0.0
  0
VERTEX
  5
817
  8
LAYER_1
 10
-67.9243921771394
 20
51.33750502020121
 30
0.0
  0
VERTEX
  5
818
  8
LAYER_1
 10
-68.05920075210271
 20
50.96250500530005
 30
0.0
  0
VERTEX
  5
819
  8
LAYER_1
 10
-68.18329530465137
 20
50.63156749214977
 30
0.0
  0
VERTEX
  5
81A
  8
LAYER_1
 10
-68.29234463423475
 20
50.36250498145819
 30
0.0
  0
VERTEX
  5
81B
  8
LAYER_1
 10
-68.41157413957282
 20
50.05203087450831
 30
0.0
  0
VERTEX
  5
81C
  8
LAYER_1
 10
-68.5714305449327
 20
49.58553413828189
 30
0.0
  0
VERTEX
  5
81D
  8
LAYER_1
 10
-68.74684661083121
 20
49.03877280501716
 30
0.0
  0
VERTEX
  5
81E
  8
LAYER_1
 10
-68.91275509778521
 20
48.48750490695238
 30
0.0
  0
VERTEX
  5
81F
  8
LAYER_1
 10
-69.09876354151231
 20
47.82876801434197
 30
0.0
  0
VERTEX
  5
820
  8
LAYER_1
 10
-69.25629948714749
 20
47.23268744829915
 30
0.0
  0
VERTEX
  5
821
  8
LAYER_1
 10
-69.38947556458412
 20
46.67833495544402
 30
0.0
  0
VERTEX
  5
822
  8
LAYER_1
 10
-69.50240440371552
 20
46.14478228239671
 30
0.0
  0
VERTEX
  5
823
  8
LAYER_1
 10
-69.59919863443504
 20
45.61110117577732
 30
0.0
  0
VERTEX
  5
824
  8
LAYER_1
 10
-69.68397088663602
 20
45.05636338220598
 30
0.0
  0
VERTEX
  5
825
  8
LAYER_1
 10
-69.76083379021182
 20
44.45964064830279
 30
0.0
  0
VERTEX
  5
826
  8
LAYER_1
 10
-69.8338999750558
 20
43.80000472068787
 30
0.0
  0
VERTEX
  5
827
  8
LAYER_1
 10
-69.91573180283042
 20
43.01250468939543
 30
0.0
  0
VERTEX
  5
828
  8
LAYER_1
 10
-69.9189453896538
 20
39.03750453144312
 30
0.0
  0
VERTEX
  5
829
  8
LAYER_1
 10
-69.8380263008978
 20
38.36250450462103
 30
0.0
  0
VERTEX
  5
82A
  8
LAYER_1
 10
-69.70620723509965
 20
37.29507604735944
 30
0.0
  0
VERTEX
  5
82B
  8
LAYER_1
 10
-69.5986456762713
 20
36.55995349568283
 30
0.0
  0
VERTEX
  5
82C
  8
LAYER_1
 10
-69.47397031033768
 20
35.91048141606531
 30
0.0
  0
VERTEX
  5
82D
  8
LAYER_1
 10
-69.29080982322373
 20
35.10000437498093
 30
0.0
  0
VERTEX
  5
82E
  8
LAYER_1
 10
-69.1924083312091
 20
34.70376262128951
 30
0.0
  0
VERTEX
  5
82F
  8
LAYER_1
 10
-69.06829031697902
 20
34.24452678426991
 30
0.0
  0
VERTEX
  5
830
  8
LAYER_1
 10
-68.78144236093195
 20
33.26321828168753
 30
0.0
  0
VERTEX
  5
831
  8
LAYER_1
 10
-68.50734123320152
 20
32.40836971011645
 30
0.0
  0
VERTEX
  5
832
  8
LAYER_1
 10
-68.3991567543672
 20
32.10720878686098
 30
0.0
  0
VERTEX
  5
833
  8
LAYER_1
 10
-68.32306221190666
 20
31.93227191243933
 30
0.0
  0
VERTEX
  5
834
  8
LAYER_1
 10
-68.27071428433008
 20
31.81245731880311
 30
0.0
  0
VERTEX
  5
835
  8
LAYER_1
 10
-68.24745487735701
 20
31.70727190349864
 30
0.0
  0
VERTEX
  5
836
  8
LAYER_1
 10
-68.2350324299691
 20
31.64680351931741
 30
0.0
  0
VERTEX
  5
837
  8
LAYER_1
 10
-68.2030901741435
 20
31.55221723510854
 30
0.0
  0
VERTEX
  5
838
  8
LAYER_1
 10
-68.09999972581863
 20
31.3125042244792
 30
0.0
  0
VERTEX
  5
839
  8
LAYER_1
 10
-67.99690927749377
 20
31.08571471258471
 30
0.0
  0
VERTEX
  5
83A
  8
LAYER_1
 10
-67.95254457428025
 20
30.9617314347699
 30
0.0
  0
VERTEX
  5
83B
  8
LAYER_1
 10
-67.94999971985817
 20
30.91095865698152
 30
0.0
  0
VERTEX
  5
83C
  8
LAYER_1
 10
-67.67912149534597
 20
30.32423140943793
 30
0.0
  0
VERTEX
  5
83D
  8
LAYER_1
 10
-67.28098951180304
 20
29.48752268202005
 30
0.0
  0
VERTEX
  5
83E
  8
LAYER_1
 10
-66.8924552670522
 20
28.71653576863019
 30
0.0
  0
VERTEX
  5
83F
  8
LAYER_1
 10
-66.55293547171327
 20
28.08708984326921
 30
0.0
  0
VERTEX
  5
840
  8
LAYER_1
 10
-66.41387371464198
 20
27.84913824297481
 30
0.0
  0
VERTEX
  5
841
  8
LAYER_1
 10
-66.30184683640611
 20
27.67500407993793
 30
0.0
  0
VERTEX
  5
842
  8
LAYER_1
 10
-66.14076057067982
 20
27.41775202144221
 30
0.0
  0
VERTEX
  5
843
  8
LAYER_1
 10
-65.93686902549088
 20
27.06255027424478
 30
0.0
  0
VERTEX
  5
844
  8
LAYER_1
 10
-65.81276733375758
 20
26.85118761161384
 30
0.0
  0
VERTEX
  5
845
  8
LAYER_1
 10
-65.64812367502925
 20
26.58983494565123
 30
0.0
  0
VERTEX
  5
846
  8
LAYER_1
 10
-65.46439223431554
 20
26.31171493392712
 30
0.0
  0
VERTEX
  5
847
  8
LAYER_1
 10
-65.28302719662607
 20
26.05005023401165
 30
0.0
  0
VERTEX
  5
848
  8
LAYER_1
 10
-64.73802952384207
 20
25.28544340830831
 30
0.0
  0
VERTEX
  5
849
  8
LAYER_1
 10
-64.62648388584867
 20
25.13529653946274
 30
0.0
  0
VERTEX
  5
84A
  8
LAYER_1
 10
-64.53457577356407
 20
25.0229433978775
 30
0.0
  0
VERTEX
  5
84B
  8
LAYER_1
 10
-64.19707576015303
 20
24.59620525367396
 30
0.0
  0
VERTEX
  5
84C
  8
LAYER_1
 10
-63.90359381471136
 20
24.22577755571449
 30
0.0
  0
VERTEX
  5
84D
  8
LAYER_1
 10
-63.56249954551458
 20
23.81444533198305
 30
0.0
  0
VERTEX
  5
84E
  8
LAYER_1
 10
-63.18749953061342
 20
23.37398412777763
 30
0.0
  0
VERTEX
  5
84F
  8
LAYER_1
 10
-61.38749945908785
 20
21.55675600667679
 30
0.0
  0
VERTEX
  5
850
  8
LAYER_1
 10
-60.93749944120646
 20
21.17572993493638
 30
0.0
  0
VERTEX
  5
851
  8
LAYER_1
 10
-59.96977359677695
 20
20.3620863393746
 30
0.0
  0
VERTEX
  5
852
  8
LAYER_1
 10
-59.76029947368789
 20
20.19505310162279
 30
0.0
  0
VERTEX
  5
853
  8
LAYER_1
 10
-59.62667077406424
 20
20.10000377893448
 30
0.0
  0
VERTEX
  5
854
  8
LAYER_1
 10
-59.4817328044016
 20
19.99834660626776
 30
0.0
  0
VERTEX
  5
855
  8
LAYER_1
 10
-59.37205967103667
 20
19.91191553783591
 30
0.0
  0
VERTEX
  5
856
  8
LAYER_1
 10
-59.12538943250087
 20
19.72441553038533
 30
0.0
  0
VERTEX
  5
857
  8
LAYER_1
 10
-58.40762316132162
 20
19.22620324120246
 30
0.0
  0
VERTEX
  5
858
  8
LAYER_1
 10
-57.77025490921952
 20
18.80798707959229
 30
0.0
  0
VERTEX
  5
859
  8
LAYER_1
 10
-57.01814225311357
 20
18.34495320618473
 30
0.0
  0
VERTEX
  5
85A
  8
LAYER_1
 10
-56.18431767294429
 20
17.85000368952751
 30
0.0
  0
VERTEX
  5
85B
  8
LAYER_1
 10
-56.14936343367764
 20
17.85000368952751
 30
0.0
  0
VERTEX
  5
85C
  8
LAYER_1
 10
-55.99588084892681
 20
17.77778145017973
 30
0.0
  0
VERTEX
  5
85D
  8
LAYER_1
 10
-55.6759542045599
 20
17.60414074706698
 30
0.0
  0
VERTEX
  5
85E
  8
LAYER_1
 10
-55.30673540179129
 20
17.40850001751932
 30
0.0
  0
VERTEX
  5
85F
  8
LAYER_1
 10
-54.84249253015329
 20
17.18420410573678
 30
0.0
  0
VERTEX
  5
860
  8
LAYER_1
 10
-54.25411673111948
 20
16.91767999521367
 30
0.0
  0
VERTEX
  5
861
  8
LAYER_1
 10
-53.51249914616346
 20
16.5953546694443
 30
0.0
  0
VERTEX
  5
862
  8
LAYER_1
 10
-52.91249912232161
 20
16.33827105955736
 30
0.0
  0
VERTEX
  5
863
  8
LAYER_1
 10
-50.58749902993441
 20
15.59676362888783
 30
0.0
  0
VERTEX
  5
864
  8
LAYER_1
 10
-50.13749901205301
 20
15.45437881547824
 30
0.0
  0
VERTEX
  5
865
  8
LAYER_1
 10
-48.18749893456697
 20
15.0138538319288
 30
0.0
  0
VERTEX
  5
866
  8
LAYER_1
 10
-47.73749891668558
 20
14.96484149316709
 30
0.0
  0
VERTEX
  5
867
  8
LAYER_1
 10
-47.32054577511735
 20
14.90873601632381
 30
0.0
  0
VERTEX
  5
868
  8
LAYER_1
 10
-46.94999888539314
 20
14.84266996260008
 30
0.0
  0
SEQEND
  5
CFF
  8
LAYER_1
  0
POLYLINE
  5
77
  8
LAYER_1
 66
     1
 10
0.0
 20
0.0
 30
0.0
 70
     1
  0
VERTEX
  5
869
  8
LAYER_1
 10
35.82628969705119
 20
14.80866446121571
 30
0.0
  0
VERTEX
  5
86A
  8
LAYER_1
 10
36.07249134350461
 20
14.73626672209116
 30
0.0
  0
VERTEX
  5
86B
  8
LAYER_1
 10
36.18167810125515
 20
14.71400502689534
 30
0.0
  0
VERTEX
  5
86C
  8
LAYER_1
 10
36.26250442117453
 20
14.70554620498714
 30
0.0
  0
VERTEX
  5
86D
  8
LAYER_1
 10
36.41250442713499
 20
14.70450492174626
 30
0.0
  0
VERTEX
  5
86E
  8
LAYER_1
 10
37.72500447928905
 20
14.81385677774846
 30
0.0
  0
VERTEX
  5
86F
  8
LAYER_1
 10
40.12500457465649
 20
15.00020101261192
 30
0.0
  0
VERTEX
  5
870
  8
LAYER_1
 10
42.15000465512276
 20
15.15335280680854
 30
0.0
  0
VERTEX
  5
871
  8
LAYER_1
 10
43.08750469237566
 20
15.22951222214387
 30
0.0
  0
VERTEX
  5
872
  8
LAYER_1
 10
46.38750482350588
 20
15.45011354615376
 30
0.0
  0
VERTEX
  5
873
  8
LAYER_1
 10
48.56250490993261
 20
15.6023264708337
 30
0.0
  0
VERTEX
  5
874
  8
LAYER_1
 10
54.1125051304698
 20
15.97011318829026
 30
0.0
  0
VERTEX
  5
875
  8
LAYER_1
 10
55.35000517964363
 20
16.05608505126042
 30
0.0
  0
VERTEX
  5
876
  8
LAYER_1
 10
55.84012361111273
 20
16.08403311145837
 30
0.0
  0
VERTEX
  5
877
  8
LAYER_1
 10
56.34012118558827
 20
16.1009042197796
 30
0.0
  0
VERTEX
  5
878
  8
LAYER_1
 10
56.84267534404469
 20
16.10684939602249
 30
0.0
  0
VERTEX
  5
879
  8
LAYER_1
 10
57.34046352745644
 20
16.1020196599854
 30
0.0
  0
VERTEX
  5
87A
  8
LAYER_1
 10
57.82616317679793
 20
16.0865660314667
 30
0.0
  0
VERTEX
  5
87B
  8
LAYER_1
 10
58.29245173304363
 20
16.06063953026474
 30
0.0
  0
VERTEX
  5
87C
  8
LAYER_1
 10
58.73200663716796
 20
16.0243911761779
 30
0.0
  0
VERTEX
  5
87D
  8
LAYER_1
 10
59.13750533014536
 20
15.97797198900454
 30
0.0
  0
VERTEX
  5
87E
  8
LAYER_1
 10
59.73750535398722
 20
15.89799742552843
 30
0.0
  0
VERTEX
  5
87F
  8
LAYER_1
 10
63.1875054910779
 20
15.57969542765908
 30
0.0
  0
VERTEX
  5
880
  8
LAYER_1
 10
63.71624595080652
 20
15.54490997099229
 30
0.0
  0
VERTEX
  5
881
  8
LAYER_1
 10
63.96583414698279
 20
15.53848531712434
 30
0.0
  0
VERTEX
  5
882
  8
LAYER_1
 10
64.19057416011842
 20
15.55444377378663
 30
0.0
  0
VERTEX
  5
883
  8
LAYER_1
 10
64.39270175340258
 20
15.59377407610323
 30
0.0
  0
VERTEX
  5
884
  8
LAYER_1
 10
64.57445269002447
 20
15.65746495919822
 30
0.0
  0
VERTEX
  5
885
  8
LAYER_1
 10
64.6583855880837
 20
15.69875459826389
 30
0.0
  0
VERTEX
  5
886
  8
LAYER_1
 10
64.7380627331733
 20
15.74650515819569
 30
0.0
  0
VERTEX
  5
887
  8
LAYER_1
 10
64.81376359569191
 20
15.80084023088414
 30
0.0
  0
VERTEX
  5
888
  8
LAYER_1
 10
64.8857676460382
 20
15.86188340821973
 30
0.0
  0
VERTEX
  5
889
  8
LAYER_1
 10
65.01980319180839
 20
16.00458844439441
 30
0.0
  0
VERTEX
  5
88A
  8
LAYER_1
 10
65.14240513367307
 20
16.17560900184381
 30
0.0
  0
VERTEX
  5
88B
  8
LAYER_1
 10
65.36250557750463
 20
16.5227163169686
 30
0.0
  0
VERTEX
  5
88C
  8
LAYER_1
 10
65.48727247870733
 20
17.84261002932509
 30
0.0
  0
VERTEX
  5
88D
  8
LAYER_1
 10
65.76734333059906
 20
20.81250380724669
 30
0.0
  0
VERTEX
  5
88E
  8
LAYER_1
 10
65.9226472812881
 20
22.46250387281179
 30
0.0
  0
VERTEX
  5
88F
  8
LAYER_1
 10
65.99539276511533
 20
22.9500038921833
 30
0.0
  0
VERTEX
  5
890
  8
LAYER_1
 10
66.06131195703554
 20
23.50359766418114
 30
0.0
  0
VERTEX
  5
891
  8
LAYER_1
 10
66.11764529223535
 20
24.15000393986702
 30
0.0
  0
VERTEX
  5
892
  8
LAYER_1
 10
66.16715233552816
 20
24.86250396817923
 30
0.0
  0
VERTEX
  5
893
  8
LAYER_1
 10
66.20477271691163
 20
25.08750397711992
 30
0.0
  0
VERTEX
  5
894
  8
LAYER_1
 10
66.29079782089897
 20
25.83750400692225
 30
0.0
  0
VERTEX
  5
895
  8
LAYER_1
 10
66.46438636596096
 20
27.49228588918447
 30
0.0
  0
VERTEX
  5
896
  8
LAYER_1
 10
66.75300616716967
 20
30.48750419169664
 30
0.0
  0
VERTEX
  5
897
  8
LAYER_1
 10
66.90215219759057
 20
32.06250425428152
 30
0.0
  0
VERTEX
  5
898
  8
LAYER_1
 10
66.93643440340975
 20
32.28750426322222
 30
0.0
  0
VERTEX
  5
899
  8
LAYER_1
 10
66.97318247252889
 20
32.61164490110241
 30
0.0
  0
VERTEX
  5
89A
  8
LAYER_1
 10
67.0133932433032
 20
33.07500429451466
 30
0.0
  0
VERTEX
  5
89B
  8
LAYER_1
 10
67.07426510452382
 20
33.72562932036817
 30
0.0
  0
VERTEX
  5
89C
  8
LAYER_1
 10
67.16068771024786
 20
34.50000435113907
 30
0.0
  0
VERTEX
  5
89D
  8
LAYER_1
 10
67.24751705039964
 20
35.26336375647224
 30
0.0
  0
VERTEX
  5
89E
  8
LAYER_1
 10
67.30936680503152
 20
35.88750440627337
 30
0.0
  0
VERTEX
  5
89F
  8
LAYER_1
 10
67.35342806694473
 20
36.41250442713499
 30
0.0
  0
VERTEX
  5
8A0
  8
LAYER_1
 10
67.50035793323835
 20
37.91250448673964
 30
0.0
  0
VERTEX
  5
8A1
  8
LAYER_1
 10
67.63756036962243
 20
39.25828579021618
 30
0.0
  0
VERTEX
  5
8A2
  8
LAYER_1
 10
67.76110301081442
 20
40.3875045850873
 30
0.0
  0
VERTEX
  5
8A3
  8
LAYER_1
 10
67.86563773059167
 20
41.41758275101893
 30
0.0
  0
VERTEX
  5
8A4
  8
LAYER_1
 10
67.95714027080845
 20
42.52500467002392
 30
0.0
  0
VERTEX
  5
8A5
  8
LAYER_1
 10
68.03936231952005
 20
43.68750471621752
 30
0.0
  0
VERTEX
  5
8A6
  8
LAYER_1
 10
68.12403480076705
 20
43.82456091865137
 30
0.0
  0
VERTEX
  5
8A7
  8
LAYER_1
 10
68.39629502640992
 20
46.76250483840704
 30
0.0
  0
VERTEX
  5
8A8
  8
LAYER_1
 10
68.44267204865503
 20
47.10000485181808
 30
0.0
  0
VERTEX
  5
8A9
  8
LAYER_1
 10
68.45044724977836
 20
47.19039306861868
 30
0.0
  0
VERTEX
  5
8AA
  8
LAYER_1
 10
68.44962748354958
 20
47.28340088169203
 30
0.0
  0
VERTEX
  5
8AB
  8
LAYER_1
 10
68.42379343646945
 20
47.47418819706
 30
0.0
  0
VERTEX
  5
8AC
  8
LAYER_1
 10
68.36835068228227
 20
47.66619259872781
 30
0.0
  0
VERTEX
  5
8AD
  8
LAYER_1
 10
68.28647999585561
 20
47.85323988750129
 30
0.0
  0
VERTEX
  5
8AE
  8
LAYER_1
 10
68.18136215205712
 20
48.02915586418627
 30
0.0
  0
VERTEX
  5
8AF
  8
LAYER_1
 10
68.05617792575437
 20
48.18776632958859
 30
0.0
  0
VERTEX
  5
8B0
  8
LAYER_1
 10
67.98705491131004
 20
48.25865255831057
 30
0.0
  0
VERTEX
  5
8B1
  8
LAYER_1
 10
67.914108091815
 20
48.32289708451408
 30
0.0
  0
VERTEX
  5
8B2
  8
LAYER_1
 10
67.83773506412768
 20
48.37972813329983
 30
0.0
  0
VERTEX
  5
8B3
  8
LAYER_1
 10
67.75833342510657
 20
48.42837392976855
 30
0.0
  0
VERTEX
  5
8B4
  8
LAYER_1
 10
67.45416116542012
 20
48.59516049213939
 30
0.0
  0
VERTEX
  5
8B5
  8
LAYER_1
 10
66.48333337444262
 20
48.70711425247364
 30
0.0
  0
VERTEX
  5
8B6
  8
LAYER_1
 10
64.68750555068254
 20
48.90019612739353
 30
0.0
  0
VERTEX
  5
8B7
  8
LAYER_1
 10
63.31116247091746
 20
49.03696399084041
 30
0.0
  0
VERTEX
  5
8B8
  8
LAYER_1
 10
62.43750546127558
 20
49.13065672729643
 30
0.0
  0
VERTEX
  5
8B9
  8
LAYER_1
 10
60.75000539422035
 20
49.31329356901267
 30
0.0
  0
VERTEX
  5
8BA
  8
LAYER_1
 10
59.73750535398722
 20
49.42588746323257
 30
0.0
  0
VERTEX
  5
8BB
  8
LAYER_1
 10
58.65000531077385
 20
49.53856993480875
 30
0.0
  0
VERTEX
  5
8BC
  8
LAYER_1
 10
58.26164592034183
 20
49.57831502976381
 30
0.0
  0
VERTEX
  5
8BD
  8
LAYER_1
 10
58.01250528544188
 20
49.61224512840965
 30
0.0
  0
VERTEX
  5
8BE
  8
LAYER_1
 10
57.75843446745073
 20
49.64560617216043
 30
0.0
  0
VERTEX
  5
8BF
  8
LAYER_1
 10
57.35822165809736
 20
49.68398311385712
 30
0.0
  0
VERTEX
  5
8C0
  8
LAYER_1
 10
56.85393803671334
 20
49.72593198287895
 30
0.0
  0
VERTEX
  5
8C1
  8
LAYER_1
 10
54.26250513643026
 20
50.01579690399156
 30
0.0
  0
VERTEX
  5
8C2
  8
LAYER_1
 10
53.51250510662794
 20
50.08764206885127
 30
0.0
  0
VERTEX
  5
8C3
  8
LAYER_1
 10
48.78750491887331
 20
50.62502679181577
 30
0.0
  0
VERTEX
  5
8C4
  8
LAYER_1
 10
48.22500489652157
 20
50.69597607937042
 30
0.0
  0
VERTEX
  5
8C5
  8
LAYER_1
 10
47.02198659592986
 20
50.84365026215534
 30
0.0
  0
VERTEX
  5
8C6
  8
LAYER_1
 10
46.6296063296046
 20
50.8850399979714
 30
0.0
  0
VERTEX
  5
8C7
  8
LAYER_1
 10
46.34192417131901
 20
50.90649250100246
 30
0.0
  0
VERTEX
  5
8C8
  8
LAYER_1
 10
46.13289926011757
 20
50.909278524448
 30
0.0
  0
VERTEX
  5
8C9
  8
LAYER_1
 10
45.97649073504474
 20
50.89466882150745
 30
0.0
  0
VERTEX
  5
8CA
  8
LAYER_1
 10
45.84665773514499
 20
50.86393414538028
 30
0.0
  0
VERTEX
  5
8CB
  8
LAYER_1
 10
45.71735939946279
 20
50.81834524926596
 30
0.0
  0
VERTEX
  5
8CC
  8
LAYER_1
 10
45.59028406155778
 20
50.76600167161517
 30
0.0
  0
VERTEX
  5
8CD
  8
LAYER_1
 10
45.47158206026462
 20
50.70911648994922
 30
0.0
  0
VERTEX
  5
8CE
  8
LAYER_1
 10
45.36107683128423
 20
50.64745234804553
 30
0.0
  0
VERTEX
  5
8CF
  8
LAYER_1
 10
45.2585918103175
 20
50.58077188968157
 30
0.0
  0
VERTEX
  5
8D0
  8
LAYER_1
 10
45.16395043306537
 20
50.50883775863477
 30
0.0
  0
VERTEX
  5
8D1
  8
LAYER_1
 10
45.0769761352287
 20
50.43141259868257
 30
0.0
  0
VERTEX
  5
8D2
  8
LAYER_1
 10
44.99749235250846
 20
50.34825905360243
 30
0.0
  0
VERTEX
  5
8D3
  8
LAYER_1
 10
44.92532252060552
 20
50.25913976717177
 30
0.0
  0
VERTEX
  5
8D4
  8
LAYER_1
 10
44.8602900752208
 20
50.16381738316806
 30
0.0
  0
VERTEX
  5
8D5
  8
LAYER_1
 10
44.80221845205522
 20
50.06205454536872
 30
0.0
  0
VERTEX
  5
8D6
  8
LAYER_1
 10
44.75093108680968
 20
49.95361389755119
 30
0.0
  0
VERTEX
  5
8D7
  8
LAYER_1
 10
44.70625141518509
 20
49.83825808349294
 30
0.0
  0
VERTEX
  5
8D8
  8
LAYER_1
 10
44.66800287288237
 20
49.71574974697139
 30
0.0
  0
VERTEX
  5
8D9
  8
LAYER_1
 10
44.63600889560243
 20
49.58585153176399
 30
0.0
  0
VERTEX
  5
8DA
  8
LAYER_1
 10
44.5900783789145
 20
49.30293604040143
 30
0.0
  0
VERTEX
  5
8DB
  8
LAYER_1
 10
44.53740787476748
 20
48.84336712318651
 30
0.0
  0
VERTEX
  5
8DC
  8
LAYER_1
 10
43.23750469833612
 20
48.74682534640415
 30
0.0
  0
VERTEX
  5
8DD
  8
LAYER_1
 10
41.13750461488962
 20
48.63875796753764
 30
0.0
  0
VERTEX
  5
8DE
  8
LAYER_1
 10
39.08156703319401
 20
48.53828334434606
 30
0.0
  0
VERTEX
  5
8DF
  8
LAYER_1
 10
37.08750445395708
 20
48.44847088869793
 30
0.0
  0
VERTEX
  5
8E0
  8
LAYER_1
 10
35.13750437647104
 20
48.3662511887247
 30
0.0
  0
VERTEX
  5
8E1
  8
LAYER_1
 10
34.50671861737126
 20
48.29762963997469
 30
0.0
  0
VERTEX
  5
8E2
  8
LAYER_1
 10
34.24066422663483
 20
48.26100469943331
 30
0.0
  0
VERTEX
  5
8E3
  8
LAYER_1
 10
34.00945835316596
 20
48.21140311301558
 30
0.0
  0
VERTEX
  5
8E4
  8
LAYER_1
 10
33.80852703324874
 20
48.1462204200344
 30
0.0
  0
VERTEX
  5
8E5
  8
LAYER_1
 10
33.63329630316726
 20
48.06285215980269
 30
0.0
  0
VERTEX
  5
8E6
  8
LAYER_1
 10
33.47919219920558
 20
47.95869387163332
 30
0.0
  0
VERTEX
  5
8E7
  8
LAYER_1
 10
33.34164075764784
 20
47.83114109483923
 30
0.0
  0
VERTEX
  5
8E8
  8
LAYER_1
 10
33.21606801477807
 20
47.67758936873329
 30
0.0
  0
VERTEX
  5
8E9
  8
LAYER_1
 10
33.09790000688041
 20
47.49543423262843
 30
0.0
  0
VERTEX
  5
8EA
  8
LAYER_1
 10
33.03064179906576
 20
47.3778436231427
 30
0.0
  0
VERTEX
  5
8EB
  8
LAYER_1
 10
32.97979377116761
 20
47.27530180162074
 30
0.0
  0
VERTEX
  5
8EC
  8
LAYER_1
 10
32.94336042212712
 20
47.17462000730931
 30
0.0
  0
VERTEX
  5
8ED
  8
LAYER_1
 10
32.91934625088546
 20
47.06260947945513
 30
0.0
  0
VERTEX
  5
8EE
  8
LAYER_1
 10
32.9057557563838
 20
46.92608145730492
 30
0.0
  0
VERTEX
  5
8EF
  8
LAYER_1
 10
32.90059343756327
 20
46.75184718010541
 30
0.0
  0
VERTEX
  5
8F0
  8
LAYER_1
 10
32.90757132273035
 20
46.23750481754541
 30
0.0
  0
VERTEX
  5
8F1
  8
LAYER_1
 10
32.92763835839665
 20
45.33750478178263
 30
0.0
  0
VERTEX
  5
8F2
  8
LAYER_1
 10
33.04005535131505
 20
43.68750471621752
 30
0.0
  0
VERTEX
  5
8F3
  8
LAYER_1
 10
33.22788457465376
 20
40.72500459849834
 30
0.0
  0
VERTEX
  5
8F4
  8
LAYER_1
 10
33.30329680507404
 20
39.41250454634428
 30
0.0
  0
VERTEX
  5
8F5
  8
LAYER_1
 10
33.60576553850872
 20
34.46250434964895
 30
0.0
  0
VERTEX
  5
8F6
  8
LAYER_1
 10
33.82680605608141
 20
30.93750420957804
 30
0.0
  0
VERTEX
  5
8F7
  8
LAYER_1
 10
34.015681878777
 20
27.8250040858984
 30
0.0
  0
VERTEX
  5
8F8
  8
LAYER_1
 10
34.38662544083755
 20
21.71250384300947
 30
0.0
  0
VERTEX
  5
8F9
  8
LAYER_1
 10
34.5686931802025
 20
18.71250372380018
 30
0.0
  0
VERTEX
  5
8FA
  8
LAYER_1
 10
34.73945306810106
 20
15.93750361353159
 30
0.0
  0
VERTEX
  5
8FB
  8
LAYER_1
 10
34.84734461668644
 20
15.71250360459089
 30
0.0
  0
VERTEX
  5
8FC
  8
LAYER_1
 10
34.93068114571665
 20
15.55802676205258
 30
0.0
  0
VERTEX
  5
8FD
  8
LAYER_1
 10
35.02744004092236
 20
15.41330990616634
 30
0.0
  0
VERTEX
  5
8FE
  8
LAYER_1
 10
35.13648606293232
 20
15.27940117926561
 30
0.0
  0
VERTEX
  5
8FF
  8
LAYER_1
 10
35.25668397237524
 20
15.15734872368387
 30
0.0
  0
VERTEX
  5
900
  8
LAYER_1
 10
35.38689852987986
 20
15.04820068175455
 30
0.0
  0
VERTEX
  5
901
  8
LAYER_1
 10
35.52599449607492
 20
14.95300519581112
 30
0.0
  0
VERTEX
  5
902
  8
LAYER_1
 10
35.67283663158911
 20
14.87281040818702
 30
0.0
  0
SEQEND
  5
D00
  8
LAYER_1
  0
POLYLINE
  5
78
  8
LAYER_1
 66
     1
 10
0.0
 20
0.0
 30
0.0
 70
     1
  0
VERTEX
  5
903
  8
LAYER_1
 10
-42.03749869018793
 20
17.94411716188458
 30
0.0
  0
VERTEX
  5
904
  8
LAYER_1
 10
-41.54999867081642
 20
18.00857567756604
 30
0.0
  0
VERTEX
  5
905
  8
LAYER_1
 10
-40.38749862462282
 20
18.15143344070103
 30
0.0
  0
VERTEX
  5
906
  8
LAYER_1
 10
-39.66435228097973
 20
18.2465016061749
 30
0.0
  0
VERTEX
  5
907
  8
LAYER_1
 10
-39.39799070519098
 20
18.29216677396455
 30
0.0
  0
VERTEX
  5
908
  8
LAYER_1
 10
-39.18949351932253
 20
18.33802156569602
 30
0.0
  0
VERTEX
  5
909
  8
LAYER_1
 10
-39.03465321779818
 20
18.38514265679932
 30
0.0
  0
VERTEX
  5
90A
  8
LAYER_1
 10
-38.92926229504177
 20
18.43460672270446
 30
0.0
  0
VERTEX
  5
90B
  8
LAYER_1
 10
-38.89379550520899
 20
18.4605538322796
 30
0.0
  0
VERTEX
  5
90C
  8
LAYER_1
 10
-38.86911324547712
 20
18.48749043884146
 30
0.0
  0
VERTEX
  5
90D
  8
LAYER_1
 10
-38.85468957764915
 20
18.51555112681878
 30
0.0
  0
VERTEX
  5
90E
  8
LAYER_1
 10
-38.84999856352806
 20
18.54487048064031
 30
0.0
  0
VERTEX
  5
90F
  8
LAYER_1
 10
-38.84999856352806
 20
18.68472578899262
 30
0.0
  0
VERTEX
  5
910
  8
LAYER_1
 10
-39.03418731141443
 20
19.41111478470862
 30
0.0
  0
VERTEX
  5
911
  8
LAYER_1
 10
-39.4404559316193
 20
21.0750038176775
 30
0.0
  0
VERTEX
  5
912
  8
LAYER_1
 10
-40.6089393238813
 20
25.98750401288271
 30
0.0
  0
VERTEX
  5
913
  8
LAYER_1
 10
-41.28054261287839
 20
28.83750412613153
 30
0.0
  0
VERTEX
  5
914
  8
LAYER_1
 10
-41.62951981886837
 20
30.33750418573618
 30
0.0
  0
VERTEX
  5
915
  8
LAYER_1
 10
-41.69790302920257
 20
30.56250419467688
 30
0.0
  0
VERTEX
  5
916
  8
LAYER_1
 10
-41.79282402958693
 20
30.93070733430795
 30
0.0
  0
VERTEX
  5
917
  8
LAYER_1
 10
-41.92501086280772
 20
31.50000423192978
 30
0.0
  0
VERTEX
  5
918
  8
LAYER_1
 10
-42.19834207574439
 20
32.66250427812338
 30
0.0
  0
VERTEX
  5
919
  8
LAYER_1
 10
-42.4147990365047
 20
33.54969573923115
 30
0.0
  0
VERTEX
  5
91A
  8
LAYER_1
 10
-42.63877338378273
 20
34.53110453612427
 30
0.0
  0
VERTEX
  5
91B
  8
LAYER_1
 10
-42.69650549768296
 20
34.75263302417503
 30
0.0
  0
VERTEX
  5
91C
  8
LAYER_1
 10
-42.78141024700199
 20
35.02788088733034
 30
0.0
  0
VERTEX
  5
91D
  8
LAYER_1
 10
-42.88206049136635
 20
35.32179697329817
 30
0.0
  0
VERTEX
  5
91E
  8
LAYER_1
 10
-42.98702909040257
 20
35.59933012978647
 30
0.0
  0
VERTEX
  5
91F
  8
LAYER_1
 10
-43.12838627944872
 20
35.93753556254177
 30
0.0
  0
VERTEX
  5
920
  8
LAYER_1
 10
-43.1823816388067
 20
36.04762301078132
 30
0.0
  0
VERTEX
  5
921
  8
LAYER_1
 10
-43.23052893012535
 20
36.12558602693815
 30
0.0
  0
VERTEX
  5
922
  8
LAYER_1
 10
-43.27678371995768
 20
36.17683892101927
 30
0.0
  0
VERTEX
  5
923
  8
LAYER_1
 10
-43.32510157485676
 20
36.20679600303166
 30
0.0
  0
VERTEX
  5
924
  8
LAYER_1
 10
-43.37943806137562
 20
36.22087158298234
 30
0.0
  0
VERTEX
  5
925
  8
LAYER_1
 10
-43.44374874606729
 20
36.22447997087831
 30
0.0
  0
VERTEX
  5
926
  8
LAYER_1
 10
-43.53778643658975
 20
36.21731713236738
 30
0.0
  0
VERTEX
  5
927
  8
LAYER_1
 10
-43.60190180352847
 20
36.19420597232967
 30
0.0
  0
VERTEX
  5
928
  8
LAYER_1
 10
-43.62352730653242
 20
36.17617100039413
 30
0.0
  0
VERTEX
  5
929
  8
LAYER_1
 10
-43.63861865769464
 20
36.15355042246395
 30
0.0
  0
VERTEX
  5
92A
  8
LAYER_1
 10
-43.65046080989941
 20
36.093754414469
 30
0.0
  0
VERTEX
  5
92B
  8
LAYER_1
 10
-43.66012445428717
 20
36.02503859142598
 30
0.0
  0
VERTEX
  5
92C
  8
LAYER_1
 10
-43.68609479069977
 20
35.93496534565929
 30
0.0
  0
VERTEX
  5
92D
  8
LAYER_1
 10
-43.72441271786138
 20
35.83522413075843
 30
0.0
  0
VERTEX
  5
92E
  8
LAYER_1
 10
-43.77111913449619
 20
35.7375044003129
 30
0.0
  0
VERTEX
  5
92F
  8
LAYER_1
 10
-43.88416399593703
 20
35.50049875594937
 30
0.0
  0
VERTEX
  5
930
  8
LAYER_1
 10
-43.97608834614218
 20
35.24098417029754
 30
0.0
  0
VERTEX
  5
931
  8
LAYER_1
 10
-44.05849298875732
 20
34.92035468735994
 30
0.0
  0
VERTEX
  5
932
  8
LAYER_1
 10
-44.1429787274281
 20
34.50000435113907
 30
0.0
  0
VERTEX
  5
933
  8
LAYER_1
 10
-44.28285660569991
 20
33.78204303417675
 30
0.0
  0
VERTEX
  5
934
  8
LAYER_1
 10
-44.51070654590538
 20
32.73750428110361
 30
0.0
  0
VERTEX
  5
935
  8
LAYER_1
 10
-44.73394191084857
 20
31.68750423938036
 30
0.0
  0
VERTEX
  5
936
  8
LAYER_1
 10
-44.840670899251
 20
31.16250421851873
 30
0.0
  0
VERTEX
  5
937
  8
LAYER_1
 10
-45.46471597625634
 20
28.23750410228968
 30
0.0
  0
VERTEX
  5
938
  8
LAYER_1
 10
-45.6551962443632
 20
27.26250406354666
 30
0.0
  0
VERTEX
  5
939
  8
LAYER_1
 10
-46.35317178392277
 20
23.88750392943621
 30
0.0
  0
VERTEX
  5
93A
  8
LAYER_1
 10
-46.46116996621961
 20
23.43750391155481
 30
0.0
  0
VERTEX
  5
93B
  8
LAYER_1
 10
-46.5602713641426
 20
22.99851951911114
 30
0.0
  0
VERTEX
  5
93C
  8
LAYER_1
 10
-46.6468794052853
 20
22.57500387728214
 30
0.0
  0
VERTEX
  5
93D
  8
LAYER_1
 10
-46.83653653874768
 20
21.63750384002924
 30
0.0
  0
VERTEX
  5
93E
  8
LAYER_1
 10
-47.05923566053053
 20
20.51250379532576
 30
0.0
  0
VERTEX
  5
93F
  8
LAYER_1
 10
-47.19053998310478
 20
19.85153135712628
 30
0.0
  0
VERTEX
  5
940
  8
LAYER_1
 10
-47.35070326555147
 20
19.10493808174375
 30
0.0
  0
VERTEX
  5
941
  8
LAYER_1
 10
-47.5314176254831
 20
18.29737239200364
 30
0.0
  0
VERTEX
  5
942
  8
LAYER_1
 10
-47.43749890476465
 20
18.23995503735055
 30
0.0
  0
VERTEX
  5
943
  8
LAYER_1
 10
-46.68749887496233
 20
18.15412765027295
 30
0.0
  0
VERTEX
  5
944
  8
LAYER_1
 10
-45.33749882131815
 20
17.9965562622788
 30
0.0
  0
VERTEX
  5
945
  8
LAYER_1
 10
-44.73749879747629
 20
17.92481226136223
 30
0.0
  0
SEQEND
  5
D01
  8
LAYER_1
  0
POLYLINE
  5
79
  8
LAYER_1
 66
     1
 10
0.0
 20
0.0
 30
0.0
 70
     1
  0
VERTEX
  5
946
  8
LAYER_1
 10
-48.89999896287918
 20
18.55435192403331
 30
0.0
  0
VERTEX
  5
947
  8
LAYER_1
 10
-48.89999896287918
 20
18.5889776956999
 30
0.0
  0
VERTEX
  5
948
  8
LAYER_1
 10
-48.74254560332933
 20
19.36324073806225
 30
0.0
  0
VERTEX
  5
949
  8
LAYER_1
 10
-48.48194748651913
 20
20.6250037997961
 30
0.0
  0
VERTEX
  5
94A
  8
LAYER_1
 10
-48.19806588937527
 20
21.97500385344028
 30
0.0
  0
VERTEX
  5
94B
  8
LAYER_1
 10
-47.3585065750345
 20
26.02500401437283
 30
0.0
  0
VERTEX
  5
94C
  8
LAYER_1
 10
-47.06200769825001
 20
27.41250406950712
 30
0.0
  0
VERTEX
  5
94D
  8
LAYER_1
 10
-46.9437306156387
 20
27.93750409036875
 30
0.0
  0
VERTEX
  5
94E
  8
LAYER_1
 10
-46.72035674131064
 20
29.02500413358212
 30
0.0
  0
VERTEX
  5
94F
  8
LAYER_1
 10
-46.38607884080406
 20
30.67500419914722
 30
0.0
  0
VERTEX
  5
950
  8
LAYER_1
 10
-46.20715125202514
 20
31.5375042334199
 30
0.0
  0
VERTEX
  5
951
  8
LAYER_1
 10
-46.13912768942473
 20
31.83750424534082
 30
0.0
  0
VERTEX
  5
952
  8
LAYER_1
 10
-45.4298225803896
 20
35.13750437647104
 30
0.0
  0
VERTEX
  5
953
  8
LAYER_1
 10
-45.39585211911283
 20
35.85372748836407
 30
0.0
  0
VERTEX
  5
954
  8
LAYER_1
 10
-45.38004708204868
 20
36.2614872263711
 30
0.0
  0
VERTEX
  5
955
  8
LAYER_1
 10
-45.38125599086048
 20
36.3917509072415
 30
0.0
  0
VERTEX
  5
956
  8
LAYER_1
 10
-45.39063284033407
 20
36.48442903698454
 30
0.0
  0
VERTEX
  5
957
  8
LAYER_1
 10
-45.40974787229385
 20
36.54814054632125
 30
0.0
  0
VERTEX
  5
958
  8
LAYER_1
 10
-45.44017132856422
 20
36.5915043659727
 30
0.0
  0
VERTEX
  5
959
  8
LAYER_1
 10
-45.48347345096957
 20
36.6231394266599
 30
0.0
  0
VERTEX
  5
95A
  8
LAYER_1
 10
-45.54122448133434
 20
36.65166465910391
 30
0.0
  0
VERTEX
  5
95B
  8
LAYER_1
 10
-45.59701909850187
 20
36.67380161330399
 30
0.0
  0
VERTEX
  5
95C
  8
LAYER_1
 10
-45.64803057646385
 20
36.68463606549064
 30
0.0
  0
VERTEX
  5
95D
  8
LAYER_1
 10
-45.6985067645865
 20
36.68227305239719
 30
0.0
  0
VERTEX
  5
95E
  8
LAYER_1
 10
-45.75269551223602
 20
36.66481761075698
 30
0.0
  0
VERTEX
  5
95F
  8
LAYER_1
 10
-45.81484466877864
 20
36.63037477730336
 30
0.0
  0
VERTEX
  5
960
  8
LAYER_1
 10
-45.88920208358055
 20
36.57704958876964
 30
0.0
  0
VERTEX
  5
961
  8
LAYER_1
 10
-46.09153308542712
 20
36.40617229339529
 30
0.0
  0
VERTEX
  5
962
  8
LAYER_1
 10
-46.42139471703008
 20
36.10787675801744
 30
0.0
  0
VERTEX
  5
963
  8
LAYER_1
 10
-46.66760536351269
 20
35.86946102516441
 30
0.0
  0
VERTEX
  5
964
  8
LAYER_1
 10
-46.82162525735389
 20
35.69963578199412
 30
0.0
  0
VERTEX
  5
965
  8
LAYER_1
 10
-46.86139499468364
 20
35.64316668377684
 30
0.0
  0
VERTEX
  5
966
  8
LAYER_1
 10
-46.87491463103267
 20
35.60711171566444
 30
0.0
  0
VERTEX
  5
967
  8
LAYER_1
 10
-46.88335467374881
 20
35.57517968231043
 30
0.0
  0
VERTEX
  5
968
  8
LAYER_1
 10
-46.90627270670191
 20
35.52918410728769
 30
0.0
  0
VERTEX
  5
969
  8
LAYER_1
 10
-46.98154721647912
 20
35.41961170821386
 30
0.0
  0
VERTEX
  5
96A
  8
LAYER_1
 10
-47.68435961335847
 20
34.54230840823079
 30
0.0
  0
VERTEX
  5
96B
  8
LAYER_1
 10
-48.18596474469026
 20
33.89933293199618
 30
0.0
  0
VERTEX
  5
96C
  8
LAYER_1
 10
-48.49974596635981
 20
33.50065721087552
 30
0.0
  0
VERTEX
  5
96D
  8
LAYER_1
 10
-48.72971476629694
 20
33.22577067262058
 30
0.0
  0
VERTEX
  5
96E
  8
LAYER_1
 10
-48.84997798013315
 20
33.08051247752171
 30
0.0
  0
VERTEX
  5
96F
  8
LAYER_1
 10
-48.88656247549261
 20
33.02591342034354
 30
0.0
  0
VERTEX
  5
970
  8
LAYER_1
 10
-48.89999896287918
 20
32.99349638994653
 30
0.0
  0
VERTEX
  5
971
  8
LAYER_1
 10
-48.91035540860321
 20
32.96357072080997
 30
0.0
  0
VERTEX
  5
972
  8
LAYER_1
 10
-48.93855365191121
 20
32.91575507300431
 30
0.0
  0
VERTEX
  5
973
  8
LAYER_1
 10
-49.03124896809459
 20
32.79279579453363
 30
0.0
  0
VERTEX
  5
974
  8
LAYER_1
 10
-49.31005362752559
 20
32.46257005485593
 30
0.0
  0
VERTEX
  5
975
  8
LAYER_1
 10
-49.5215164071539
 20
32.19572670882424
 30
0.0
  0
VERTEX
  5
976
  8
LAYER_1
 10
-49.82272251182987
 20
31.80000424385071
 30
0.0
  0
VERTEX
  5
977
  8
LAYER_1
 10
-50.40253561760772
 20
31.0378947715598
 30
0.0
  0
VERTEX
  5
978
  8
LAYER_1
 10
-50.59554691079641
 20
30.79905463896677
 30
0.0
  0
VERTEX
  5
979
  8
LAYER_1
 10
-50.77610302602752
 20
30.58878080404217
 30
0.0
  0
VERTEX
  5
97A
  8
LAYER_1
 10
-50.9328893436576
 20
30.39801031753541
 30
0.0
  0
VERTEX
  5
97B
  8
LAYER_1
 10
-50.98085816678328
 20
30.32962166360563
 30
0.0
  0
VERTEX
  5
97C
  8
LAYER_1
 10
-50.99880106044368
 20
30.29220588844881
 30
0.0
  0
VERTEX
  5
97D
  8
LAYER_1
 10
-51.01258164611603
 20
30.2597425165499
 30
0.0
  0
VERTEX
  5
97E
  8
LAYER_1
 10
-51.04921745244259
 20
30.20483812891641
 30
0.0
  0
VERTEX
  5
97F
  8
LAYER_1
 10
-51.16874905303121
 20
30.0583941032527
 30
0.0
  0
VERTEX
  5
980
  8
LAYER_1
 10
-51.33749905973673
 20
29.86988061534397
 30
0.0
  0
VERTEX
  5
981
  8
LAYER_1
 10
-52.76249911636114
 20
28.03667023349027
 30
0.0
  0
VERTEX
  5
982
  8
LAYER_1
 10
-52.87499912083149
 20
27.87174781139895
 30
0.0
  0
VERTEX
  5
983
  8
LAYER_1
 10
-53.07683096276292
 20
27.60188665257403
 30
0.0
  0
VERTEX
  5
984
  8
LAYER_1
 10
-53.40410751261842
 20
27.18466471450621
 30
0.0
  0
VERTEX
  5
985
  8
LAYER_1
 10
-54.44965620626013
 20
25.83750400692225
 30
0.0
  0
VERTEX
  5
986
  8
LAYER_1
 10
-55.07859651258527
 20
25.01250397413969
 30
0.0
  0
VERTEX
  5
987
  8
LAYER_1
 10
-55.17657980462465
 20
24.93750397115946
 30
0.0
  0
VERTEX
  5
988
  8
LAYER_1
 10
-55.89011853681973
 20
23.96250393241644
 30
0.0
  0
VERTEX
  5
989
  8
LAYER_1
 10
-55.99332145829435
 20
23.88750392943621
 30
0.0
  0
VERTEX
  5
98A
  8
LAYER_1
 10
-56.35618500889253
 20
23.40539227489479
 30
0.0
  0
VERTEX
  5
98B
  8
LAYER_1
 10
-56.78591420109488
 20
22.84289225254305
 30
0.0
  0
VERTEX
  5
98C
  8
LAYER_1
 10
-57.00766440537466
 20
22.574526737056
 30
0.0
  0
VERTEX
  5
98D
  8
LAYER_1
 10
-57.06949091579513
 20
22.4920148689635
 30
0.0
  0
VERTEX
  5
98E
  8
LAYER_1
 10
-57.10299926679625
 20
22.43337644976381
 30
0.0
  0
VERTEX
  5
98F
  8
LAYER_1
 10
-57.11147513467326
 20
22.390681121301
 30
0.0
  0
VERTEX
  5
990
  8
LAYER_1
 10
-57.09820419572137
 20
22.35599852541916
 30
0.0
  0
VERTEX
  5
991
  8
LAYER_1
 10
-57.01956460251172
 20
22.27895009877473
 30
0.0
  0
VERTEX
  5
992
  8
LAYER_1
 10
-56.83816846517949
 20
22.14012322304379
 30
0.0
  0
VERTEX
  5
993
  8
LAYER_1
 10
-56.58749926835299
 20
21.97657486204039
 30
0.0
  0
VERTEX
  5
994
  8
LAYER_1
 10
-56.36460863449611
 20
21.83566133264045
 30
0.0
  0
VERTEX
  5
995
  8
LAYER_1
 10
-56.24999925494194
 20
21.75125437119014
 30
0.0
  0
VERTEX
  5
996
  8
LAYER_1
 10
-56.21249925345182
 20
21.70708693540095
 30
0.0
  0
VERTEX
  5
997
  8
LAYER_1
 10
-55.62266619394484
 20
21.34286783066415
 30
0.0
  0
VERTEX
  5
998
  8
LAYER_1
 10
-55.06050824778818
 20
21.01055561637907
 30
0.0
  0
VERTEX
  5
999
  8
LAYER_1
 10
-54.45712868715187
 20
20.68144715688283
 30
0.0
  0
VERTEX
  5
99A
  8
LAYER_1
 10
-53.82152396928953
 20
20.35963166040826
 30
0.0
  0
VERTEX
  5
99B
  8
LAYER_1
 10
-53.16269055145477
 20
20.04919833518822
 30
0.0
  0
VERTEX
  5
99C
  8
LAYER_1
 10
-52.48962489090123
 20
19.75423638945556
 30
0.0
  0
VERTEX
  5
99D
  8
LAYER_1
 10
-51.81132344488252
 20
19.47883503144312
 30
0.0
  0
VERTEX
  5
99E
  8
LAYER_1
 10
-51.13678267065225
 20
19.22708346938376
 30
0.0
  0
VERTEX
  5
99F
  8
LAYER_1
 10
-50.47499902546406
 20
19.00307091151032
 30
0.0
  0
VERTEX
  5
9A0
  8
LAYER_1
 10
-49.68749899417162
 20
18.75105885172354
 30
0.0
  0
VERTEX
  5
9A1
  8
LAYER_1
 10
-49.42499898374081
 20
18.70315939115332
 30
0.0
  0
VERTEX
  5
9A2
  8
LAYER_1
 10
-49.20105366234202
 20
18.64942387345006
 30
0.0
  0
VERTEX
  5
9A3
  8
LAYER_1
 10
-49.10292377563019
 20
18.61758522069706
 30
0.0
  0
VERTEX
  5
9A4
  8
LAYER_1
 10
-49.03124896809459
 20
18.5874930414749
 30
0.0
  0
VERTEX
  5
9A5
  8
LAYER_1
 10
-48.93855365191121
 20
18.5498039964693
 30
0.0
  0
VERTEX
  5
9A6
  8
LAYER_1
 10
-48.91035540860321
 20
18.54625461722208
 30
0.0
  0
SEQEND
  5
D02
  8
LAYER_1
  0
POLYLINE
  5
7A
  8
LAYER_1
 66
     1
 10
0.0
 20
0.0
 30
0.0
 70
     1
  0
VERTEX
  5
9A7
  8
LAYER_1
 10
-37.3124985024333
 20
18.75981331242089
 30
0.0
  0
VERTEX
  5
9A8
  8
LAYER_1
 10
-35.88749844580889
 20
19.20833259107067
 30
0.0
  0
VERTEX
  5
9A9
  8
LAYER_1
 10
-35.73749843984842
 20
19.27315457131147
 30
0.0
  0
VERTEX
  5
9AA
  8
LAYER_1
 10
-35.02499841153622
 20
19.54299278163433
 30
0.0
  0
VERTEX
  5
9AB
  8
LAYER_1
 10
-34.46249838918447
 20
19.74800901171639
 30
0.0
  0
VERTEX
  5
9AC
  8
LAYER_1
 10
-33.44999834895134
 20
20.2482622344554
 30
0.0
  0
VERTEX
  5
9AD
  8
LAYER_1
 10
-32.57396575301835
 20
20.69258229624815
 30
0.0
  0
VERTEX
  5
9AE
  8
LAYER_1
 10
-31.83239679922354
 20
21.09306064411228
 30
0.0
  0
VERTEX
  5
9AF
  8
LAYER_1
 10
-31.51475872133925
 20
21.27533080725216
 30
0.0
  0
VERTEX
  5
9B0
  8
LAYER_1
 10
-31.23400359384307
 20
21.44480650022715
 30
0.0
  0
VERTEX
  5
9B1
  8
LAYER_1
 10
-30.99122043001951
 20
21.60087637580967
 30
0.0
  0
VERTEX
  5
9B2
  8
LAYER_1
 10
-30.7874982431531
 20
21.74292908677215
 30
0.0
  0
VERTEX
  5
9B3
  8
LAYER_1
 10
-30.4101771859036
 20
22.00824153514871
 30
0.0
  0
VERTEX
  5
9B4
  8
LAYER_1
 10
-30.02959679259049
 20
22.25985667934496
 30
0.0
  0
VERTEX
  5
9B5
  8
LAYER_1
 10
-29.71946616965106
 20
22.47454618391338
 30
0.0
  0
VERTEX
  5
9B6
  8
LAYER_1
 10
-29.59422203244635
 20
22.57400104762739
 30
0.0
  0
VERTEX
  5
9B7
  8
LAYER_1
 10
-29.51152434755529
 20
22.6510799668017
 30
0.0
  0
VERTEX
  5
9B8
  8
LAYER_1
 10
-29.43889231899418
 20
22.74047214172442
 30
0.0
  0
VERTEX
  5
9B9
  8
LAYER_1
 10
-29.42237212963708
 20
22.77730854777172
 30
0.0
  0
VERTEX
  5
9BA
  8
LAYER_1
 10
-29.4196890348196
 20
22.81456561470173
 30
0.0
  0
VERTEX
  5
9BB
  8
LAYER_1
 10
-29.43132294298474
 20
22.85648867888355
 30
0.0
  0
VERTEX
  5
9BC
  8
LAYER_1
 10
-29.45775376257546
 20
22.90732307668624
 30
0.0
  0
VERTEX
  5
9BD
  8
LAYER_1
 10
-29.55692576980567
 20
23.05270721863054
 30
0.0
  0
VERTEX
  5
9BE
  8
LAYER_1
 10
-29.79755405109653
 20
23.36049120359529
 30
0.0
  0
VERTEX
  5
9BF
  8
LAYER_1
 10
-30.12251607872783
 20
23.74623806385017
 30
0.0
  0
VERTEX
  5
9C0
  8
LAYER_1
 10
-30.47658189213183
 20
24.16803834421668
 30
0.0
  0
VERTEX
  5
9C1
  8
LAYER_1
 10
-30.78718310517407
 20
24.5625039562583
 30
0.0
  0
VERTEX
  5
9C2
  8
LAYER_1
 10
-31.0113252840476
 20
24.84937896765769
 30
0.0
  0
VERTEX
  5
9C3
  8
LAYER_1
 10
-31.15752150466301
 20
25.01250397413969
 30
0.0
  0
VERTEX
  5
9C4
  8
LAYER_1
 10
-31.24821075500368
 20
25.08750397711992
 30
0.0
  0
VERTEX
  5
9C5
  8
LAYER_1
 10
-31.8764366545524
 20
25.87500400841236
 30
0.0
  0
VERTEX
  5
9C6
  8
LAYER_1
 10
-32.45345957825845
 20
26.58828437043488
 30
0.0
  0
VERTEX
  5
9C7
  8
LAYER_1
 10
-32.95858045078117
 20
27.19734136709963
 30
0.0
  0
VERTEX
  5
9C8
  8
LAYER_1
 10
-33.32685020082956
 20
27.63827427340443
 30
0.0
  0
VERTEX
  5
9C9
  8
LAYER_1
 10
-33.57484808539519
 20
27.94734139690195
 30
0.0
  0
VERTEX
  5
9CA
  8
LAYER_1
 10
-33.87484809731612
 20
28.32339114394735
 30
0.0
  0
VERTEX
  5
9CB
  8
LAYER_1
 10
-34.55169869033288
 20
29.12070751159708
 30
0.0
  0
VERTEX
  5
9CC
  8
LAYER_1
 10
-34.70591252068027
 20
29.31101496561085
 30
0.0
  0
VERTEX
  5
9CD
  8
LAYER_1
 10
-34.79432578896055
 20
29.43109918744948
 30
0.0
  0
VERTEX
  5
9CE
  8
LAYER_1
 10
-34.94854834205736
 20
29.62992553679792
 30
0.0
  0
VERTEX
  5
9CF
  8
LAYER_1
 10
-35.16932580386171
 20
29.88832233587036
 30
0.0
  0
VERTEX
  5
9D0
  8
LAYER_1
 10
-35.4248164722345
 20
30.18576504650674
 30
0.0
  0
VERTEX
  5
9D1
  8
LAYER_1
 10
-35.66249843686819
 20
30.47846773642377
 30
0.0
  0
VERTEX
  5
9D2
  8
LAYER_1
 10
-35.88749844580889
 20
30.76779495704066
 30
0.0
  0
VERTEX
  5
9D3
  8
LAYER_1
 10
-37.5175576200282
 20
32.73750428110361
 30
0.0
  0
VERTEX
  5
9D4
  8
LAYER_1
 10
-37.67503710891499
 20
32.92500428855419
 30
0.0
  0
VERTEX
  5
9D5
  8
LAYER_1
 10
-38.31489733065455
 20
33.71250431984663
 30
0.0
  0
VERTEX
  5
9D6
  8
LAYER_1
 10
-38.756954862893
 20
34.25473332905212
 30
0.0
  0
VERTEX
  5
9D7
  8
LAYER_1
 10
-39.14238832618367
 20
34.71583708366187
 30
0.0
  0
VERTEX
  5
9D8
  8
LAYER_1
 10
-39.64070270868954
 20
35.30404029673373
 30
0.0
  0
VERTEX
  5
9D9
  8
LAYER_1
 10
-39.74362830656948
 20
35.43685344772955
 30
0.0
  0
VERTEX
  5
9DA
  8
LAYER_1
 10
-39.82499860227108
 20
35.55554912651502
 30
0.0
  0
VERTEX
  5
9DB
  8
LAYER_1
 10
-39.9753333256689
 20
35.74710611587018
 30
0.0
  0
VERTEX
  5
9DC
  8
LAYER_1
 10
-40.20134557940774
 20
35.99011744046852
 30
0.0
  0
VERTEX
  5
9DD
  8
LAYER_1
 10
-40.48031393380826
 20
36.26144078773402
 30
0.0
  0
VERTEX
  5
9DE
  8
LAYER_1
 10
-40.78951695919115
 20
36.53793384509062
 30
0.0
  0
VERTEX
  5
9DF
  8
LAYER_1
 10
-40.9680879301
 20
36.68299613820079
 30
0.0
  0
VERTEX
  5
9E0
  8
LAYER_1
 10
-41.03553790105523
 20
36.72765906550312
 30
0.0
  0
VERTEX
  5
9E1
  8
LAYER_1
 10
-41.09428725917017
 20
36.75589943661686
 30
0.0
  0
VERTEX
  5
9E2
  8
LAYER_1
 10
-41.14872830206421
 20
36.76933444402692
 30
0.0
  0
VERTEX
  5
9E3
  8
LAYER_1
 10
-41.20325332735675
 20
36.76958128021823
 30
0.0
  0
VERTEX
  5
9E4
  8
LAYER_1
 10
-41.33012451561489
 20
36.73697920888426
 30
0.0
  0
VERTEX
  5
9E5
  8
LAYER_1
 10
-41.43428659563158
 20
36.69245170264801
 30
0.0
  0
VERTEX
  5
9E6
  8
LAYER_1
 10
-41.47023748930107
 20
36.66867716958156
 30
0.0
  0
VERTEX
  5
9E7
  8
LAYER_1
 10
-41.49636638680781
 20
36.64270721927264
 30
0.0
  0
VERTEX
  5
9E8
  8
LAYER_1
 10
-41.51337186419917
 20
36.61365067876353
 30
0.0
  0
VERTEX
  5
9E9
  8
LAYER_1
 10
-41.52195249752252
 20
36.58061637509658
 30
0.0
  0
VERTEX
  5
9EA
  8
LAYER_1
 10
-41.51663353615466
 20
36.4990497864583
 30
0.0
  0
VERTEX
  5
9EB
  8
LAYER_1
 10
-41.48023402463357
 20
36.212993225664
 30
0.0
  0
VERTEX
  5
9EC
  8
LAYER_1
 10
-41.43850806906768
 20
35.75209115209546
 30
0.0
  0
VERTEX
  5
9ED
  8
LAYER_1
 10
-41.38717893555359
 20
35.29029566861657
 30
0.0
  0
VERTEX
  5
9EE
  8
LAYER_1
 10
-41.35663669902148
 20
35.11218984032148
 30
0.0
  0
VERTEX
  5
9EF
  8
LAYER_1
 10
-41.32769093236984
 20
35.00209112229314
 30
0.0
  0
VERTEX
  5
9F0
  8
LAYER_1
 10
-41.24518898915829
 20
34.7206173430713
 30
0.0
  0
VERTEX
  5
9F1
  8
LAYER_1
 10
-41.13852846791778
 20
34.27500434219837
 30
0.0
  0
VERTEX
  5
9F2
  8
LAYER_1
 10
-40.75976259144488
 20
32.66250427812338
 30
0.0
  0
VERTEX
  5
9F3
  8
LAYER_1
 10
-40.50486107208158
 20
31.61250423640013
 30
0.0
  0
VERTEX
  5
9F4
  8
LAYER_1
 10
-39.74097930858976
 20
28.38750410825014
 30
0.0
  0
VERTEX
  5
9F5
  8
LAYER_1
 10
-39.63328272255126
 20
27.97500409185886
 30
0.0
  0
VERTEX
  5
9F6
  8
LAYER_1
 10
-39.37891633779095
 20
26.92500405013561
 30
0.0
  0
VERTEX
  5
9F7
  8
LAYER_1
 10
-38.99406838748777
 20
25.28433306504749
 30
0.0
  0
VERTEX
  5
9F8
  8
LAYER_1
 10
-38.53844622375627
 20
23.4000039100647
 30
0.0
  0
VERTEX
  5
9F9
  8
LAYER_1
 10
-38.23555726339597
 20
22.16250386089087
 30
0.0
  0
VERTEX
  5
9FA
  8
LAYER_1
 10
-38.08682943257821
 20
21.52500383555889
 30
0.0
  0
VERTEX
  5
9FB
  8
LAYER_1
 10
-37.8310427066381
 20
20.40000379085541
 30
0.0
  0
VERTEX
  5
9FC
  8
LAYER_1
 10
-37.59179483602416
 20
19.35577164140365
 30
0.0
  0
VERTEX
  5
9FD
  8
LAYER_1
 10
-37.45960586053259
 20
18.79903951132339
 30
0.0
  0
SEQEND
  5
D03
  8
LAYER_1
  0
POLYLINE
  5
7B
  8
LAYER_1
 66
     1
 10
0.0
 20
0.0
 30
0.0
 70
     1
  0
VERTEX
  5
9FE
  8
LAYER_1
 10
-58.10658817434008
 20
23.41598410732759
 30
0.0
  0
VERTEX
  5
9FF
  8
LAYER_1
 10
-57.98477409588708
 20
23.58490150411171
 30
0.0
  0
VERTEX
  5
A00
  8
LAYER_1
 10
-57.85239757435573
 20
23.75016444803123
 30
0.0
  0
VERTEX
  5
A01
  8
LAYER_1
 10
-57.70953192556224
 20
23.9260072108191
 30
0.0
  0
VERTEX
  5
A02
  8
LAYER_1
 10
-57.562499307096
 20
24.12036119339308
 30
0.0
  0
VERTEX
  5
A03
  8
LAYER_1
 10
-57.23427044765707
 20
24.54702470916044
 30
0.0
  0
VERTEX
  5
A04
  8
LAYER_1
 10
-57.08439886200786
 20
24.72817895435033
 30
0.0
  0
VERTEX
  5
A05
  8
LAYER_1
 10
-56.99468997239136
 20
24.82500396668911
 30
0.0
  0
VERTEX
  5
A06
  8
LAYER_1
 10
-56.94946706884635
 20
24.86250396817923
 30
0.0
  0
VERTEX
  5
A07
  8
LAYER_1
 10
-56.06639073263682
 20
26.06250401586294
 30
0.0
  0
VERTEX
  5
A08
  8
LAYER_1
 10
-55.95194498559374
 20
26.20067541054267
 30
0.0
  0
VERTEX
  5
A09
  8
LAYER_1
 10
-55.63244721623704
 20
26.57567542544383
 30
0.0
  0
VERTEX
  5
A0A
  8
LAYER_1
 10
-55.4872773171252
 20
26.75788541585499
 30
0.0
  0
VERTEX
  5
A0B
  8
LAYER_1
 10
-55.44284224963283
 20
26.82494890354337
 30
0.0
  0
VERTEX
  5
A0C
  8
LAYER_1
 10
-55.4261972080414
 20
26.86339690483044
 30
0.0
  0
VERTEX
  5
A0D
  8
LAYER_1
 10
-55.39726395356992
 20
26.92845271098694
 30
0.0
  0
VERTEX
  5
A0E
  8
LAYER_1
 10
-55.32938330065365
 20
27.0133969107909
 30
0.0
  0
VERTEX
  5
A0F
  8
LAYER_1
 10
-55.15224641506101
 20
27.22569895397963
 30
0.0
  0
VERTEX
  5
A10
  8
LAYER_1
 10
-54.86063328202719
 20
27.59695553252936
 30
0.0
  0
VERTEX
  5
A11
  8
LAYER_1
 10
-54.33252903555043
 20
28.27968073266712
 30
0.0
  0
VERTEX
  5
A12
  8
LAYER_1
 10
-54.067972589653
 20
28.60445953615994
 30
0.0
  0
VERTEX
  5
A13
  8
LAYER_1
 10
-53.8555428675463
 20
28.87041776832493
 30
0.0
  0
VERTEX
  5
A14
  8
LAYER_1
 10
-53.6179725717716
 20
29.18259515761255
 30
0.0
  0
VERTEX
  5
A15
  8
LAYER_1
 10
-53.362499140203
 20
29.52768618909357
 30
0.0
  0
VERTEX
  5
A16
  8
LAYER_1
 10
-52.76249911636114
 20
30.30168418181178
 30
0.0
  0
VERTEX
  5
A17
  8
LAYER_1
 10
-51.82499907910824
 20
31.50421787669252
 30
0.0
  0
VERTEX
  5
A18
  8
LAYER_1
 10
-51.00298106743985
 20
32.56012893892003
 30
0.0
  0
VERTEX
  5
A19
  8
LAYER_1
 10
-50.51846306918249
 20
33.187504298985
 30
0.0
  0
VERTEX
  5
A1A
  8
LAYER_1
 10
-50.44048104508811
 20
33.27816898768845
 30
0.0
  0
VERTEX
  5
A1B
  8
LAYER_1
 10
-50.0999990105629
 20
33.71808517071737
 30
0.0
  0
VERTEX
  5
A1C
  8
LAYER_1
 10
-49.46249898523092
 20
34.53829760100881
 30
0.0
  0
VERTEX
  5
A1D
  8
LAYER_1
 10
-48.73617658157237
 20
35.46641989442266
 30
0.0
  0
VERTEX
  5
A1E
  8
LAYER_1
 10
-48.1500029201305
 20
36.24966817552826
 30
0.0
  0
VERTEX
  5
A1F
  8
LAYER_1
 10
-47.91231379612965
 20
36.58305044110293
 30
0.0
  0
VERTEX
  5
A20
  8
LAYER_1
 10
-47.71307217174954
 20
36.87551725916552
 30
0.0
  0
VERTEX
  5
A21
  8
LAYER_1
 10
-47.55341481834573
 20
37.12550298157101
 30
0.0
  0
VERTEX
  5
A22
  8
LAYER_1
 10
-47.43447850727372
 20
37.3314419601744
 30
0.0
  0
VERTEX
  5
A23
  8
LAYER_1
 10
-47.28349791736061
 20
37.62353626784359
 30
0.0
  0
VERTEX
  5
A24
  8
LAYER_1
 10
-47.23802565443419
 20
37.72484815374786
 30
0.0
  0
VERTEX
  5
A25
  8
LAYER_1
 10
-47.21071357165796
 20
37.80311596001114
 30
0.0
  0
VERTEX
  5
A26
  8
LAYER_1
 10
-47.2001727881295
 20
37.86342426086782
 30
0.0
  0
VERTEX
  5
A27
  8
LAYER_1
 10
-47.20501442294638
 20
37.9108576305523
 30
0.0
  0
VERTEX
  5
A28
  8
LAYER_1
 10
-47.2238495952062
 20
37.95050064329899
 30
0.0
  0
VERTEX
  5
A29
  8
LAYER_1
 10
-47.2552894240065
 20
37.98743787334229
 30
0.0
  0
VERTEX
  5
A2A
  8
LAYER_1
 10
-47.29547617976192
 20
38.01470127188368
 30
0.0
  0
VERTEX
  5
A2B
  8
LAYER_1
 10
-47.3508497876534
 20
38.03184908303891
 30
0.0
  0
VERTEX
  5
A2C
  8
LAYER_1
 10
-47.42078960314473
 20
38.0390770746305
 30
0.0
  0
VERTEX
  5
A2D
  8
LAYER_1
 10
-47.50467498169968
 20
38.03658101448096
 30
0.0
  0
VERTEX
  5
A2E
  8
LAYER_1
 10
-47.71179984985562
 20
38.0031998102486
 30
0.0
  0
VERTEX
  5
A2F
  8
LAYER_1
 10
-47.96725923583148
 20
37.93327161292198
 30
0.0
  0
VERTEX
  5
A30
  8
LAYER_1
 10
-48.26608798333753
 20
37.82836256508126
 30
0.0
  0
VERTEX
  5
A31
  8
LAYER_1
 10
-48.60332093608403
 20
37.69003880930659
 30
0.0
  0
VERTEX
  5
A32
  8
LAYER_1
 10
-48.97399293778128
 20
37.51986648817814
 30
0.0
  0
VERTEX
  5
A33
  8
LAYER_1
 10
-49.37313883213952
 20
37.31941174427605
 30
0.0
  0
VERTEX
  5
A34
  8
LAYER_1
 10
-50.28749901801348
 20
36.84177816275249
 30
0.0
  0
VERTEX
  5
A35
  8
LAYER_1
 10
-52.87499912083149
 20
35.53213571139426
 30
0.0
  0
VERTEX
  5
A36
  8
LAYER_1
 10
-58.38749933987856
 20
32.73888842761356
 30
0.0
  0
VERTEX
  5
A37
  8
LAYER_1
 10
-61.31249945610762
 20
31.25528359519107
 30
0.0
  0
VERTEX
  5
A38
  8
LAYER_1
 10
-63.8249995559454
 20
29.99517411096933
 30
0.0
  0
VERTEX
  5
A39
  8
LAYER_1
 10
-63.8249995559454
 20
29.93198090585146
 30
0.0
  0
VERTEX
  5
A3A
  8
LAYER_1
 10
-62.89362420775522
 20
28.38750410825014
 30
0.0
  0
VERTEX
  5
A3B
  8
LAYER_1
 10
-62.77431278253913
 20
28.23750410228968
 30
0.0
  0
VERTEX
  5
A3C
  8
LAYER_1
 10
-62.24462381763384
 20
27.49575957732671
 30
0.0
  0
VERTEX
  5
A3D
  8
LAYER_1
 10
-61.86971271762373
 20
26.98800617857994
 30
0.0
  0
VERTEX
  5
A3E
  8
LAYER_1
 10
-61.47077093764275
 20
26.48025805557037
 30
0.0
  0
VERTEX
  5
A3F
  8
LAYER_1
 10
-61.05209472068764
 20
25.97726741926213
 30
0.0
  0
VERTEX
  5
A40
  8
LAYER_1
 10
-60.61798030975512
 20
25.48378648061935
 30
0.0
  0
VERTEX
  5
A41
  8
LAYER_1
 10
-60.17272394784193
 20
25.00456745060618
 30
0.0
  0
VERTEX
  5
A42
  8
LAYER_1
 10
-59.72062187794478
 20
24.54436254018674
 30
0.0
  0
VERTEX
  5
A43
  8
LAYER_1
 10
-59.26597034306043
 20
24.10792396032518
 30
0.0
  0
VERTEX
  5
A44
  8
LAYER_1
 10
-58.81306558618559
 20
23.70000392198563
 30
0.0
  0
VERTEX
  5
A45
  8
LAYER_1
 10
-58.33899453192362
 20
23.28750390559435
 30
0.0
  0
VERTEX
  5
A46
  8
LAYER_1
 10
-58.2799375224744
 20
23.26598410136712
 30
0.0
  0
VERTEX
  5
A47
  8
LAYER_1
 10
-58.24798841317482
 20
23.27116234990466
 30
0.0
  0
VERTEX
  5
A48
  8
LAYER_1
 10
-58.20465513506213
 20
23.3011696838743
 30
0.0
  0
VERTEX
  5
A49
  8
LAYER_1
 10
-58.155625713622
 20
23.35108422808047
 30
0.0
  0
SEQEND
  5
D04
  8
LAYER_1
  0
POLYLINE
  5
7C
  8
LAYER_1
 66
     1
 10
0.0
 20
0.0
 30
0.0
 70
     1
  0
VERTEX
  5
A4A
  8
LAYER_1
 10
-28.16489903238573
 20
23.70000392198563
 30
0.0
  0
VERTEX
  5
A4B
  8
LAYER_1
 10
-26.06034566489113
 20
25.83750400692225
 30
0.0
  0
VERTEX
  5
A4C
  8
LAYER_1
 10
-25.61174127462743
 20
26.40000402927399
 30
0.0
  0
VERTEX
  5
A4D
  8
LAYER_1
 10
-24.91313816289356
 20
27.28967082448044
 30
0.0
  0
VERTEX
  5
A4E
  8
LAYER_1
 10
-24.66313944142338
 20
27.61683759733516
 30
0.0
  0
VERTEX
  5
A4F
  8
LAYER_1
 10
-24.1203212696727
 20
28.45289703964515
 30
0.0
  0
VERTEX
  5
A50
  8
LAYER_1
 10
-23.63205139945146
 20
29.23581394818743
 30
0.0
  0
VERTEX
  5
A51
  8
LAYER_1
 10
-23.40187672721576
 20
29.62375290372021
 30
0.0
  0
VERTEX
  5
A52
  8
LAYER_1
 10
-23.22038127180345
 20
29.94410517101338
 30
0.0
  0
VERTEX
  5
A53
  8
LAYER_1
 10
-22.86325944568486
 20
30.59925386007166
 30
0.0
  0
VERTEX
  5
A54
  8
LAYER_1
 10
-23.21249794214964
 20
30.73390601670803
 30
0.0
  0
VERTEX
  5
A55
  8
LAYER_1
 10
-24.03749797493219
 20
31.1258666937993
 30
0.0
  0
VERTEX
  5
A56
  8
LAYER_1
 10
-26.66249807924032
 20
32.36272716866395
 30
0.0
  0
VERTEX
  5
A57
  8
LAYER_1
 10
-28.16249813884497
 20
33.07525271174566
 30
0.0
  0
VERTEX
  5
A58
  8
LAYER_1
 10
-29.66249819844961
 20
33.78540622961539
 30
0.0
  0
VERTEX
  5
A59
  8
LAYER_1
 10
-31.01249825209379
 20
34.42351691831718
 30
0.0
  0
VERTEX
  5
A5A
  8
LAYER_1
 10
-32.36249830573797
 20
35.06217212038487
 30
0.0
  0
VERTEX
  5
A5B
  8
LAYER_1
 10
-33.71249835938215
 20
35.70102666738497
 30
0.0
  0
VERTEX
  5
A5C
  8
LAYER_1
 10
-35.4559161047435
 20
36.53112077746454
 30
0.0
  0
VERTEX
  5
A5D
  8
LAYER_1
 10
-36.59999847412109
 20
37.06560900883753
 30
0.0
  0
VERTEX
  5
A5E
  8
LAYER_1
 10
-37.76249852031469
 20
37.61854458395841
 30
0.0
  0
VERTEX
  5
A5F
  8
LAYER_1
 10
-38.06769474119603
 20
37.75813170645547
 30
0.0
  0
VERTEX
  5
A60
  8
LAYER_1
 10
-38.3996924762432
 20
37.89385771627253
 30
0.0
  0
VERTEX
  5
A61
  8
LAYER_1
 10
-38.71841786725325
 20
38.01019938400065
 30
0.0
  0
VERTEX
  5
A62
  8
LAYER_1
 10
-38.98379705602326
 20
38.0916334802309
 30
0.0
  0
VERTEX
  5
A63
  8
LAYER_1
 10
-39.27523923031108
 20
38.16315353251603
 30
0.0
  0
VERTEX
  5
A64
  8
LAYER_1
 10
-39.45568543735121
 20
38.19113256378407
 30
0.0
  0
VERTEX
  5
A65
  8
LAYER_1
 10
-39.51650826662308
 20
38.18940155270791
 30
0.0
  0
VERTEX
  5
A66
  8
LAYER_1
 10
-39.56424996024663
 20
38.17751411378293
 30
0.0
  0
VERTEX
  5
A67
  8
LAYER_1
 10
-39.60379980360974
 20
38.15571318947764
 30
0.0
  0
VERTEX
  5
A68
  8
LAYER_1
 10
-39.64004708210029
 20
38.12424172226051
 30
0.0
  0
VERTEX
  5
A69
  8
LAYER_1
 10
-39.68693670267101
 20
38.07428770173205
 30
0.0
  0
VERTEX
  5
A6A
  8
LAYER_1
 10
-39.71961410661308
 20
38.03006326371747
 30
0.0
  0
VERTEX
  5
A6B
  8
LAYER_1
 10
-39.73777173343127
 20
37.98834521741311
 30
0.0
  0
VERTEX
  5
A6C
  8
LAYER_1
 10
-39.74110202263034
 20
37.94591037201535
 30
0.0
  0
VERTEX
  5
A6D
  8
LAYER_1
 10
-39.72929741371503
 20
37.89953553672052
 30
0.0
  0
VERTEX
  5
A6E
  8
LAYER_1
 10
-39.70205034619011
 20
37.84599752072501
 30
0.0
  0
VERTEX
  5
A6F
  8
LAYER_1
 10
-39.59999859333038
 20
37.7045391834173
 30
0.0
  0
VERTEX
  5
A70
  8
LAYER_1
 10
-39.49406108912081
 20
37.55634065049007
 30
0.0
  0
VERTEX
  5
A71
  8
LAYER_1
 10
-39.46183452534024
 20
37.5007356448088
 30
0.0
  0
VERTEX
  5
A72
  8
LAYER_1
 10
-39.44999858736992
 20
37.46781675266134
 30
0.0
  0
VERTEX
  5
A73
  8
LAYER_1
 10
-39.43398534043313
 20
37.42469540598155
 30
0.0
  0
VERTEX
  5
A74
  8
LAYER_1
 10
-39.39030842194702
 20
37.34403064417074
 30
0.0
  0
VERTEX
  5
A75
  8
LAYER_1
 10
-39.24614050427245
 20
37.11055867111421
 30
0.0
  0
VERTEX
  5
A76
  8
LAYER_1
 10
-39.06984870223741
 20
36.84837642540805
 30
0.0
  0
VERTEX
  5
A77
  8
LAYER_1
 10
-38.9137868837331
 20
36.63845949896854
 30
0.0
  0
VERTEX
  5
A78
  8
LAYER_1
 10
-38.47499854862693
 20
36.11250441521406
 30
0.0
  0
VERTEX
  5
A79
  8
LAYER_1
 10
-38.03621021352073
 20
35.58463927978853
 30
0.0
  0
VERTEX
  5
A7A
  8
LAYER_1
 10
-37.91249852627516
 20
35.43177415926417
 30
0.0
  0
VERTEX
  5
A7B
  8
LAYER_1
 10
-36.94219311764918
 20
34.23750434070826
 30
0.0
  0
VERTEX
  5
A7C
  8
LAYER_1
 10
-36.86188547830612
 20
34.16250433772802
 30
0.0
  0
VERTEX
  5
A7D
  8
LAYER_1
 10
-36.41740532508827
 20
33.60000431537628
 30
0.0
  0
VERTEX
  5
A7E
  8
LAYER_1
 10
-36.03586603929928
 20
33.12483997585224
 30
0.0
  0
VERTEX
  5
A7F
  8
LAYER_1
 10
-35.74271180138908
 20
32.77231723349047
 30
0.0
  0
VERTEX
  5
A80
  8
LAYER_1
 10
-35.24999842047691
 20
32.17618929786227
 30
0.0
  0
VERTEX
  5
A81
  8
LAYER_1
 10
-34.56294370008875
 20
31.32709824512788
 30
0.0
  0
VERTEX
  5
A82
  8
LAYER_1
 10
-34.31417261230568
 20
31.03100212112692
 30
0.0
  0
VERTEX
  5
A83
  8
LAYER_1
 10
-34.19430792873074
 20
30.90000420808792
 30
0.0
  0
VERTEX
  5
A84
  8
LAYER_1
 10
-34.08065245745168
 20
30.77161430559016
 30
0.0
  0
VERTEX
  5
A85
  8
LAYER_1
 10
-33.87920691106996
 20
30.51559177614546
 30
0.0
  0
VERTEX
  5
A86
  8
LAYER_1
 10
-33.47857844432632
 20
30.00794448528397
 30
0.0
  0
VERTEX
  5
A87
  8
LAYER_1
 10
-33.3022928471386
 20
29.79896897338591
 30
0.0
  0
VERTEX
  5
A88
  8
LAYER_1
 10
-33.14999833703041
 20
29.62957846481844
 30
0.0
  0
VERTEX
  5
A89
  8
LAYER_1
 10
-32.99343583080918
 20
29.44634991761634
 30
0.0
  0
VERTEX
  5
A8A
  8
LAYER_1
 10
-32.77499832212925
 20
29.1739326600665
 30
0.0
  0
VERTEX
  5
A8B
  8
LAYER_1
 10
-32.41655744508775
 20
28.72514227696191
 30
0.0
  0
VERTEX
  5
A8C
  8
LAYER_1
 10
-32.13749829679728
 20
28.39617684210018
 30
0.0
  0
VERTEX
  5
A8D
  8
LAYER_1
 10
-31.76404626814681
 20
27.93740343344319
 30
0.0
  0
VERTEX
  5
A8E
  8
LAYER_1
 10
-31.38904625324565
 20
27.47873068171177
 30
0.0
  0
VERTEX
  5
A8F
  8
LAYER_1
 10
-31.14098658247727
 20
27.18753489826477
 30
0.0
  0
VERTEX
  5
A90
  8
LAYER_1
 10
-30.71404622642356
 20
26.66033730367849
 30
0.0
  0
VERTEX
  5
A91
  8
LAYER_1
 10
-30.33904621152239
 20
26.20702017373895
 30
0.0
  0
VERTEX
  5
A92
  8
LAYER_1
 10
-30.03749821335077
 20
25.8377531733581
 30
0.0
  0
VERTEX
  5
A93
  8
LAYER_1
 10
-29.57153792264323
 20
25.26289417405353
 30
0.0
  0
VERTEX
  5
A94
  8
LAYER_1
 10
-29.34169436531545
 20
24.9962785282836
 30
0.0
  0
VERTEX
  5
A95
  8
LAYER_1
 10
-29.11939871022898
 20
24.75000396370888
 30
0.0
  0
VERTEX
  5
A96
  8
LAYER_1
 10
-28.94751861091016
 20
24.55146088799523
 30
0.0
  0
VERTEX
  5
A97
  8
LAYER_1
 10
-28.8950833585113
 20
24.48082758105427
 30
0.0
  0
VERTEX
  5
A98
  8
LAYER_1
 10
-28.87564870054322
 20
24.4427296780546
 30
0.0
  0
VERTEX
  5
A99
  8
LAYER_1
 10
-28.86287777119999
 20
24.41112372970186
 30
0.0
  0
VERTEX
  5
A9A
  8
LAYER_1
 10
-28.82858633436381
 20
24.35816653689859
 30
0.0
  0
VERTEX
  5
A9B
  8
LAYER_1
 10
-28.71634990511284
 20
24.21772966911391
 30
0.0
  0
VERTEX
  5
A9C
  8
LAYER_1
 10
-28.57126430625776
 20
24.04087493020636
 30
0.0
  0
VERTEX
  5
A9D
  8
LAYER_1
 10
-28.44522414932798
 20
23.86875392869115
 30
0.0
  0
VERTEX
  5
A9E
  8
LAYER_1
 10
-28.39492913420241
 20
23.80323146515002
 30
0.0
  0
VERTEX
  5
A9F
  8
LAYER_1
 10
-28.34113429971597
 20
23.74957423645537
 30
0.0
  0
VERTEX
  5
AA0
  8
LAYER_1
 10
-28.29028406370019
 20
23.71331935220223
 30
0.0
  0
VERTEX
  5
AA1
  8
LAYER_1
 10
-28.24882284398658
 20
23.70000392198563
 30
0.0
  0
SEQEND
  5
D05
  8
LAYER_1
  0
POLYLINE
  5
7D
  8
LAYER_1
 66
     1
 10
0.0
 20
0.0
 30
0.0
 70
     1
  0
VERTEX
  5
AA2
  8
LAYER_1
 10
-64.3124995753169
 20
31.28838318791124
 30
0.0
  0
VERTEX
  5
AA3
  8
LAYER_1
 10
-62.06249948590994
 20
32.44876121665639
 30
0.0
  0
VERTEX
  5
AA4
  8
LAYER_1
 10
-55.53749922662973
 20
35.75633099107249
 30
0.0
  0
VERTEX
  5
AA5
  8
LAYER_1
 10
-52.01249908655882
 20
37.54851825912837
 30
0.0
  0
VERTEX
  5
AA6
  8
LAYER_1
 10
-51.71249907463789
 20
37.7121272853862
 30
0.0
  0
VERTEX
  5
AA7
  8
LAYER_1
 10
-49.83749900013208
 20
38.65170595253475
 30
0.0
  0
VERTEX
  5
AA8
  8
LAYER_1
 10
-49.4530300591736
 20
38.84707423081906
 30
0.0
  0
VERTEX
  5
AA9
  8
LAYER_1
 10
-49.27016559892193
 20
38.94884068679544
 30
0.0
  0
VERTEX
  5
AAA
  8
LAYER_1
 10
-49.05647931907146
 20
39.08150495725192
 30
0.0
  0
VERTEX
  5
AAB
  8
LAYER_1
 10
-48.8385515565429
 20
39.2278826403563
 30
0.0
  0
VERTEX
  5
AAC
  8
LAYER_1
 10
-48.64296264825693
 20
39.37078933427638
 30
0.0
  0
VERTEX
  5
AAD
  8
LAYER_1
 10
-48.43025806066328
 20
39.5435684659199
 30
0.0
  0
VERTEX
  5
AAE
  8
LAYER_1
 10
-48.35730421091584
 20
39.61240510061039
 30
0.0
  0
VERTEX
  5
AAF
  8
LAYER_1
 10
-48.303729729043
 20
39.67328182799862
 30
0.0
  0
VERTEX
  5
AB0
  8
LAYER_1
 10
-48.26736991892602
 20
39.72900518317354
 30
0.0
  0
VERTEX
  5
AB1
  8
LAYER_1
 10
-48.24606008444619
 20
39.7823817012241
 30
0.0
  0
VERTEX
  5
AB2
  8
LAYER_1
 10
-48.23763552948475
 20
39.83621791723923
 30
0.0
  0
VERTEX
  5
AB3
  8
LAYER_1
 10
-48.23993155792297
 20
39.89332036630788
 30
0.0
  0
VERTEX
  5
AB4
  8
LAYER_1
 10
-48.24972377290137
 20
39.95230609328674
 30
0.0
  0
VERTEX
  5
AB5
  8
LAYER_1
 10
-48.26667139015498
 20
40.00021220209193
 30
0.0
  0
VERTEX
  5
AB6
  8
LAYER_1
 10
-48.29490616710276
 20
40.03943536252903
 30
0.0
  0
VERTEX
  5
AB7
  8
LAYER_1
 10
-48.3385598611637
 20
40.07237224440368
 30
0.0
  0
VERTEX
  5
AB8
  8
LAYER_1
 10
-48.40176422975679
 20
40.10141951752148
 30
0.0
  0
VERTEX
  5
AB9
  8
LAYER_1
 10
-48.488651030301
 20
40.12897385168804
 30
0.0
  0
VERTEX
  5
ABA
  8
LAYER_1
 10
-48.74999895691872
 20
40.18919038238991
 30
0.0
  0
VERTEX
  5
ABB
  8
LAYER_1
 10
-49.23749897629023
 20
40.29087619161346
 30
0.0
  0
VERTEX
  5
ABC
  8
LAYER_1
 10
-64.3124995753169
 20
40.12162623489705
 30
0.0
  0
VERTEX
  5
ABD
  8
LAYER_1
 10
-66.62250574279072
 20
40.12500457465649
 30
0.0
  0
VERTEX
  5
ABE
  8
LAYER_1
 10
-66.57107085525345
 20
39.21488813343717
 30
0.0
  0
VERTEX
  5
ABF
  8
LAYER_1
 10
-66.54036089090238
 20
38.78279636745298
 30
0.0
  0
VERTEX
  5
AC0
  8
LAYER_1
 10
-66.49614246116869
 20
38.33720097688
 30
0.0
  0
VERTEX
  5
AC1
  8
LAYER_1
 10
-66.43803773643816
 20
37.87577967357295
 30
0.0
  0
VERTEX
  5
AC2
  8
LAYER_1
 10
-66.36566888709646
 20
37.39621016938653
 30
0.0
  0
VERTEX
  5
AC3
  8
LAYER_1
 10
-66.27865808352934
 20
36.89617017617546
 30
0.0
  0
VERTEX
  5
AC4
  8
LAYER_1
 10
-66.17662749612248
 20
36.37333740579444
 30
0.0
  0
VERTEX
  5
AC5
  8
LAYER_1
 10
-66.05919929526162
 20
35.82538957009817
 30
0.0
  0
VERTEX
  5
AC6
  8
LAYER_1
 10
-65.92599565133249
 20
35.25000438094139
 30
0.0
  0
VERTEX
  5
AC7
  8
LAYER_1
 10
-65.81996269584519
 20
34.8609217309533
 30
0.0
  0
VERTEX
  5
AC8
  8
LAYER_1
 10
-65.66673964056817
 20
34.35310093664104
 30
0.0
  0
VERTEX
  5
AC9
  8
LAYER_1
 10
-65.51162753528722
 20
33.87185684771515
 30
0.0
  0
VERTEX
  5
ACA
  8
LAYER_1
 10
-65.39992742978812
 20
33.56250431388617
 30
0.0
  0
VERTEX
  5
ACB
  8
LAYER_1
 10
-65.31064075704067
 20
33.32437930442393
 30
0.0
  0
VERTEX
  5
ACC
  8
LAYER_1
 10
-65.18613472130396
 20
32.96250429004431
 30
0.0
  0
VERTEX
  5
ACD
  8
LAYER_1
 10
-65.00504868136221
 20
32.46844177041203
 30
0.0
  0
VERTEX
  5
ACE
  8
LAYER_1
 10
-64.77972923254737
 20
31.91250424832106
 30
0.0
  0
VERTEX
  5
ACF
  8
LAYER_1
 10
-64.52291023498954
 20
31.3125042244792
 30
0.0
  0
SEQEND
  5
D06
  8
LAYER_1
  0
POLYLINE
  5
7E
  8
LAYER_1
 66
     1
 10
0.0
 20
0.0
 30
0.0
 70
     1
  0
VERTEX
  5
AD0
  8
LAYER_1
 10
-22.15867090179895
 20
32.13509535984879
 30
0.0
  0
VERTEX
  5
AD1
  8
LAYER_1
 10
-22.08192059142239
 20
32.33074805319801
 30
0.0
  0
VERTEX
  5
AD2
  8
LAYER_1
 10
-22.04999789595604
 20
32.43591275296998
 30
0.0
  0
VERTEX
  5
AD3
  8
LAYER_1
 10
-22.00953101397408
 20
32.55806839878601
 30
0.0
  0
VERTEX
  5
AD4
  8
LAYER_1
 10
-21.9122382977196
 20
32.79457166453903
 30
0.0
  0
VERTEX
  5
AD5
  8
LAYER_1
 10
-21.77451898527371
 20
33.12987286891004
 30
0.0
  0
VERTEX
  5
AD6
  8
LAYER_1
 10
-21.63971589914625
 20
33.49234054466764
 30
0.0
  0
VERTEX
  5
AD7
  8
LAYER_1
 10
-21.50848547652262
 20
33.8789202284654
 30
0.0
  0
VERTEX
  5
AD8
  8
LAYER_1
 10
-21.38148415458821
 20
34.28655745695691
 30
0.0
  0
VERTEX
  5
AD9
  8
LAYER_1
 10
-21.25936837052843
 20
34.71219776679573
 30
0.0
  0
VERTEX
  5
ADA
  8
LAYER_1
 10
-21.14279456152867
 20
35.15278669463545
 30
0.0
  0
VERTEX
  5
ADB
  8
LAYER_1
 10
-21.03241916477432
 20
35.60526977712964
 30
0.0
  0
VERTEX
  5
ADC
  8
LAYER_1
 10
-20.92889861745079
 20
36.06659255093189
 30
0.0
  0
VERTEX
  5
ADD
  8
LAYER_1
 10
-20.83288935674347
 20
36.53370055269578
 30
0.0
  0
VERTEX
  5
ADE
  8
LAYER_1
 10
-20.74504781983775
 20
37.00353931907487
 30
0.0
  0
VERTEX
  5
ADF
  8
LAYER_1
 10
-20.66603044391905
 20
37.47305438672275
 30
0.0
  0
VERTEX
  5
AE0
  8
LAYER_1
 10
-20.59649366617274
 20
37.939191292293
 30
0.0
  0
VERTEX
  5
AE1
  8
LAYER_1
 10
-20.53709392378424
 20
38.3988955724392
 30
0.0
  0
VERTEX
  5
AE2
  8
LAYER_1
 10
-20.48848765393893
 20
38.84911276381492
 30
0.0
  0
VERTEX
  5
AE3
  8
LAYER_1
 10
-20.45133129382222
 20
39.28678840307374
 30
0.0
  0
VERTEX
  5
AE4
  8
LAYER_1
 10
-20.4262812806195
 20
39.70886802686923
 30
0.0
  0
VERTEX
  5
AE5
  8
LAYER_1
 10
-20.37796475620594
 20
40.7722094396575
 30
0.0
  0
VERTEX
  5
AE6
  8
LAYER_1
 10
-22.53749791532755
 20
40.72889285497153
 30
0.0
  0
VERTEX
  5
AE7
  8
LAYER_1
 10
-34.46249838918447
 20
40.55860558991084
 30
0.0
  0
VERTEX
  5
AE8
  8
LAYER_1
 10
-37.91249852627516
 20
40.43535427884578
 30
0.0
  0
VERTEX
  5
AE9
  8
LAYER_1
 10
-38.26946749913415
 20
40.36696047152545
 30
0.0
  0
VERTEX
  5
AEA
  8
LAYER_1
 10
-38.50850183924888
 20
40.31825265367178
 30
0.0
  0
VERTEX
  5
AEB
  8
LAYER_1
 10
-38.58277651714437
 20
40.29611982742708
 30
0.0
  0
VERTEX
  5
AEC
  8
LAYER_1
 10
-38.63455960395305
 20
40.27020720020426
 30
0.0
  0
VERTEX
  5
AED
  8
LAYER_1
 10
-38.66960365244078
 20
40.23656937992864
 30
0.0
  0
VERTEX
  5
AEE
  8
LAYER_1
 10
-38.69366121537338
 20
40.19126097452556
 30
0.0
  0
VERTEX
  5
AEF
  8
LAYER_1
 10
-38.7318270956366
 20
40.04985084003835
 30
0.0
  0
VERTEX
  5
AF0
  8
LAYER_1
 10
-38.74141999959168
 20
39.99265876794176
 30
0.0
  0
VERTEX
  5
AF1
  8
LAYER_1
 10
-38.73951416622236
 20
39.94093688635088
 30
0.0
  0
VERTEX
  5
AF2
  8
LAYER_1
 10
-38.72318058789098
 20
39.89104968202979
 30
0.0
  0
VERTEX
  5
AF3
  8
LAYER_1
 10
-38.68949025695986
 20
39.83936164174254
 30
0.0
  0
VERTEX
  5
AF4
  8
LAYER_1
 10
-38.63551416579131
 20
39.78223725225322
 30
0.0
  0
VERTEX
  5
AF5
  8
LAYER_1
 10
-38.55832330674767
 20
39.71604100032589
 30
0.0
  0
VERTEX
  5
AF6
  8
LAYER_1
 10
-38.3225812544844
 20
39.54189085621354
 30
0.0
  0
VERTEX
  5
AF7
  8
LAYER_1
 10
-38.08615128641677
 20
39.38870143029433
 30
0.0
  0
VERTEX
  5
AF8
  8
LAYER_1
 10
-37.77747603820164
 20
39.20860963669705
 30
0.0
  0
VERTEX
  5
AF9
  8
LAYER_1
 10
-37.43655968472335
 20
39.02407073799716
 30
0.0
  0
VERTEX
  5
AFA
  8
LAYER_1
 10
-37.10340640086623
 20
38.85753999677017
 30
0.0
  0
VERTEX
  5
AFB
  8
LAYER_1
 10
-35.58749843388796
 20
38.13813581022042
 30
0.0
  0
VERTEX
  5
AFC
  8
LAYER_1
 10
-34.12499837577343
 20
37.44321581364945
 30
0.0
  0
VERTEX
  5
AFD
  8
LAYER_1
 10
-32.81249832361937
 20
36.82375459477973
 30
0.0
  0
VERTEX
  5
AFE
  8
LAYER_1
 10
-31.42499826848507
 20
36.16751344012999
 30
0.0
  0
VERTEX
  5
AFF
  8
LAYER_1
 10
-28.38749814778566
 20
34.72675905495331
 30
0.0
  0
VERTEX
  5
B00
  8
LAYER_1
 10
-27.0749980956316
 20
34.10538932645612
 30
0.0
  0
VERTEX
  5
B01
  8
LAYER_1
 10
-26.51249807327986
 20
33.83785890495051
 30
0.0
  0
VERTEX
  5
B02
  8
LAYER_1
 10
-24.28581163545268
 20
32.77500428259373
 30
0.0
  0
VERTEX
  5
B03
  8
LAYER_1
 10
-24.22737646879995
 20
32.77500428259373
 30
0.0
  0
VERTEX
  5
B04
  8
LAYER_1
 10
-22.41038070462047
 20
31.87500424683094
 30
0.0
  0
VERTEX
  5
B05
  8
LAYER_1
 10
-22.33886230613116
 20
31.87500424683094
 30
0.0
  0
VERTEX
  5
B06
  8
LAYER_1
 10
-22.30251807360045
 20
31.89552706121751
 30
0.0
  0
VERTEX
  5
B07
  8
LAYER_1
 10
-22.25642974173174
 20
31.95140601127994
 30
0.0
  0
VERTEX
  5
B08
  8
LAYER_1
 10
-22.20650984097969
 20
32.03410685737234
 30
0.0
  0
SEQEND
  5
D07
  8
LAYER_1
  0
POLYLINE
  5
7F
  8
LAYER_1
 66
     1
 10
0.0
 20
0.0
 30
0.0
 70
     1
  0
VERTEX
  5
B09
  8
LAYER_1
 10
-43.04951316544359
 20
39.2906271401697
 30
0.0
  0
VERTEX
  5
B0A
  8
LAYER_1
 10
-42.84750067403441
 20
39.36996662825539
 30
0.0
  0
VERTEX
  5
B0B
  8
LAYER_1
 10
-42.62579080703477
 20
39.4741669389048
 30
0.0
  0
VERTEX
  5
B0C
  8
LAYER_1
 10
-42.46798680735748
 20
39.56843570185224
 30
0.0
  0
VERTEX
  5
B0D
  8
LAYER_1
 10
-42.32378472822228
 20
39.67995857835569
 30
0.0
  0
VERTEX
  5
B0E
  8
LAYER_1
 10
-42.19363229589189
 20
39.80694052046466
 30
0.0
  0
VERTEX
  5
B0F
  8
LAYER_1
 10
-42.077977236629
 20
39.94758648022861
 30
0.0
  0
VERTEX
  5
B10
  8
LAYER_1
 10
-41.97726727669631
 20
40.10010140969703
 30
0.0
  0
VERTEX
  5
B11
  8
LAYER_1
 10
-41.89195014235651
 20
40.26269026091938
 30
0.0
  0
VERTEX
  5
B12
  8
LAYER_1
 10
-41.82247355987229
 20
40.43355798594516
 30
0.0
  0
VERTEX
  5
B13
  8
LAYER_1
 10
-41.76928525550636
 20
40.61090953682384
 30
0.0
  0
VERTEX
  5
B14
  8
LAYER_1
 10
-41.73283295552141
 20
40.7929498656049
 30
0.0
  0
VERTEX
  5
B15
  8
LAYER_1
 10
-41.71356438618015
 20
40.97788392433782
 30
0.0
  0
VERTEX
  5
B16
  8
LAYER_1
 10
-41.71192727374525
 20
41.16391666507207
 30
0.0
  0
VERTEX
  5
B17
  8
LAYER_1
 10
-41.72836934447943
 20
41.34925303985712
 30
0.0
  0
VERTEX
  5
B18
  8
LAYER_1
 10
-41.76333832464538
 20
41.53209800074248
 30
0.0
  0
VERTEX
  5
B19
  8
LAYER_1
 10
-41.81728194050579
 20
41.71065649977761
 30
0.0
  0
VERTEX
  5
B1A
  8
LAYER_1
 10
-41.89064791832337
 20
41.883133489012
 30
0.0
  0
VERTEX
  5
B1B
  8
LAYER_1
 10
-41.98388398436079
 20
42.04773392049512
 30
0.0
  0
VERTEX
  5
B1C
  8
LAYER_1
 10
-42.10949244116027
 20
42.22104958649632
 30
0.0
  0
VERTEX
  5
B1D
  8
LAYER_1
 10
-42.24914516309893
 20
42.37508802330358
 30
0.0
  0
VERTEX
  5
B1E
  8
LAYER_1
 10
-42.40124282802874
 20
42.50965022360937
 30
0.0
  0
VERTEX
  5
B1F
  8
LAYER_1
 10
-42.56418611380164
 20
42.62453718010624
 30
0.0
  0
VERTEX
  5
B20
  8
LAYER_1
 10
-42.73637569826958
 20
42.71954988548669
 30
0.0
  0
VERTEX
  5
B21
  8
LAYER_1
 10
-42.91621225928451
 20
42.79448933244323
 30
0.0
  0
VERTEX
  5
B22
  8
LAYER_1
 10
-43.10209647469839
 20
42.84915651366837
 30
0.0
  0
VERTEX
  5
B23
  8
LAYER_1
 10
-43.29242902236317
 20
42.88335242185462
 30
0.0
  0
VERTEX
  5
B24
  8
LAYER_1
 10
-43.4856105801308
 20
42.8968780496945
 30
0.0
  0
VERTEX
  5
B25
  8
LAYER_1
 10
-43.68004182585322
 20
42.88953438988052
 30
0.0
  0
VERTEX
  5
B26
  8
LAYER_1
 10
-43.87412343738239
 20
42.8611224351052
 30
0.0
  0
VERTEX
  5
B27
  8
LAYER_1
 10
-44.06625609257027
 20
42.81144317806105
 30
0.0
  0
VERTEX
  5
B28
  8
LAYER_1
 10
-44.25484046926879
 20
42.74029761144057
 30
0.0
  0
VERTEX
  5
B29
  8
LAYER_1
 10
-44.43827724532991
 20
42.64748672793629
 30
0.0
  0
VERTEX
  5
B2A
  8
LAYER_1
 10
-44.61496709860558
 20
42.53281152024071
 30
0.0
  0
VERTEX
  5
B2B
  8
LAYER_1
 10
-44.78331070694776
 20
42.39607298104634
 30
0.0
  0
VERTEX
  5
B2C
  8
LAYER_1
 10
-44.89464893854804
 20
42.27880046094369
 30
0.0
  0
VERTEX
  5
B2D
  8
LAYER_1
 10
-45.00200314988314
 20
42.13458857434032
 30
0.0
  0
VERTEX
  5
B2E
  8
LAYER_1
 10
-45.10202574864027
 20
41.97070898556031
 30
0.0
  0
VERTEX
  5
B2F
  8
LAYER_1
 10
-45.19136914250662
 20
41.79443335892769
 30
0.0
  0
VERTEX
  5
B30
  8
LAYER_1
 10
-45.26668573916939
 20
41.61303335876654
 30
0.0
  0
VERTEX
  5
B31
  8
LAYER_1
 10
-45.32462794631579
 20
41.43378064940091
 30
0.0
  0
VERTEX
  5
B32
  8
LAYER_1
 10
-45.36184817163301
 20
41.26394689515486
 30
0.0
  0
VERTEX
  5
B33
  8
LAYER_1
 10
-45.37499882280827
 20
41.11080376035244
 30
0.0
  0
VERTEX
  5
B34
  8
LAYER_1
 10
-45.36970317576144
 20
40.98943280700205
 30
0.0
  0
VERTEX
  5
B35
  8
LAYER_1
 10
-45.35415614772842
 20
40.86627618660757
 30
0.0
  0
VERTEX
  5
B36
  8
LAYER_1
 10
-45.32886760837032
 20
40.74217000233183
 30
0.0
  0
VERTEX
  5
B37
  8
LAYER_1
 10
-45.29434742734828
 20
40.61795035733762
 30
0.0
  0
VERTEX
  5
B38
  8
LAYER_1
 10
-45.25110547432347
 20
40.49445335478774
 30
0.0
  0
VERTEX
  5
B39
  8
LAYER_1
 10
-45.19965161895701
 20
40.372515097845
 30
0.0
  0
VERTEX
  5
B3A
  8
LAYER_1
 10
-45.14049573091005
 20
40.25297168967218
 30
0.0
  0
VERTEX
  5
B3B
  8
LAYER_1
 10
-45.07414767984371
 20
40.13665923343208
 30
0.0
  0
VERTEX
  5
B3C
  8
LAYER_1
 10
-45.00111733541916
 20
40.02441383228752
 30
0.0
  0
VERTEX
  5
B3D
  8
LAYER_1
 10
-44.92191456729753
 20
39.91707158940129
 30
0.0
  0
VERTEX
  5
B3E
  8
LAYER_1
 10
-44.83704924513995
 20
39.81546860793618
 30
0.0
  0
VERTEX
  5
B3F
  8
LAYER_1
 10
-44.74703123860758
 20
39.72044099105501
 30
0.0
  0
VERTEX
  5
B40
  8
LAYER_1
 10
-44.65237041736156
 20
39.63282484192057
 30
0.0
  0
VERTEX
  5
B41
  8
LAYER_1
 10
-44.55357665106301
 20
39.55345626369564
 30
0.0
  0
VERTEX
  5
B42
  8
LAYER_1
 10
-44.4511598093731
 20
39.48317135954305
 30
0.0
  0
VERTEX
  5
B43
  8
LAYER_1
 10
-44.34562976195294
 20
39.42280623262559
 30
0.0
  0
VERTEX
  5
B44
  8
LAYER_1
 10
-44.22008648625387
 20
39.37172175939395
 30
0.0
  0
VERTEX
  5
B45
  8
LAYER_1
 10
-44.06228349456271
 20
39.32828497277312
 30
0.0
  0
VERTEX
  5
B46
  8
LAYER_1
 10
-43.88314045932341
 20
39.29360947041122
 30
0.0
  0
VERTEX
  5
B47
  8
LAYER_1
 10
-43.69357705297993
 20
39.26880884995636
 30
0.0
  0
VERTEX
  5
B48
  8
LAYER_1
 10
-43.50451294797625
 20
39.25499670905666
 30
0.0
  0
VERTEX
  5
B49
  8
LAYER_1
 10
-43.32686781675632
 20
39.25328664536023
 30
0.0
  0
VERTEX
  5
B4A
  8
LAYER_1
 10
-43.17156133176411
 20
39.26479225651521
 30
0.0
  0
SEQEND
  5
D08
  8
LAYER_1
  0
POLYLINE
  5
80
  8
LAYER_1
 66
     1
 10
0.0
 20
0.0
 30
0.0
 70
     1
  0
VERTEX
  5
B4B
  8
LAYER_1
 10
-59.96249940246344
 20
41.57820066985045
 30
0.0
  0
VERTEX
  5
B4C
  8
LAYER_1
 10
-55.76249923557043
 20
41.67966435407504
 30
0.0
  0
VERTEX
  5
B4D
  8
LAYER_1
 10
-49.49367523665717
 20
41.70000463724136
 30
0.0
  0
VERTEX
  5
B4E
  8
LAYER_1
 10
-48.33749894052744
 20
41.9383688652913
 30
0.0
  0
VERTEX
  5
B4F
  8
LAYER_1
 10
-48.32806601567943
 20
41.95043675648175
 30
0.0
  0
VERTEX
  5
B50
  8
LAYER_1
 10
-48.27420615921197
 20
42.11250465363264
 30
0.0
  0
VERTEX
  5
B51
  8
LAYER_1
 10
-48.26736557561035
 20
42.15793021674136
 30
0.0
  0
VERTEX
  5
B52
  8
LAYER_1
 10
-48.27611164800828
 20
42.20394891660861
 30
0.0
  0
VERTEX
  5
B53
  8
LAYER_1
 10
-48.30338126197911
 20
42.25348464051114
 30
0.0
  0
VERTEX
  5
B54
  8
LAYER_1
 10
-48.35211130309617
 20
42.30946127572571
 30
0.0
  0
VERTEX
  5
B55
  8
LAYER_1
 10
-48.42523865693277
 20
42.37480270952906
 30
0.0
  0
VERTEX
  5
B56
  8
LAYER_1
 10
-48.52570020906225
 20
42.45243282919795
 30
0.0
  0
VERTEX
  5
B57
  8
LAYER_1
 10
-48.82037345049319
 20
42.65625467523932
 30
0.0
  0
VERTEX
  5
B58
  8
LAYER_1
 10
-49.41096767339383
 20
43.05000469088554
 30
0.0
  0
VERTEX
  5
B59
  8
LAYER_1
 10
-49.46012773667036
 20
43.05000469088554
 30
0.0
  0
VERTEX
  5
B5A
  8
LAYER_1
 10
-49.60914680401294
 20
43.10230772505363
 30
0.0
  0
VERTEX
  5
B5B
  8
LAYER_1
 10
-49.89839340898018
 20
43.22805757315987
 30
0.0
  0
VERTEX
  5
B5C
  8
LAYER_1
 10
-50.28749901801348
 20
43.40611045543423
 30
0.0
  0
VERTEX
  5
B5D
  8
LAYER_1
 10
-52.08749908953905
 20
44.23433981322441
 30
0.0
  0
VERTEX
  5
B5E
  8
LAYER_1
 10
-52.46249910444021
 20
44.39796990408072
 30
0.0
  0
VERTEX
  5
B5F
  8
LAYER_1
 10
-53.362499140203
 20
44.81300781890724
 30
0.0
  0
VERTEX
  5
B60
  8
LAYER_1
 10
-53.88749916106462
 20
45.06441564287741
 30
0.0
  0
VERTEX
  5
B61
  8
LAYER_1
 10
-56.43749926239252
 20
46.22010873821709
 30
0.0
  0
VERTEX
  5
B62
  8
LAYER_1
 10
-56.99999928474426
 20
46.48088235171257
 30
0.0
  0
VERTEX
  5
B63
  8
LAYER_1
 10
-58.31249933689833
 20
47.07813002045992
 30
0.0
  0
VERTEX
  5
B64
  8
LAYER_1
 10
-59.41206330306333
 20
47.5760204916979
 30
0.0
  0
VERTEX
  5
B65
  8
LAYER_1
 10
-60.54662065142679
 20
48.10493964343596
 30
0.0
  0
VERTEX
  5
B66
  8
LAYER_1
 10
-61.2807419063506
 20
48.45000490546227
 30
0.0
  0
VERTEX
  5
B67
  8
LAYER_1
 10
-61.37038792583382
 20
48.45000490546227
 30
0.0
  0
VERTEX
  5
B68
  8
LAYER_1
 10
-61.97894371630269
 20
48.74458647272444
 30
0.0
  0
VERTEX
  5
B69
  8
LAYER_1
 10
-62.72691035473176
 20
49.09851435983445
 30
0.0
  0
VERTEX
  5
B6A
  8
LAYER_1
 10
-63.88124955818057
 20
49.61723774967884
 30
0.0
  0
VERTEX
  5
B6B
  8
LAYER_1
 10
-64.25702903405417
 20
49.78945744968766
 30
0.0
  0
VERTEX
  5
B6C
  8
LAYER_1
 10
-64.55491370730354
 20
49.93357363989497
 30
0.0
  0
VERTEX
  5
B6D
  8
LAYER_1
 10
-64.67144309377935
 20
49.98648592834412
 30
0.0
  0
VERTEX
  5
B6E
  8
LAYER_1
 10
-64.76081864202604
 20
50.01063696670243
 30
0.0
  0
VERTEX
  5
B6F
  8
LAYER_1
 10
-64.82840864317717
 20
50.0067187255736
 30
0.0
  0
VERTEX
  5
B70
  8
LAYER_1
 10
-64.87958138836635
 20
49.97542317556132
 30
0.0
  0
VERTEX
  5
B71
  8
LAYER_1
 10
-64.9618349374425
 20
49.89316962648508
 30
0.0
  0
VERTEX
  5
B72
  8
LAYER_1
 10
-65.86144480442738
 20
47.21250485628843
 30
0.0
  0
VERTEX
  5
B73
  8
LAYER_1
 10
-65.9929685247839
 20
46.61250483244658
 30
0.0
  0
VERTEX
  5
B74
  8
LAYER_1
 10
-66.17168077666383
 20
45.7500047981739
 30
0.0
  0
VERTEX
  5
B75
  8
LAYER_1
 10
-66.32492140637177
 20
44.97562976740301
 30
0.0
  0
VERTEX
  5
B76
  8
LAYER_1
 10
-66.44239337515734
 20
44.32500474154949
 30
0.0
  0
VERTEX
  5
B77
  8
LAYER_1
 10
-66.53439372177093
 20
43.76250471919775
 30
0.0
  0
VERTEX
  5
B78
  8
LAYER_1
 10
-66.62277283081136
 20
41.5500046312809
 30
0.0
  0
SEQEND
  5
D09
  8
LAYER_1
  0
POLYLINE
  5
81
  8
LAYER_1
 66
     1
 10
0.0
 20
0.0
 30
0.0
 70
     1
  0
VERTEX
  5
B79
  8
LAYER_1
 10
-34.53749839216471
 20
41.94556194078535
 30
0.0
  0
VERTEX
  5
B7A
  8
LAYER_1
 10
-28.53749815374613
 20
42.05310677487644
 30
0.0
  0
VERTEX
  5
B7B
  8
LAYER_1
 10
-20.38852778438677
 20
42.17395821213384
 30
0.0
  0
VERTEX
  5
B7C
  8
LAYER_1
 10
-20.43411713565638
 20
42.81823145970533
 30
0.0
  0
VERTEX
  5
B7D
  8
LAYER_1
 10
-20.47770494803163
 20
43.31166085470432
 30
0.0
  0
VERTEX
  5
B7E
  8
LAYER_1
 10
-20.54081843656911
 20
43.85243120247634
 30
0.0
  0
VERTEX
  5
B7F
  8
LAYER_1
 10
-20.6204518836564
 20
44.42284235220845
 30
0.0
  0
VERTEX
  5
B80
  8
LAYER_1
 10
-20.71359957168105
 20
45.00519415308774
 30
0.0
  0
VERTEX
  5
B81
  8
LAYER_1
 10
-20.81725578303062
 20
45.58178645430127
 30
0.0
  0
VERTEX
  5
B82
  8
LAYER_1
 10
-20.92841480009266
 20
46.13491910503613
 30
0.0
  0
VERTEX
  5
B83
  8
LAYER_1
 10
-21.04407090525473
 20
46.64689195447937
 30
0.0
  0
VERTEX
  5
B84
  8
LAYER_1
 10
-21.1612183809044
 20
47.10000485181808
 30
0.0
  0
VERTEX
  5
B85
  8
LAYER_1
 10
-21.32853750263504
 20
47.66943120895253
 30
0.0
  0
VERTEX
  5
B86
  8
LAYER_1
 10
-21.52452651078457
 20
48.29727820738503
 30
0.0
  0
VERTEX
  5
B87
  8
LAYER_1
 10
-21.70541341546209
 20
48.84680104870942
 30
0.0
  0
VERTEX
  5
B88
  8
LAYER_1
 10
-21.82742622677672
 20
49.18125493451953
 30
0.0
  0
VERTEX
  5
B89
  8
LAYER_1
 10
-22.20823920481912
 20
50.10000497102737
 30
0.0
  0
VERTEX
  5
B8A
  8
LAYER_1
 10
-22.3411425984183
 20
50.40930240282414
 30
0.0
  0
VERTEX
  5
B8B
  8
LAYER_1
 10
-22.39361138851495
 20
50.51737625948324
 30
0.0
  0
VERTEX
  5
B8C
  8
LAYER_1
 10
-22.42717959858248
 20
50.57367705625414
 30
0.0
  0
VERTEX
  5
B8D
  8
LAYER_1
 10
-22.47984204584597
 20
50.63484912508962
 30
0.0
  0
VERTEX
  5
B8E
  8
LAYER_1
 10
-24.42117005658268
 20
49.68418525585163
 30
0.0
  0
VERTEX
  5
B8F
  8
LAYER_1
 10
-28.04999813437462
 20
47.9074976265759
 30
0.0
  0
VERTEX
  5
B90
  8
LAYER_1
 10
-29.73749820142984
 20
47.0814738665381
 30
0.0
  0
VERTEX
  5
B91
  8
LAYER_1
 10
-34.38749838620424
 20
44.7973134223592
 30
0.0
  0
VERTEX
  5
B92
  8
LAYER_1
 10
-37.64990085815094
 20
43.20000469684601
 30
0.0
  0
VERTEX
  5
B93
  8
LAYER_1
 10
-37.71144979379955
 20
43.20000469684601
 30
0.0
  0
VERTEX
  5
B94
  8
LAYER_1
 10
-37.75860570134653
 20
43.18032380446516
 30
0.0
  0
VERTEX
  5
B95
  8
LAYER_1
 10
-37.84150151488667
 20
43.12673721629949
 30
0.0
  0
VERTEX
  5
B96
  8
LAYER_1
 10
-38.06774863680236
 20
42.95058348647487
 30
0.0
  0
VERTEX
  5
B97
  8
LAYER_1
 10
-38.34465477952693
 20
42.73448182606475
 30
0.0
  0
VERTEX
  5
B98
  8
LAYER_1
 10
-38.5965037208567
 20
42.565169320919
 30
0.0
  0
VERTEX
  5
B99
  8
LAYER_1
 10
-38.68740013851897
 20
42.50189175966868
 30
0.0
  0
VERTEX
  5
B9A
  8
LAYER_1
 10
-38.75070579395818
 20
42.43496920448844
 30
0.0
  0
VERTEX
  5
B9B
  8
LAYER_1
 10
-38.78655216457904
 20
42.3661643866138
 30
0.0
  0
VERTEX
  5
B9C
  8
LAYER_1
 10
-38.79507072778627
 20
42.2972400372803
 30
0.0
  0
VERTEX
  5
B9D
  8
LAYER_1
 10
-38.77639296098461
 20
42.22995888772348
 30
0.0
  0
VERTEX
  5
B9E
  8
LAYER_1
 10
-38.73065034157879
 20
42.16608366917886
 30
0.0
  0
VERTEX
  5
B9F
  8
LAYER_1
 10
-38.65797434697356
 20
42.107377112882
 30
0.0
  0
VERTEX
  5
BA0
  8
LAYER_1
 10
-38.55849645457361
 20
42.05560195006841
 30
0.0
  0
VERTEX
  5
BA1
  8
LAYER_1
 10
-38.36249854415655
 20
41.97270755347726
 30
0.0
  0
SEQEND
  5
D0A
  8
LAYER_1
  0
POLYLINE
  5
82
  8
LAYER_1
 66
     1
 10
0.0
 20
0.0
 30
0.0
 70
     1
  0
VERTEX
  5
BA2
  8
LAYER_1
 10
-47.37914147232362
 20
44.06301360397423
 30
0.0
  0
VERTEX
  5
BA3
  8
LAYER_1
 10
-47.3072399945248
 20
44.17226689462692
 30
0.0
  0
VERTEX
  5
BA4
  8
LAYER_1
 10
-47.29077488931676
 20
44.21630891115694
 30
0.0
  0
VERTEX
  5
BA5
  8
LAYER_1
 10
-47.28789826268692
 20
44.25991897686082
 30
0.0
  0
VERTEX
  5
BA6
  8
LAYER_1
 10
-47.29905865672323
 20
44.30806544301709
 30
0.0
  0
VERTEX
  5
BA7
  8
LAYER_1
 10
-47.32470461351367
 20
44.36571666090428
 30
0.0
  0
VERTEX
  5
BA8
  8
LAYER_1
 10
-47.42124738370883
 20
44.52940675698559
 30
0.0
  0
VERTEX
  5
BA9
  8
LAYER_1
 10
-47.57212885532581
 20
44.79543847489131
 30
0.0
  0
VERTEX
  5
BAA
  8
LAYER_1
 10
-47.68849109795329
 20
45.0375047698617
 30
0.0
  0
VERTEX
  5
BAB
  8
LAYER_1
 10
-47.74907104347014
 20
45.15300958463727
 30
0.0
  0
VERTEX
  5
BAC
  8
LAYER_1
 10
-47.84616939330472
 20
45.30117553410015
 30
0.0
  0
VERTEX
  5
BAD
  8
LAYER_1
 10
-47.96640212208763
 20
45.46291738701861
 30
0.0
  0
VERTEX
  5
BAE
  8
LAYER_1
 10
-48.09638520444948
 20
45.61914991216096
 30
0.0
  0
VERTEX
  5
BAF
  8
LAYER_1
 10
-48.5769777832269
 20
46.18164993451271
 30
0.0
  0
VERTEX
  5
BB0
  8
LAYER_1
 10
-49.27334654307522
 20
47.04496196349885
 30
0.0
  0
VERTEX
  5
BB1
  8
LAYER_1
 10
-49.75114942356754
 20
47.62500487267971
 30
0.0
  0
VERTEX
  5
BB2
  8
LAYER_1
 10
-49.91249900311232
 20
47.81250488013029
 30
0.0
  0
VERTEX
  5
BB3
  8
LAYER_1
 10
-51.10837068516298
 20
49.31250493973494
 30
0.0
  0
VERTEX
  5
BB4
  8
LAYER_1
 10
-51.3270501303778
 20
49.53750494867563
 30
0.0
  0
VERTEX
  5
BB5
  8
LAYER_1
 10
-52.76249911636114
 20
51.31530213846544
 30
0.0
  0
VERTEX
  5
BB6
  8
LAYER_1
 10
-52.98787541483204
 20
51.59389619617372
 30
0.0
  0
VERTEX
  5
BB7
  8
LAYER_1
 10
-53.57925317892788
 20
52.32171418125506
 30
0.0
  0
VERTEX
  5
BB8
  8
LAYER_1
 10
-53.81566547929253
 20
52.60256424254786
 30
0.0
  0
VERTEX
  5
BB9
  8
LAYER_1
 10
-53.89383180348091
 20
52.68750507384539
 30
0.0
  0
VERTEX
  5
BBA
  8
LAYER_1
 10
-55.51517773696889
 20
54.71250515431166
 30
0.0
  0
VERTEX
  5
BBB
  8
LAYER_1
 10
-55.86383849521036
 20
55.11907183650735
 30
0.0
  0
VERTEX
  5
BBC
  8
LAYER_1
 10
-56.15414265746928
 20
55.4653248782706
 30
0.0
  0
VERTEX
  5
BBD
  8
LAYER_1
 10
-56.36249925941229
 20
55.72688216963945
 30
0.0
  0
VERTEX
  5
BBE
  8
LAYER_1
 10
-56.77401992644599
 20
56.25140543141329
 30
0.0
  0
VERTEX
  5
BBF
  8
LAYER_1
 10
-57.29999929666519
 20
56.88887882459696
 30
0.0
  0
VERTEX
  5
BC0
  8
LAYER_1
 10
-57.93941361163229
 20
57.65603668511794
 30
0.0
  0
VERTEX
  5
BC1
  8
LAYER_1
 10
-58.14746376772386
 20
57.91516279212539
 30
0.0
  0
VERTEX
  5
BC2
  8
LAYER_1
 10
-58.27228486505639
 20
58.0805457250456
 30
0.0
  0
VERTEX
  5
BC3
  8
LAYER_1
 10
-58.39846864914054
 20
58.24439654873379
 30
0.0
  0
VERTEX
  5
BC4
  8
LAYER_1
 10
-58.54767976296364
 20
58.41792445300027
 30
0.0
  0
VERTEX
  5
BC5
  8
LAYER_1
 10
-58.71328912675234
 20
58.59834361161793
 30
0.0
  0
VERTEX
  5
BC6
  8
LAYER_1
 10
-60.79094421677293
 20
56.51250522583723
 30
0.0
  0
VERTEX
  5
BC7
  8
LAYER_1
 10
-61.01422183495016
 20
56.24702146790884
 30
0.0
  0
VERTEX
  5
BC8
  8
LAYER_1
 10
-61.54483445290562
 20
55.60952144257686
 30
0.0
  0
VERTEX
  5
BC9
  8
LAYER_1
 10
-61.85216945268385
 20
55.23750517517328
 30
0.0
  0
VERTEX
  5
BCA
  8
LAYER_1
 10
-62.5006735743081
 20
54.31687775508789
 30
0.0
  0
VERTEX
  5
BCB
  8
LAYER_1
 10
-62.80512243552839
 20
53.87217326618857
 30
0.0
  0
VERTEX
  5
BCC
  8
LAYER_1
 10
-63.10625506139112
 20
53.40956605980061
 30
0.0
  0
VERTEX
  5
BCD
  8
LAYER_1
 10
-63.39258198219606
 20
52.94896223737251
 30
0.0
  0
VERTEX
  5
BCE
  8
LAYER_1
 10
-63.652613728243
 20
52.51026790035274
 30
0.0
  0
VERTEX
  5
BCF
  8
LAYER_1
 10
-63.87486082983175
 20
52.11338915018981
 30
0.0
  0
VERTEX
  5
BD0
  8
LAYER_1
 10
-64.04783381726206
 20
51.77823208833222
 30
0.0
  0
VERTEX
  5
BD1
  8
LAYER_1
 10
-64.16004322083373
 20
51.52470281622846
 30
0.0
  0
VERTEX
  5
BD2
  8
LAYER_1
 10
-64.18977111939125
 20
51.43476925803691
 30
0.0
  0
VERTEX
  5
BD3
  8
LAYER_1
 10
-64.19999957084656
 20
51.37270743532702
 30
0.0
  0
VERTEX
  5
BD4
  8
LAYER_1
 10
-64.19349383328336
 20
51.35424066844638
 30
0.0
  0
VERTEX
  5
BD5
  8
LAYER_1
 10
-64.17484820265963
 20
51.33161635363336
 30
0.0
  0
VERTEX
  5
BD6
  8
LAYER_1
 10
-64.10636675462592
 20
51.2774192574784
 30
0.0
  0
VERTEX
  5
BD7
  8
LAYER_1
 10
-64.00501421153604
 20
51.21716450139857
 30
0.0
  0
VERTEX
  5
BD8
  8
LAYER_1
 10
-63.88124955818057
 20
51.15790043993033
 30
0.0
  0
VERTEX
  5
BD9
  8
LAYER_1
 10
-63.05090926401936
 20
50.79525498784721
 30
0.0
  0
VERTEX
  5
BDA
  8
LAYER_1
 10
-62.4374995008111
 20
50.51143065164277
 30
0.0
  0
VERTEX
  5
BDB
  8
LAYER_1
 10
-62.06249948590994
 20
50.33095501714777
 30
0.0
  0
VERTEX
  5
BDC
  8
LAYER_1
 10
-59.8874993994832
 20
49.33565166177743
 30
0.0
  0
VERTEX
  5
BDD
  8
LAYER_1
 10
-59.66249939054251
 20
49.23640089439797
 30
0.0
  0
VERTEX
  5
BDE
  8
LAYER_1
 10
-58.78096916193442
 20
48.83640166833939
 30
0.0
  0
VERTEX
  5
BDF
  8
LAYER_1
 10
-57.73722907606282
 20
48.34606354768866
 30
0.0
  0
VERTEX
  5
BE0
  8
LAYER_1
 10
-57.01195880926686
 20
48.00000488758087
 30
0.0
  0
VERTEX
  5
BE1
  8
LAYER_1
 10
-56.92865254052637
 20
48.00000488758087
 30
0.0
  0
VERTEX
  5
BE2
  8
LAYER_1
 10
-56.15807588059782
 20
47.63509184424892
 30
0.0
  0
VERTEX
  5
BE3
  8
LAYER_1
 10
-55.01249920576811
 20
47.10467132530931
 30
0.0
  0
VERTEX
  5
BE4
  8
LAYER_1
 10
-53.66249915212393
 20
46.49790482764297
 30
0.0
  0
VERTEX
  5
BE5
  8
LAYER_1
 10
-52.72499911487103
 20
46.06916565067232
 30
0.0
  0
VERTEX
  5
BE6
  8
LAYER_1
 10
-51.45939823080116
 20
45.47782611730385
 30
0.0
  0
VERTEX
  5
BE7
  8
LAYER_1
 10
-50.60629736312258
 20
45.07500477135181
 30
0.0
  0
VERTEX
  5
BE8
  8
LAYER_1
 10
-50.55473539666397
 20
45.07500477135181
 30
0.0
  0
VERTEX
  5
BE9
  8
LAYER_1
 10
-50.43156445137328
 20
45.03352549676075
 30
0.0
  0
VERTEX
  5
BEA
  8
LAYER_1
 10
-50.20783621665883
 20
44.93379873019076
 30
0.0
  0
VERTEX
  5
BEB
  8
LAYER_1
 10
-49.18789595832805
 20
44.44629871081925
 30
0.0
  0
VERTEX
  5
BEC
  8
LAYER_1
 10
-48.46329291354378
 20
44.1000047326088
 30
0.0
  0
VERTEX
  5
BED
  8
LAYER_1
 10
-48.31607541292738
 20
44.1000047326088
 30
0.0
  0
VERTEX
  5
BEE
  8
LAYER_1
 10
-48.23375365049533
 20
44.09112777913106
 30
0.0
  0
VERTEX
  5
BEF
  8
LAYER_1
 10
-48.11843822446524
 20
44.06695785629563
 30
0.0
  0
VERTEX
  5
BF0
  8
LAYER_1
 10
-47.84999892115593
 20
43.98750472813845
 30
0.0
  0
VERTEX
  5
BF1
  8
LAYER_1
 10
-47.52181941887289
 20
43.87736158928318
 30
0.0
  0
SEQEND
  5
D0B
  8
LAYER_1
  0
POLYLINE
  5
83
  8
LAYER_1
 66
     1
 10
0.0
 20
0.0
 30
0.0
 70
     1
  0
VERTEX
  5
BF2
  8
LAYER_1
 10
-39.22499857842922
 20
44.13750473409891
 30
0.0
  0
VERTEX
  5
BF3
  8
LAYER_1
 10
-38.99734513806813
 20
44.21057444856568
 30
0.0
  0
VERTEX
  5
BF4
  8
LAYER_1
 10
-38.89520140981997
 20
44.23410692157029
 30
0.0
  0
VERTEX
  5
BF5
  8
LAYER_1
 10
-38.81862517908153
 20
44.24429889392978
 30
0.0
  0
VERTEX
  5
BF6
  8
LAYER_1
 10
-38.67475179016465
 20
44.25000473856926
 30
0.0
  0
VERTEX
  5
BF7
  8
LAYER_1
 10
-36.94362510457572
 20
45.10536822165048
 30
0.0
  0
VERTEX
  5
BF8
  8
LAYER_1
 10
-33.5016598507692
 20
46.79327396361404
 30
0.0
  0
VERTEX
  5
BF9
  8
LAYER_1
 10
-29.97665971069829
 20
48.51771923922092
 30
0.0
  0
VERTEX
  5
BFA
  8
LAYER_1
 10
-28.16249813884497
 20
49.40962225594542
 30
0.0
  0
VERTEX
  5
BFB
  8
LAYER_1
 10
-23.23870202471992
 20
51.82500503957272
 30
0.0
  0
VERTEX
  5
BFC
  8
LAYER_1
 10
-23.1693499811996
 20
51.82500503957272
 30
0.0
  0
VERTEX
  5
BFD
  8
LAYER_1
 10
-23.13210103758565
 20
51.83207703472946
 30
0.0
  0
VERTEX
  5
BFE
  8
LAYER_1
 10
-23.11088564074916
 20
51.85501082358562
 30
0.0
  0
VERTEX
  5
BFF
  8
LAYER_1
 10
-23.10648058928745
 20
51.89638311122013
 30
0.0
  0
VERTEX
  5
C00
  8
LAYER_1
 10
-23.11966268179784
 20
51.95877060271191
 30
0.0
  0
VERTEX
  5
C01
  8
LAYER_1
 10
-23.15120871687766
 20
52.04475000313986
 30
0.0
  0
VERTEX
  5
C02
  8
LAYER_1
 10
-23.20189549312422
 20
52.15689801758291
 30
0.0
  0
VERTEX
  5
C03
  8
LAYER_1
 10
-23.36379846350687
 20
52.47000670882997
 30
0.0
  0
VERTEX
  5
C04
  8
LAYER_1
 10
-23.60003748190807
 20
52.88556290651816
 30
0.0
  0
VERTEX
  5
C05
  8
LAYER_1
 10
-23.87985580405904
 20
53.34018672462762
 30
0.0
  0
VERTEX
  5
C06
  8
LAYER_1
 10
-24.19522951074675
 20
53.82247915518114
 30
0.0
  0
VERTEX
  5
C07
  8
LAYER_1
 10
-24.53813468275819
 20
54.32104119020148
 30
0.0
  0
VERTEX
  5
C08
  8
LAYER_1
 10
-24.90054740088033
 20
54.82447382171141
 30
0.0
  0
VERTEX
  5
C09
  8
LAYER_1
 10
-25.27444374590015
 20
55.32137804173369
 30
0.0
  0
VERTEX
  5
C0A
  8
LAYER_1
 10
-25.65179979860464
 20
55.80035484229111
 30
0.0
  0
VERTEX
  5
C0B
  8
LAYER_1
 10
-26.02459163978077
 20
56.25000521540642
 30
0.0
  0
VERTEX
  5
C0C
  8
LAYER_1
 10
-26.39621810502761
 20
56.66156135155463
 30
0.0
  0
VERTEX
  5
C0D
  8
LAYER_1
 10
-26.88589916420637
 20
57.17052898638714
 30
0.0
  0
VERTEX
  5
C0E
  8
LAYER_1
 10
-27.4245895432571
 20
57.7067347551008
 30
0.0
  0
VERTEX
  5
C0F
  8
LAYER_1
 10
-27.94324396811984
 20
58.20000529289246
 30
0.0
  0
VERTEX
  5
C10
  8
LAYER_1
 10
-28.44464935877614
 20
58.66085627255922
 30
0.0
  0
VERTEX
  5
C11
  8
LAYER_1
 10
-28.59823904141743
 20
58.79582870117774
 30
0.0
  0
VERTEX
  5
C12
  8
LAYER_1
 10
-28.7036994861211
 20
58.87879048817203
 30
0.0
  0
VERTEX
  5
C13
  8
LAYER_1
 10
-28.77349027077738
 20
58.91846018293133
 30
0.0
  0
VERTEX
  5
C14
  8
LAYER_1
 10
-28.82007097327647
 20
58.92355633484489
 30
0.0
  0
VERTEX
  5
C15
  8
LAYER_1
 10
-28.8559011715086
 20
58.90279749330197
 30
0.0
  0
VERTEX
  5
C16
  8
LAYER_1
 10
-28.89344044336398
 20
58.86490220769181
 30
0.0
  0
VERTEX
  5
C17
  8
LAYER_1
 10
-28.99346221385591
 20
58.7625053152442
 30
0.0
  0
VERTEX
  5
C18
  8
LAYER_1
 10
-29.95746206083893
 20
57.48750526458025
 30
0.0
  0
VERTEX
  5
C19
  8
LAYER_1
 10
-30.03498013858497
 20
57.39115246729318
 30
0.0
  0
VERTEX
  5
C1A
  8
LAYER_1
 10
-30.1895782786195
 20
57.2036524598426
 30
0.0
  0
VERTEX
  5
C1B
  8
LAYER_1
 10
-30.266658340908
 20
57.11250524967909
 30
0.0
  0
VERTEX
  5
C1C
  8
LAYER_1
 10
-31.23749826103449
 20
55.84129660014412
 30
0.0
  0
VERTEX
  5
C1D
  8
LAYER_1
 10
-31.41726769527339
 20
55.61250519007444
 30
0.0
  0
VERTEX
  5
C1E
  8
LAYER_1
 10
-32.62086944313612
 20
54.03750512748957
 30
0.0
  0
VERTEX
  5
C1F
  8
LAYER_1
 10
-32.76692792522629
 20
53.86497545191457
 30
0.0
  0
VERTEX
  5
C20
  8
LAYER_1
 10
-33.90585162081727
 20
52.38750506192446
 30
0.0
  0
VERTEX
  5
C21
  8
LAYER_1
 10
-34.0341749990404
 20
52.225653801447
 30
0.0
  0
VERTEX
  5
C22
  8
LAYER_1
 10
-35.71079082171011
 20
50.06250496953726
 30
0.0
  0
VERTEX
  5
C23
  8
LAYER_1
 10
-36.40502173674559
 20
49.16250493377447
 30
0.0
  0
VERTEX
  5
C24
  8
LAYER_1
 10
-36.46501010394323
 20
49.13750493278106
 30
0.0
  0
VERTEX
  5
C25
  8
LAYER_1
 10
-36.48830246214418
 20
49.12211091390351
 30
0.0
  0
VERTEX
  5
C26
  8
LAYER_1
 10
-36.50737688827655
 20
49.09867732363462
 30
0.0
  0
VERTEX
  5
C27
  8
LAYER_1
 10
-36.52026501404167
 20
49.07038936029072
 30
0.0
  0
VERTEX
  5
C28
  8
LAYER_1
 10
-36.52499847114086
 20
49.04043222218816
 30
0.0
  0
VERTEX
  5
C29
  8
LAYER_1
 10
-36.52499847114086
 20
48.96835951258868
 30
0.0
  0
VERTEX
  5
C2A
  8
LAYER_1
 10
-36.99374848976731
 20
48.38612872234313
 30
0.0
  0
VERTEX
  5
C2B
  8
LAYER_1
 10
-37.74721181126322
 20
47.43320139121278
 30
0.0
  0
VERTEX
  5
C2C
  8
LAYER_1
 10
-38.52229628716393
 20
46.42500482499599
 30
0.0
  0
VERTEX
  5
C2D
  8
LAYER_1
 10
-39.01266746019517
 20
45.78750479966402
 30
0.0
  0
VERTEX
  5
C2E
  8
LAYER_1
 10
-39.14571215709915
 20
45.63039940133069
 30
0.0
  0
VERTEX
  5
C2F
  8
LAYER_1
 10
-39.22100209210219
 20
45.52430075895867
 30
0.0
  0
VERTEX
  5
C30
  8
LAYER_1
 10
-39.32764845292638
 20
45.35155576045132
 30
0.0
  0
VERTEX
  5
C31
  8
LAYER_1
 10
-39.57824103660328
 20
44.90176054493281
 30
0.0
  0
VERTEX
  5
C32
  8
LAYER_1
 10
-39.87772521920343
 20
44.33022708686825
 30
0.0
  0
VERTEX
  5
C33
  8
LAYER_1
 10
-39.7152780637272
 20
44.1776159082484
 30
0.0
  0
VERTEX
  5
C34
  8
LAYER_1
 10
-39.59095407576157
 20
44.07151035521098
 30
0.0
  0
VERTEX
  5
C35
  8
LAYER_1
 10
-39.54566650173655
 20
44.04053707759208
 30
0.0
  0
VERTEX
  5
C36
  8
LAYER_1
 10
-39.5201647485555
 20
44.03071057426804
 30
0.0
  0
SEQEND
  5
D0C
  8
LAYER_1
  0
POLYLINE
  5
84
  8
LAYER_1
 66
     1
 10
0.0
 20
0.0
 30
0.0
 70
     1
  0
VERTEX
  5
C37
  8
LAYER_1
 10
-45.67183913206507
 20
45.4711400399831
 30
0.0
  0
VERTEX
  5
C38
  8
LAYER_1
 10
-45.63985147455853
 20
45.50252814092028
 30
0.0
  0
VERTEX
  5
C39
  8
LAYER_1
 10
-45.61543229071155
 20
45.54273356657406
 30
0.0
  0
VERTEX
  5
C3A
  8
LAYER_1
 10
-45.59821744519805
 20
45.59587908259641
 30
0.0
  0
VERTEX
  5
C3B
  8
LAYER_1
 10
-45.5878428026919
 20
45.6660874546393
 30
0.0
  0
VERTEX
  5
C3C
  8
LAYER_1
 10
-45.58615758539722
 20
45.8741838293945
 30
0.0
  0
VERTEX
  5
C3D
  8
LAYER_1
 10
-45.60746355621866
 20
46.2000048160553
 30
0.0
  0
VERTEX
  5
C3E
  8
LAYER_1
 10
-45.65874768750672
 20
46.83750484138727
 30
0.0
  0
VERTEX
  5
C3F
  8
LAYER_1
 10
-46.36494915419458
 20
49.53750494867563
 30
0.0
  0
VERTEX
  5
C40
  8
LAYER_1
 10
-46.42829096279085
 20
49.80000495910645
 30
0.0
  0
VERTEX
  5
C41
  8
LAYER_1
 10
-46.6042624451311
 20
50.55000498890877
 30
0.0
  0
VERTEX
  5
C42
  8
LAYER_1
 10
-46.71689211887509
 20
51.03750500828028
 30
0.0
  0
VERTEX
  5
C43
  8
LAYER_1
 10
-47.56715975930047
 20
54.3375051394105
 30
0.0
  0
VERTEX
  5
C44
  8
LAYER_1
 10
-47.75401284202817
 20
55.16250517219305
 30
0.0
  0
VERTEX
  5
C45
  8
LAYER_1
 10
-49.29081276091392
 20
61.23750541359186
 30
0.0
  0
VERTEX
  5
C46
  8
LAYER_1
 10
-49.41210069374098
 20
61.76250543445349
 30
0.0
  0
VERTEX
  5
C47
  8
LAYER_1
 10
-49.8110568997497
 20
63.364502884535
 30
0.0
  0
VERTEX
  5
C48
  8
LAYER_1
 10
-50.12427796186182
 20
63.26773990230279
 30
0.0
  0
VERTEX
  5
C49
  8
LAYER_1
 10
-50.97505108596749
 20
62.98739082317708
 30
0.0
  0
VERTEX
  5
C4A
  8
LAYER_1
 10
-51.95071324248028
 20
62.63658995989513
 30
0.0
  0
VERTEX
  5
C4B
  8
LAYER_1
 10
-52.56392742522383
 20
62.40786069510565
 30
0.0
  0
VERTEX
  5
C4C
  8
LAYER_1
 10
-54.93598789691596
 20
61.2526424453236
 30
0.0
  0
VERTEX
  5
C4D
  8
LAYER_1
 10
-55.3492435662432
 20
60.9878699376813
 30
0.0
  0
VERTEX
  5
C4E
  8
LAYER_1
 10
-56.379951200941
 20
60.31954062708742
 30
0.0
  0
VERTEX
  5
C4F
  8
LAYER_1
 10
-57.05111770296666
 20
59.86311699427918
 30
0.0
  0
VERTEX
  5
C50
  8
LAYER_1
 10
-57.26829271646216
 20
59.70265904510498
 30
0.0
  0
VERTEX
  5
C51
  8
LAYER_1
 10
-57.41528607147126
 20
59.58112460104957
 30
0.0
  0
VERTEX
  5
C52
  8
LAYER_1
 10
-57.49866564288789
 20
59.49382935733703
 30
0.0
  0
VERTEX
  5
C53
  8
LAYER_1
 10
-57.51855272065335
 20
59.46155759036689
 30
0.0
  0
VERTEX
  5
C54
  8
LAYER_1
 10
-57.52499930560589
 20
59.43608900919153
 30
0.0
  0
VERTEX
  5
C55
  8
LAYER_1
 10
-57.52499930560589
 20
59.35419091672796
 30
0.0
  0
VERTEX
  5
C56
  8
LAYER_1
 10
-57.12832013868632
 20
58.87084810853551
 30
0.0
  0
VERTEX
  5
C57
  8
LAYER_1
 10
-56.21405592872046
 20
57.75000527501106
 30
0.0
  0
VERTEX
  5
C58
  8
LAYER_1
 10
-55.69647088567417
 20
57.11250524967909
 30
0.0
  0
VERTEX
  5
C59
  8
LAYER_1
 10
-55.4326324203911
 20
56.81250523775816
 30
0.0
  0
VERTEX
  5
C5A
  8
LAYER_1
 10
-53.35924245388711
 20
54.26250513643026
 30
0.0
  0
VERTEX
  5
C5B
  8
LAYER_1
 10
-53.01201863039169
 20
53.81250511854887
 30
0.0
  0
VERTEX
  5
C5C
  8
LAYER_1
 10
-52.7260639983121
 20
53.45040194759497
 30
0.0
  0
VERTEX
  5
C5D
  8
LAYER_1
 10
-52.52614695417813
 20
53.21172839147542
 30
0.0
  0
VERTEX
  5
C5E
  8
LAYER_1
 10
-52.34084895760655
 20
52.99531424280558
 30
0.0
  0
VERTEX
  5
C5F
  8
LAYER_1
 10
-52.09004224838971
 20
52.68672837061379
 30
0.0
  0
VERTEX
  5
C60
  8
LAYER_1
 10
-51.7514660816742
 20
52.27500505745411
 30
0.0
  0
VERTEX
  5
C61
  8
LAYER_1
 10
-51.71034676802895
 20
52.23750505596399
 30
0.0
  0
VERTEX
  5
C62
  8
LAYER_1
 10
-50.55592458108816
 20
50.81250499933958
 30
0.0
  0
VERTEX
  5
C63
  8
LAYER_1
 10
-50.3842117980607
 20
50.61471181000854
 30
0.0
  0
VERTEX
  5
C64
  8
LAYER_1
 10
-49.98749900609255
 20
50.12940847503987
 30
0.0
  0
VERTEX
  5
C65
  8
LAYER_1
 10
-49.20423123532261
 20
49.1647016181773
 30
0.0
  0
VERTEX
  5
C66
  8
LAYER_1
 10
-48.2476062326222
 20
48.00000488758087
 30
0.0
  0
VERTEX
  5
C67
  8
LAYER_1
 10
-47.60587394676772
 20
47.22062466696823
 30
0.0
  0
VERTEX
  5
C68
  8
LAYER_1
 10
-47.3533028923687
 20
46.90780673992268
 30
0.0
  0
VERTEX
  5
C69
  8
LAYER_1
 10
-47.08781829283274
 20
46.56558690004537
 30
0.0
  0
VERTEX
  5
C6A
  8
LAYER_1
 10
-46.893550325898
 20
46.31402437488438
 30
0.0
  0
VERTEX
  5
C6B
  8
LAYER_1
 10
-46.73426678217891
 20
46.13438612772398
 30
0.0
  0
VERTEX
  5
C6C
  8
LAYER_1
 10
-46.53657700263824
 20
45.95230594654853
 30
0.0
  0
VERTEX
  5
C6D
  8
LAYER_1
 10
-46.22709032823883
 20
45.69341761934241
 30
0.0
  0
VERTEX
  5
C6E
  8
LAYER_1
 10
-45.97907836568962
 20
45.49017558693434
 30
0.0
  0
VERTEX
  5
C6F
  8
LAYER_1
 10
-45.90162842748192
 20
45.4331813729023
 30
0.0
  0
VERTEX
  5
C70
  8
LAYER_1
 10
-45.84494585015057
 20
45.40182708416894
 30
0.0
  0
VERTEX
  5
C71
  8
LAYER_1
 10
-45.80132813281941
 20
45.39302926362232
 30
0.0
  0
VERTEX
  5
C72
  8
LAYER_1
 10
-45.76307277461223
 20
45.40370445415046
 30
0.0
  0
SEQEND
  5
D0D
  8
LAYER_1
  0
POLYLINE
  5
85
  8
LAYER_1
 66
     1
 10
0.0
 20
0.0
 30
0.0
 70
     1
  0
VERTEX
  5
C73
  8
LAYER_1
 10
-41.27904489214479
 20
45.45000478625298
 30
0.0
  0
VERTEX
  5
C74
  8
LAYER_1
 10
-40.23622425609238
 20
46.46250482648611
 30
0.0
  0
VERTEX
  5
C75
  8
LAYER_1
 10
-40.0094703022653
 20
46.76250483840704
 30
0.0
  0
VERTEX
  5
C76
  8
LAYER_1
 10
-39.52348443662197
 20
47.39120993092047
 30
0.0
  0
VERTEX
  5
C77
  8
LAYER_1
 10
-38.72312004698511
 20
48.44120997264372
 30
0.0
  0
VERTEX
  5
C78
  8
LAYER_1
 10
-38.17700007262427
 20
49.15306505437246
 30
0.0
  0
VERTEX
  5
C79
  8
LAYER_1
 10
-37.69760026199567
 20
49.74714504513655
 30
0.0
  0
VERTEX
  5
C7A
  8
LAYER_1
 10
-37.56278285114567
 20
49.91899984599554
 30
0.0
  0
VERTEX
  5
C7B
  8
LAYER_1
 10
-37.43510025156485
 20
50.09997512003834
 30
0.0
  0
VERTEX
  5
C7C
  8
LAYER_1
 10
-37.22239914414569
 20
50.39997513195927
 30
0.0
  0
VERTEX
  5
C7D
  8
LAYER_1
 10
-37.13229978585809
 20
50.51250498741865
 30
0.0
  0
VERTEX
  5
C7E
  8
LAYER_1
 10
-36.54486040232532
 20
51.26250501722097
 30
0.0
  0
VERTEX
  5
C7F
  8
LAYER_1
 10
-35.06324879477271
 20
53.17067972999527
 30
0.0
  0
VERTEX
  5
C80
  8
LAYER_1
 10
-33.52927208927939
 20
55.17683865010184
 30
0.0
  0
VERTEX
  5
C81
  8
LAYER_1
 10
-32.97104580427547
 20
55.91250520199537
 30
0.0
  0
VERTEX
  5
C82
  8
LAYER_1
 10
-32.88440809355019
 20
55.98750520497561
 30
0.0
  0
VERTEX
  5
C83
  8
LAYER_1
 10
-32.74827399859058
 20
56.14997313043098
 30
0.0
  0
VERTEX
  5
C84
  8
LAYER_1
 10
-32.54263434279131
 20
56.43526835127696
 30
0.0
  0
VERTEX
  5
C85
  8
LAYER_1
 10
-32.30193593955404
 20
56.7668158224327
 30
0.0
  0
VERTEX
  5
C86
  8
LAYER_1
 10
-32.08151166458389
 20
57.04048596671788
 30
0.0
  0
VERTEX
  5
C87
  8
LAYER_1
 10
-31.8144938816522
 20
57.36835865168607
 30
0.0
  0
VERTEX
  5
C88
  8
LAYER_1
 10
-31.46177278906056
 20
57.83022286959036
 30
0.0
  0
VERTEX
  5
C89
  8
LAYER_1
 10
-30.9372713870178
 20
58.52888588836417
 30
0.0
  0
VERTEX
  5
C8A
  8
LAYER_1
 10
-30.43488121290865
 20
59.16603314640437
 30
0.0
  0
VERTEX
  5
C8B
  8
LAYER_1
 10
-30.24108749829881
 20
59.40572632439702
 30
0.0
  0
VERTEX
  5
C8C
  8
LAYER_1
 10
-30.10316091101881
 20
59.58216817371682
 30
0.0
  0
VERTEX
  5
C8D
  8
LAYER_1
 10
-30.05564308681082
 20
59.65187917000584
 30
0.0
  0
VERTEX
  5
C8E
  8
LAYER_1
 10
-30.02268640045527
 20
59.71202851798436
 30
0.0
  0
VERTEX
  5
C8F
  8
LAYER_1
 10
-30.00448897062549
 20
59.76469994560497
 30
0.0
  0
VERTEX
  5
C90
  8
LAYER_1
 10
-30.00124891599481
 20
59.81197718082024
 30
0.0
  0
VERTEX
  5
C91
  8
LAYER_1
 10
-30.01316435523655
 20
59.85594395158273
 30
0.0
  0
VERTEX
  5
C92
  8
LAYER_1
 10
-30.04043340702405
 20
59.89868398584504
 30
0.0
  0
VERTEX
  5
C93
  8
LAYER_1
 10
-30.08325419003063
 20
59.94228101155973
 30
0.0
  0
VERTEX
  5
C94
  8
LAYER_1
 10
-30.14182482292961
 20
59.98881875667936
 30
0.0
  0
VERTEX
  5
C95
  8
LAYER_1
 10
-30.30700811309811
 20
60.09905131694379
 30
0.0
  0
VERTEX
  5
C96
  8
LAYER_1
 10
-30.53756822691617
 20
60.24605149025894
 30
0.0
  0
VERTEX
  5
C97
  8
LAYER_1
 10
-31.35206593522203
 20
60.77008402267177
 30
0.0
  0
VERTEX
  5
C98
  8
LAYER_1
 10
-31.9335965202696
 20
61.12336556441311
 30
0.0
  0
VERTEX
  5
C99
  8
LAYER_1
 10
-32.53584548877672
 20
61.45204022072978
 30
0.0
  0
VERTEX
  5
C9A
  8
LAYER_1
 10
-33.41249834746122
 20
61.90225209686861
 30
0.0
  0
VERTEX
  5
C9B
  8
LAYER_1
 10
-33.88891425680993
 20
62.13281914247126
 30
0.0
  0
VERTEX
  5
C9C
  8
LAYER_1
 10
-34.41366355876031
 20
62.36487430066169
 30
0.0
  0
VERTEX
  5
C9D
  8
LAYER_1
 10
-34.97387282311492
 20
62.59371602309857
 30
0.0
  0
VERTEX
  5
C9E
  8
LAYER_1
 10
-35.55666861967628
 20
62.81464276144057
 30
0.0
  0
VERTEX
  5
C9F
  8
LAYER_1
 10
-36.14917751824693
 20
63.02295296734638
 30
0.0
  0
VERTEX
  5
CA0
  8
LAYER_1
 10
-36.73852608862941
 20
63.21394509247467
 30
0.0
  0
VERTEX
  5
CA1
  8
LAYER_1
 10
-37.31184090062625
 20
63.38291758848411
 30
0.0
  0
VERTEX
  5
CA2
  8
LAYER_1
 10
-37.85624852403998
 20
63.52516890703339
 30
0.0
  0
VERTEX
  5
CA3
  8
LAYER_1
 10
-38.02839696838055
 20
63.55727331104111
 30
0.0
  0
VERTEX
  5
CA4
  8
LAYER_1
 10
-38.08076513452397
 20
63.55957423302842
 30
0.0
  0
VERTEX
  5
CA5
  8
LAYER_1
 10
-38.09999853372574
 20
63.55155331706578
 30
0.0
  0
VERTEX
  5
CA6
  8
LAYER_1
 10
-38.09999853372574
 20
63.518897766951
 30
0.0
  0
VERTEX
  5
CA7
  8
LAYER_1
 10
-38.36062887177368
 20
62.34070158878131
 30
0.0
  0
VERTEX
  5
CA8
  8
LAYER_1
 10
-38.78851361195143
 20
60.34336484635411
 30
0.0
  0
VERTEX
  5
CA9
  8
LAYER_1
 10
-38.97089700400797
 20
59.4461446352654
 30
0.0
  0
VERTEX
  5
CAA
  8
LAYER_1
 10
-39.11458432790648
 20
58.70177588826488
 30
0.0
  0
VERTEX
  5
CAB
  8
LAYER_1
 10
-39.22314315369125
 20
58.16274060421199
 30
0.0
  0
VERTEX
  5
CAC
  8
LAYER_1
 10
-39.3316034246656
 20
57.68927584803174
 30
0.0
  0
VERTEX
  5
CAD
  8
LAYER_1
 10
-39.43999351266888
 20
57.26250525563955
 30
0.0
  0
VERTEX
  5
CAE
  8
LAYER_1
 10
-40.0676182363268
 20
54.18750513345003
 30
0.0
  0
VERTEX
  5
CAF
  8
LAYER_1
 10
-40.24937651726698
 20
53.32500509917736
 30
0.0
  0
VERTEX
  5
CB0
  8
LAYER_1
 10
-41.09217685425517
 20
49.27500493824482
 30
0.0
  0
VERTEX
  5
CB1
  8
LAYER_1
 10
-41.47059818962386
 20
47.49454889702513
 30
0.0
  0
VERTEX
  5
CB2
  8
LAYER_1
 10
-41.53059803640917
 20
47.17813214057838
 30
0.0
  0
VERTEX
  5
CB3
  8
LAYER_1
 10
-41.57968711716209
 20
46.82941385123359
 30
0.0
  0
VERTEX
  5
CB4
  8
LAYER_1
 10
-41.6128318551891
 20
46.49048526743017
 30
0.0
  0
VERTEX
  5
CB5
  8
LAYER_1
 10
-41.62499867379665
 20
46.20343762760757
 30
0.0
  0
VERTEX
  5
CB6
  8
LAYER_1
 10
-41.61988293166605
 20
45.89013294796688
 30
0.0
  0
VERTEX
  5
CB7
  8
LAYER_1
 10
-41.61200659331643
 20
45.78107331040295
 30
0.0
  0
VERTEX
  5
CB8
  8
LAYER_1
 10
-41.59926757838939
 20
45.69760685521253
 30
0.0
  0
VERTEX
  5
CB9
  8
LAYER_1
 10
-41.58067811309401
 20
45.63513211804757
 30
0.0
  0
VERTEX
  5
CBA
  8
LAYER_1
 10
-41.5552504236394
 20
45.58904763455998
 30
0.0
  0
VERTEX
  5
CBB
  8
LAYER_1
 10
-41.52199673623463
 20
45.5547519404017
 30
0.0
  0
VERTEX
  5
CBC
  8
LAYER_1
 10
-41.47992927708881
 20
45.52764357122467
 30
0.0
  0
VERTEX
  5
CBD
  8
LAYER_1
 10
-41.36927618926671
 20
45.47281117933841
 30
0.0
  0
VERTEX
  5
CBE
  8
LAYER_1
 10
-41.30695238626288
 20
45.45000478625298
 30
0.0
  0
SEQEND
  5
D0E
  8
LAYER_1
  0
POLYLINE
  5
86
  8
LAYER_1
 66
     1
 10
0.0
 20
0.0
 30
0.0
 70
     1
  0
VERTEX
  5
CBF
  8
LAYER_1
 10
-43.35539192164234
 20
46.14375481382012
 30
0.0
  0
VERTEX
  5
CC0
  8
LAYER_1
 10
-43.13067283470139
 20
46.70449311209019
 30
0.0
  0
VERTEX
  5
CC1
  8
LAYER_1
 10
-43.06116359144495
 20
46.89678011761487
 30
0.0
  0
VERTEX
  5
CC2
  8
LAYER_1
 10
-42.98894704225074
 20
47.13056329286587
 30
0.0
  0
VERTEX
  5
CC3
  8
LAYER_1
 10
-42.92255895643048
 20
47.37631138666973
 30
0.0
  0
VERTEX
  5
CC4
  8
LAYER_1
 10
-42.87053510329593
 20
47.60449314785298
 30
0.0
  0
VERTEX
  5
CC5
  8
LAYER_1
 10
-42.56797581607337
 20
49.12500493228436
 30
0.0
  0
VERTEX
  5
CC6
  8
LAYER_1
 10
-42.36722617819496
 20
50.13750497251749
 30
0.0
  0
VERTEX
  5
CC7
  8
LAYER_1
 10
-42.15263038756084
 20
51.03750500828028
 30
0.0
  0
VERTEX
  5
CC8
  8
LAYER_1
 10
-41.93045586927035
 20
52.12500505149364
 30
0.0
  0
VERTEX
  5
CC9
  8
LAYER_1
 10
-41.4018218993338
 20
54.67500515282154
 30
0.0
  0
VERTEX
  5
CCA
  8
LAYER_1
 10
-40.4258511377139
 20
59.36250533908606
 30
0.0
  0
VERTEX
  5
CCB
  8
LAYER_1
 10
-39.90130276991781
 20
61.87500543892384
 30
0.0
  0
VERTEX
  5
CCC
  8
LAYER_1
 10
-39.59225308967903
 20
63.33750549703836
 30
0.0
  0
VERTEX
  5
CCD
  8
LAYER_1
 10
-39.54980966565488
 20
63.61086000632955
 30
0.0
  0
VERTEX
  5
CCE
  8
LAYER_1
 10
-39.53194748019605
 20
63.76198712379686
 30
0.0
  0
VERTEX
  5
CCF
  8
LAYER_1
 10
-39.53425810947688
 20
63.81210267148512
 30
0.0
  0
VERTEX
  5
CD0
  8
LAYER_1
 10
-39.54620335170461
 20
63.8491482744632
 30
0.0
  0
VERTEX
  5
CD1
  8
LAYER_1
 10
-39.56938830558433
 20
63.87604547972118
 30
0.0
  0
VERTEX
  5
CD2
  8
LAYER_1
 10
-39.60541806982111
 20
63.8957158342491
 30
0.0
  0
VERTEX
  5
CD3
  8
LAYER_1
 10
-39.72243242418608
 20
63.92506217907504
 30
0.0
  0
VERTEX
  5
CD4
  8
LAYER_1
 10
-39.93749860674143
 20
63.96590984252933
 30
0.0
  0
VERTEX
  5
CD5
  8
LAYER_1
 10
-41.51249866932631
 20
64.16250552982092
 30
0.0
  0
VERTEX
  5
CD6
  8
LAYER_1
 10
-45.71249883621931
 20
64.15472229132544
 30
0.0
  0
VERTEX
  5
CD7
  8
LAYER_1
 10
-46.53749886900187
 20
64.0307853607645
 30
0.0
  0
VERTEX
  5
CD8
  8
LAYER_1
 10
-47.38070262202898
 20
63.90083634323108
 30
0.0
  0
VERTEX
  5
CD9
  8
LAYER_1
 10
-47.94134880397046
 20
63.80580661325963
 30
0.0
  0
VERTEX
  5
CDA
  8
LAYER_1
 10
-48.26147042012074
 20
63.73792135604209
 30
0.0
  0
VERTEX
  5
CDB
  8
LAYER_1
 10
-48.34446983017871
 20
63.71172827508853
 30
0.0
  0
VERTEX
  5
CDC
  8
LAYER_1
 10
-48.3831004757743
 20
63.68940575677041
 30
0.0
  0
VERTEX
  5
CDD
  8
LAYER_1
 10
-48.42870201102116
 20
63.63750550895929
 30
0.0
  0
VERTEX
  5
CDE
  8
LAYER_1
 10
-47.8331059973324
 20
61.16250541061163
 30
0.0
  0
VERTEX
  5
CDF
  8
LAYER_1
 10
-47.71845104468078
 20
60.8625053986907
 30
0.0
  0
VERTEX
  5
CE0
  8
LAYER_1
 10
-45.5196323781442
 20
51.93750504404306
 30
0.0
  0
VERTEX
  5
CE1
  8
LAYER_1
 10
-45.34076850535352
 20
51.26250501722097
 30
0.0
  0
VERTEX
  5
CE2
  8
LAYER_1
 10
-45.17932755083564
 20
50.63156749214977
 30
0.0
  0
VERTEX
  5
CE3
  8
LAYER_1
 10
-45.0423528219774
 20
50.06250496953726
 30
0.0
  0
VERTEX
  5
CE4
  8
LAYER_1
 10
-44.85119072665172
 20
49.27529229737249
 30
0.0
  0
VERTEX
  5
CE5
  8
LAYER_1
 10
-44.55760552515613
 20
48.18750489503145
 30
0.0
  0
VERTEX
  5
CE6
  8
LAYER_1
 10
-44.44067745041706
 20
47.73961425223388
 30
0.0
  0
VERTEX
  5
CE7
  8
LAYER_1
 10
-44.36313599340926
 20
47.40000486373901
 30
0.0
  0
VERTEX
  5
CE8
  8
LAYER_1
 10
-44.33332716758999
 20
47.27440915562329
 30
0.0
  0
VERTEX
  5
CE9
  8
LAYER_1
 10
-44.28875166959045
 20
47.12648922787048
 30
0.0
  0
VERTEX
  5
CEA
  8
LAYER_1
 10
-44.23543787242657
 20
46.974702112464
 30
0.0
  0
VERTEX
  5
CEB
  8
LAYER_1
 10
-44.17941414911428
 20
46.83750484138727
 30
0.0
  0
VERTEX
  5
CEC
  8
LAYER_1
 10
-44.0551932857351
 20
46.5430126421852
 30
0.0
  0
VERTEX
  5
CED
  8
LAYER_1
 10
-43.94502560557503
 20
46.25625481829047
 30
0.0
  0
VERTEX
  5
CEE
  8
LAYER_1
 10
-43.88587860758575
 20
46.11323227459179
 30
0.0
  0
VERTEX
  5
CEF
  8
LAYER_1
 10
-43.85622270019654
 20
46.06406010959556
 30
0.0
  0
VERTEX
  5
CF0
  8
LAYER_1
 10
-43.82405202493086
 20
46.02756116430037
 30
0.0
  0
VERTEX
  5
CF1
  8
LAYER_1
 10
-43.78752171007868
 20
46.00207080005544
 30
0.0
  0
VERTEX
  5
CF2
  8
LAYER_1
 10
-43.74478688392993
 20
45.98592437821002
 30
0.0
  0
VERTEX
  5
CF3
  8
LAYER_1
 10
-43.63332421090253
 20
45.9750048071146
 30
0.0
  0
VERTEX
  5
CF4
  8
LAYER_1
 10
-43.53334772501752
 20
45.98457828227838
 30
0.0
  0
VERTEX
  5
CF5
  8
LAYER_1
 10
-43.45583777638123
 20
46.01459657477682
 30
0.0
  0
VERTEX
  5
CF6
  8
LAYER_1
 10
-43.39758797269054
 20
46.06700648512052
 30
0.0
  0
SEQEND
  5
D0F
  8
LAYER_1
  0
ENDSEC
  0
EOF
