  0
SECTION
  2
HEADER
  9
$ACADVER
  1
AC1009
  9
$DWGCODEPAGE
  3
ansi_1252
  9
$INSBASE
 10
0.0
 20
0.0
 30
0.0
  9
$EXTMIN
 10
-71.28801048774218
 20
-58.42325793487144
 30
0.0
  9
$EXTMAX
 10
72.36591827881033
 20
70.13877992295329
 30
0.0
  9
$LIMMIN
 10
0.0
 20
0.0
  9
$LIMMAX
 10
12.0
 20
9.0
  9
$ORTHOMODE
 70
     0
  9
$REGENMODE
 70
     1
  9
$FILLMODE
 70
     1
  9
$QTEXTMODE
 70
     0
  9
$MIRRTEXT
 70
     1
  9
$DRAGMODE
 70
     2
  9
$LTSCALE
 40
1.0
  9
$OSMODE
 70
    37
  9
$ATTMODE
 70
     1
  9
$TEXTSIZE
 40
0.2
  9
$TRACEWID
 40
0.05
  9
$TEXTSTYLE
  7
STANDARD
  9
$CLAYER
  8
0
  9
$CELTYPE
  6
BYLAYER
  9
$CECOLOR
 62
   256
  9
$DIMSCALE
 40
1.0
  9
$DIMASZ
 40
0.18
  9
$DIMEXO
 40
0.0625
  9
$DIMDLI
 40
0.38
  9
$DIMRND
 40
0.0
  9
$DIMDLE
 40
0.0
  9
$DIMEXE
 40
0.18
  9
$DIMTP
 40
0.0
  9
$DIMTM
 40
0.0
  9
$DIMTXT
 40
0.18
  9
$DIMCEN
 40
0.09
  9
$DIMTSZ
 40
0.0
  9
$DIMTOL
 70
     0
  9
$DIMLIM
 70
     0
  9
$DIMTIH
 70
     1
  9
$DIMTOH
 70
     1
  9
$DIMSE1
 70
     0
  9
$DIMSE2
 70
     0
  9
$DIMTAD
 70
     0
  9
$DIMZIN
 70
     0
  9
$DIMBLK
  1

  9
$DIMASO
 70
     1
  9
$DIMSHO
 70
     1
  9
$DIMPOST
  1

  9
$DIMAPOST
  1

  9
$DIMALT
 70
     0
  9
$DIMALTD
 70
     2
  9
$DIMALTF
 40
25.4
  9
$DIMLFAC
 40
1.0
  9
$DIMTOFL
 70
     0
  9
$DIMTVP
 40
0.0
  9
$DIMTIX
 70
     0
  9
$DIMSOXD
 70
     0
  9
$DIMSAH
 70
     0
  9
$DIMBLK1
  1

  9
$DIMBLK2
  1

  9
$DIMSTYLE
  2
STANDARD
  9
$DIMCLRD
 70
     0
  9
$DIMCLRE
 70
     0
  9
$DIMCLRT
 70
     0
  9
$DIMTFAC
 40
1.0
  9
$DIMGAP
 40
0.09
  9
$LUNITS
 70
     2
  9
$LUPREC
 70
     4
  9
$SKETCHINC
 40
0.1
  9
$FILLETRAD
 40
0.5
  9
$AUNITS
 70
     0
  9
$AUPREC
 70
     0
  9
$MENU
  1
.
  9
$ELEVATION
 40
0.0
  9
$PELEVATION
 40
0.0
  9
$THICKNESS
 40
0.0
  9
$LIMCHECK
 70
     0
  9
$CHAMFERA
 40
0.0
  9
$CHAMFERB
 40
0.0
  9
$SKPOLY
 70
     0
  9
$TDCREATE
 40
2454910.5
  9
$TDUPDATE
 40
2457003.652112523
  9
$TDINDWG
 40
0.0000000116
  9
$TDUSRTIMER
 40
0.0000000116
  9
$USRTIMER
 70
     1
  9
$ANGBASE
 50
0.0
  9
$ANGDIR
 70
     0
  9
$PDMODE
 70
     0
  9
$PDSIZE
 40
0.0
  9
$PLINEWID
 40
0.0
  9
$COORDS
 70
     1
  9
$SPLFRAME
 70
     0
  9
$SPLINETYPE
 70
     6
  9
$SPLINESEGS
 70
     8
  9
$ATTDIA
 70
     0
  9
$ATTREQ
 70
     1
  9
$HANDLING
 70
     1
  9
$HANDSEED
  5
1008
  9
$SURFTAB1
 70
     6
  9
$SURFTAB2
 70
     6
  9
$SURFTYPE
 70
     6
  9
$SURFU
 70
     6
  9
$SURFV
 70
     6
  9
$UCSNAME
  2

  9
$UCSORG
 10
0.0
 20
0.0
 30
0.0
  9
$UCSXDIR
 10
1.0
 20
0.0
 30
0.0
  9
$UCSYDIR
 10
0.0
 20
1.0
 30
0.0
  9
$PUCSNAME
  2

  9
$PUCSORG
 10
0.0
 20
0.0
 30
0.0
  9
$PUCSXDIR
 10
1.0
 20
0.0
 30
0.0
  9
$PUCSYDIR
 10
0.0
 20
1.0
 30
0.0
  9
$USERI1
 70
     0
  9
$USERI2
 70
     0
  9
$USERI3
 70
     0
  9
$USERI4
 70
     0
  9
$USERI5
 70
     0
  9
$USERR1
 40
0.0
  9
$USERR2
 40
0.0
  9
$USERR3
 40
0.0
  9
$USERR4
 40
0.0
  9
$USERR5
 40
0.0
  9
$WORLDVIEW
 70
     1
  9
$SHADEDGE
 70
     3
  9
$SHADEDIF
 70
    70
  9
$TILEMODE
 70
     1
  9
$MAXACTVP
 70
    64
  9
$PLIMCHECK
 70
     0
  9
$PEXTMIN
 10
1.000000000000000E+20
 20
1.000000000000000E+20
 30
1.000000000000000E+20
  9
$PEXTMAX
 10
-1.000000000000000E+20
 20
-1.000000000000000E+20
 30
-1.000000000000000E+20
  9
$PLIMMIN
 10
0.0
 20
0.0
  9
$PLIMMAX
 10
12.0
 20
9.0
  9
$UNITMODE
 70
     0
  9
$VISRETAIN
 70
     1
  9
$PLINEGEN
 70
     0
  9
$PSLTSCALE
 70
     1
  0
ENDSEC
  0
SECTION
  2
TABLES
  0
TABLE
  2
VPORT
 70
     1
  0
VPORT
  2
*ACTIVE
 70
     0
 10
0.0
 20
0.0
 11
1.0
 21
1.0
 12
10.42990654205607
 22
4.5
 13
0.0
 23
0.0
 14
0.5
 24
0.5
 15
0.5
 25
0.5
 16
0.0
 26
0.0
 36
1.0
 17
0.0
 27
0.0
 37
0.0
 40
9.0
 41
1.972972972850329
 42
50.0
 43
0.0
 44
0.0
 50
0.0
 51
0.0
 71
     0
 72
   100
 73
     1
 74
     3
 75
     0
 76
     0
 77
     0
 78
     0
  0
ENDTAB
  0
TABLE
  2
LTYPE
 70
     2
  0
LTYPE
  2
CONTINUOUS
 70
     0
  3
Solid line
 72
    65
 73
     0
 40
0.0
  0
LTYPE
  2
CONTINUOUS2
 70
     0
  3
Solid Line
 72
    65
 73
     0
 40
0.0
  0
ENDTAB
  0
TABLE
  2
LAYER
 70
     2
  0
LAYER
  2
0
 70
     0
 62
     7
  6
CONTINUOUS
  0
LAYER
  2
LAYER_1
 70
     0
 62
    18
  6
CONTINUOUS
  0
ENDTAB
  0
TABLE
  2
STYLE
 70
     1
  0
STYLE
  2
STANDARD
 70
     0
 40
0.0
 41
1.0
 50
0.0
 71
     0
 42
0.2
  3
txt
  4

  0
ENDTAB
  0
TABLE
  2
VIEW
 70
     0
  0
ENDTAB
  0
TABLE
  2
UCS
 70
     0
  0
ENDTAB
  0
TABLE
  2
APPID
 70
     1
  0
APPID
  2
ACAD
 70
     0
  0
ENDTAB
  0
TABLE
  2
DIMSTYLE
 70
     1
  0
DIMSTYLE
  2
STANDARD
 70
     0
  3

  4

  5

  6

  7

 40
1.0
 41
0.18
 42
0.0625
 43
0.38
 44
0.18
 45
0.0
 46
0.0
 47
0.0
 48
0.0
140
0.18
141
0.09
142
0.0
143
25.4
144
1.0
145
0.0
146
1.0
147
0.09
 71
     0
 72
     0
 73
     1
 74
     1
 75
     0
 76
     0
 77
     0
 78
     0
170
     0
171
     2
172
     0
173
     0
174
     0
175
     0
176
     0
177
     0
178
     0
  0
ENDTAB
  0
ENDSEC
  0
SECTION
  2
BLOCKS
  0
BLOCK
  8
0
  2
$MODEL_SPACE
 70
     0
 10
0.0
 20
0.0
 30
0.0
  3
$MODEL_SPACE
  1

  0
ENDBLK
  5
21
  8
0
  0
BLOCK
 67
     1
  8
0
  2
$PAPER_SPACE
 70
     0
 10
0.0
 20
0.0
 30
0.0
  3
$PAPER_SPACE
  1

  0
ENDBLK
  5
1D
 67
     1
  8
0
  0
ENDSEC
  0
SECTION
  2
ENTITIES
  0
POLYLINE
  5
70
  8
LAYER_1
 66
     1
 10
0.0
 20
0.0
 30
0.0
 70
     1
  0
VERTEX
  5
8B
  8
LAYER_1
 10
-45.18749881535769
 20
-58.22049803109915
 30
0.0
  0
VERTEX
  5
8C
  8
LAYER_1
 10
-40.46249862760305
 20
-58.40240332527209
 30
0.0
  0
VERTEX
  5
8D
  8
LAYER_1
 10
-24.26249798387289
 20
-58.42325793487144
 30
0.0
  0
VERTEX
  5
8E
  8
LAYER_1
 10
-18.49026421882787
 20
-58.20358907268979
 30
0.0
  0
VERTEX
  5
8F
  8
LAYER_1
 10
-17.36388094190795
 20
-58.12635741329193
 30
0.0
  0
VERTEX
  5
90
  8
LAYER_1
 10
-16.20328849107434
 20
-58.0424416296632
 30
0.0
  0
VERTEX
  5
91
  8
LAYER_1
 10
-15.14417627866282
 20
-57.95604933584628
 30
0.0
  0
VERTEX
  5
92
  8
LAYER_1
 10
-14.16204744533474
 20
-57.86436457211591
 30
0.0
  0
VERTEX
  5
93
  8
LAYER_1
 10
-13.23240513175142
 20
-57.76457137874685
 30
0.0
  0
VERTEX
  5
94
  8
LAYER_1
 10
-12.33075247857416
 20
-57.65385379601386
 30
0.0
  0
VERTEX
  5
95
  8
LAYER_1
 10
-11.43259262646431
 20
-57.52939586419167
 30
0.0
  0
VERTEX
  5
96
  8
LAYER_1
 10
-10.51342871608317
 20
-57.38838162355506
 30
0.0
  0
VERTEX
  5
97
  8
LAYER_1
 10
-9.548763888092083
 20
-57.22799511437875
 30
0.0
  0
VERTEX
  5
98
  8
LAYER_1
 10
-9.108696317561618
 20
-57.14350395750345
 30
0.0
  0
VERTEX
  5
99
  8
LAYER_1
 10
-8.651940069726402
 20
-57.03924160296097
 30
0.0
  0
VERTEX
  5
9A
  8
LAYER_1
 10
-8.188344375003243
 20
-56.91824475816101
 30
0.0
  0
VERTEX
  5
9B
  8
LAYER_1
 10
-7.727758463808955
 20
-56.78355013051323
 30
0.0
  0
VERTEX
  5
9C
  8
LAYER_1
 10
-7.280031566560346
 20
-56.6381944274273
 30
0.0
  0
VERTEX
  5
9D
  8
LAYER_1
 10
-6.855012913674225
 20
-56.48521435631289
 30
0.0
  0
VERTEX
  5
9E
  8
LAYER_1
 10
-6.462551735567402
 20
-56.32764662457969
 30
0.0
  0
VERTEX
  5
9F
  8
LAYER_1
 10
-6.112497262656689
 20
-56.16852793963736
 30
0.0
  0
VERTEX
  5
A0
  8
LAYER_1
 10
-5.776552379423427
 20
-55.9911224488022
 30
0.0
  0
VERTEX
  5
A1
  8
LAYER_1
 10
-5.484819945140599
 20
-55.80738584579482
 30
0.0
  0
VERTEX
  5
A2
  8
LAYER_1
 10
-5.35477799089736
 20
-55.71231141843478
 30
0.0
  0
VERTEX
  5
A3
  8
LAYER_1
 10
-5.234882662341846
 20
-55.61465586248158
 30
0.0
  0
VERTEX
  5
A4
  8
LAYER_1
 10
-5.12483179729076
 20
-55.5140863944185
 30
0.0
  0
VERTEX
  5
A5
  8
LAYER_1
 10
-5.024323233560807
 20
-55.41027023072886
 30
0.0
  0
VERTEX
  5
A6
  8
LAYER_1
 10
-4.933054808968693
 20
-55.30287458789593
 30
0.0
  0
VERTEX
  5
A7
  8
LAYER_1
 10
-4.850724361331123
 20
-55.19156668240303
 30
0.0
  0
VERTEX
  5
A8
  8
LAYER_1
 10
-4.7770297284648
 20
-55.07601373073344
 30
0.0
  0
VERTEX
  5
A9
  8
LAYER_1
 10
-4.711668748186431
 20
-54.95588294937047
 30
0.0
  0
VERTEX
  5
AA
  8
LAYER_1
 10
-4.654339258312722
 20
-54.83084155479742
 30
0.0
  0
VERTEX
  5
AB
  8
LAYER_1
 10
-4.604739096660374
 20
-54.70055676349756
 30
0.0
  0
VERTEX
  5
AC
  8
LAYER_1
 10
-4.562566101046095
 20
-54.56469579195421
 30
0.0
  0
VERTEX
  5
AD
  8
LAYER_1
 10
-4.527518109286589
 20
-54.42292585665066
 30
0.0
  0
VERTEX
  5
AE
  8
LAYER_1
 10
-4.42710660781384
 20
-53.96249916404486
 30
0.0
  0
VERTEX
  5
AF
  8
LAYER_1
 10
-4.247151703478963
 20
-51.1378354806563
 30
0.0
  0
VERTEX
  5
B0
  8
LAYER_1
 10
-3.862497173249722
 20
-51.21965082996358
 30
0.0
  0
VERTEX
  5
B1
  8
LAYER_1
 10
-3.124306814547282
 20
-51.34110827142298
 30
0.0
  0
VERTEX
  5
B2
  8
LAYER_1
 10
-2.719855018788544
 20
-51.39639037220415
 30
0.0
  0
VERTEX
  5
B3
  8
LAYER_1
 10
-2.310408756499353
 20
-51.43143330696278
 30
0.0
  0
VERTEX
  5
B4
  8
LAYER_1
 10
-1.906894398031124
 20
-51.44663988777023
 30
0.0
  0
VERTEX
  5
B5
  8
LAYER_1
 10
-1.520238313735273
 20
-51.44241292669787
 30
0.0
  0
VERTEX
  5
B6
  8
LAYER_1
 10
-1.161366873963217
 20
-51.41915523581703
 30
0.0
  0
VERTEX
  5
B7
  8
LAYER_1
 10
-0.8412064490663713
 20
-51.37726962719908
 30
0.0
  0
VERTEX
  5
B8
  8
LAYER_1
 10
-0.5706834093961518
 20
-51.31715891291535
 30
0.0
  0
VERTEX
  5
B9
  8
LAYER_1
 10
-0.4574503997558444
 20
-51.28039501992113
 30
0.0
  0
VERTEX
  5
BA
  8
LAYER_1
 10
-0.3607241253039746
 20
-51.23922590503722
 30
0.0
  0
VERTEX
  5
BB
  8
LAYER_1
 10
-0.1767831394529579
 20
-51.14019916610458
 30
0.0
  0
VERTEX
  5
BC
  8
LAYER_1
 10
-0.0163212948478937
 20
-51.03469281125787
 30
0.0
  0
VERTEX
  5
BD
  8
LAYER_1
 10
0.1232189478361223
 20
-50.91964813251733
 30
0.0
  0
VERTEX
  5
BE
  8
LAYER_1
 10
0.244395127923994
 20
-50.79200642190319
 30
0.0
  0
VERTEX
  5
BF
  8
LAYER_1
 10
0.3497647847406256
 20
-50.64870897143567
 30
0.0
  0
VERTEX
  5
C0
  8
LAYER_1
 10
0.4418854576109212
 20
-50.48669707313502
 30
0.0
  0
VERTEX
  5
C1
  8
LAYER_1
 10
0.523314685859785
 20
-50.30291201902146
 30
0.0
  0
VERTEX
  5
C2
  8
LAYER_1
 10
0.5966100088121209
 20
-50.09429510111523
 30
0.0
  0
VERTEX
  5
C3
  8
LAYER_1
 10
0.6756083273305679
 20
-49.80423063151922
 30
0.0
  0
VERTEX
  5
C4
  8
LAYER_1
 10
0.7474742595621151
 20
-49.46102742041939
 30
0.0
  0
VERTEX
  5
C5
  8
LAYER_1
 10
0.8112037674714998
 20
-49.0735310802523
 30
0.0
  0
VERTEX
  5
C6
  8
LAYER_1
 10
0.8657928130234591
 20
-48.65058722345452
 30
0.0
  0
VERTEX
  5
C7
  8
LAYER_1
 10
0.9102373581827301
 20
-48.20104146246258
 30
0.0
  0
VERTEX
  5
C8
  8
LAYER_1
 10
0.9435333649140498
 20
-47.73373940971309
 30
0.0
  0
VERTEX
  5
C9
  8
LAYER_1
 10
0.9646767951821554
 20
-47.25752667764257
 30
0.0
  0
VERTEX
  5
CA
  8
LAYER_1
 10
0.9726636109517841
 20
-46.78124887868762
 30
0.0
  0
VERTEX
  5
CB
  8
LAYER_1
 10
0.9750030189752579
 20
-45.74999883770943
 30
0.0
  0
VERTEX
  5
CC
  8
LAYER_1
 10
1.347732518806453
 20
-45.74999883770943
 30
0.0
  0
VERTEX
  5
CD
  8
LAYER_1
 10
1.566463262312912
 20
-45.74100124981085
 30
0.0
  0
VERTEX
  5
CE
  8
LAYER_1
 10
1.849960608890563
 20
-45.71602332956564
 30
0.0
  0
VERTEX
  5
CF
  8
LAYER_1
 10
2.528323666716037
 20
-45.63021555273841
 30
0.0
  0
VERTEX
  5
D0
  8
LAYER_1
 10
3.216958803196069
 20
-45.51675362863397
 30
0.0
  0
VERTEX
  5
D1
  8
LAYER_1
 10
3.513296248091916
 20
-45.45720802429223
 30
0.0
  0
VERTEX
  5
D2
  8
LAYER_1
 10
3.750003129243851
 20
-45.39981567865851
 30
0.0
  0
VERTEX
  5
D3
  8
LAYER_1
 10
4.303326768791171
 20
-45.23455795981528
 30
0.0
  0
VERTEX
  5
D4
  8
LAYER_1
 10
4.797740917515361
 20
-45.05991400710859
 30
0.0
  0
VERTEX
  5
D5
  8
LAYER_1
 10
5.024812081895732
 20
-44.967956409198
 30
0.0
  0
VERTEX
  5
D6
  8
LAYER_1
 10
5.239502052462662
 20
-44.87231331219137
 30
0.0
  0
VERTEX
  5
D7
  8
LAYER_1
 10
5.442592888846931
 20
-44.77253840254534
 30
0.0
  0
VERTEX
  5
D8
  8
LAYER_1
 10
5.634866650679323
 20
-44.66818536671652
 30
0.0
  0
VERTEX
  5
D9
  8
LAYER_1
 10
5.817105397590614
 20
-44.55880789116152
 30
0.0
  0
VERTEX
  5
DA
  8
LAYER_1
 10
5.990091189211586
 20
-44.44395966233698
 30
0.0
  0
VERTEX
  5
DB
  8
LAYER_1
 10
6.154606085173019
 20
-44.32319436669948
 30
0.0
  0
VERTEX
  5
DC
  8
LAYER_1
 10
6.311432145105695
 20
-44.19606569070565
 30
0.0
  0
VERTEX
  5
DD
  8
LAYER_1
 10
6.461351428640395
 20
-44.06212732081211
 30
0.0
  0
VERTEX
  5
DE
  8
LAYER_1
 10
6.605145995407899
 20
-43.92093294347547
 30
0.0
  0
VERTEX
  5
DF
  8
LAYER_1
 10
6.743597905038985
 20
-43.77203624515235
 30
0.0
  0
VERTEX
  5
E0
  8
LAYER_1
 10
6.877489217164438
 20
-43.61499091229935
 30
0.0
  0
VERTEX
  5
E1
  8
LAYER_1
 10
7.011176975955681
 20
-43.44586386553255
 30
0.0
  0
VERTEX
  5
E2
  8
LAYER_1
 10
7.121651158960464
 20
-43.29385232852866
 30
0.0
  0
VERTEX
  5
E3
  8
LAYER_1
 10
7.20890714491126
 20
-43.15896592648338
 30
0.0
  0
VERTEX
  5
E4
  8
LAYER_1
 10
7.272940312540541
 20
-43.0412142845924
 30
0.0
  0
VERTEX
  5
E5
  8
LAYER_1
 10
7.313746040580781
 20
-42.94060702805139
 30
0.0
  0
VERTEX
  5
E6
  8
LAYER_1
 10
7.331319707764454
 20
-42.85715378205606
 30
0.0
  0
VERTEX
  5
E7
  8
LAYER_1
 10
7.325656692824031
 20
-42.79086417180209
 30
0.0
  0
VERTEX
  5
E8
  8
LAYER_1
 10
7.296752374491987
 20
-42.74174782248517
 30
0.0
  0
VERTEX
  5
E9
  8
LAYER_1
 10
7.217570328974816
 20
-42.66256577696906
 30
0.0
  0
VERTEX
  5
EA
  8
LAYER_1
 10
6.290036761146837
 20
-42.74141060391271
 30
0.0
  0
VERTEX
  5
EB
  8
LAYER_1
 10
5.892689724341455
 20
-42.76931679089765
 30
0.0
  0
VERTEX
  5
EC
  8
LAYER_1
 10
5.520928776912561
 20
-42.78347968513784
 30
0.0
  0
VERTEX
  5
ED
  8
LAYER_1
 10
5.176467896769223
 20
-42.78401174551378
 30
0.0
  0
VERTEX
  5
EE
  8
LAYER_1
 10
4.861021061820511
 20
-42.77102543090602
 30
0.0
  0
VERTEX
  5
EF
  8
LAYER_1
 10
4.576302249975494
 20
-42.74463320019505
 30
0.0
  0
VERTEX
  5
F0
  8
LAYER_1
 10
4.324025439143242
 20
-42.70494751226144
 30
0.0
  0
VERTEX
  5
F1
  8
LAYER_1
 10
4.105904607232825
 20
-42.65208082598568
 30
0.0
  0
VERTEX
  5
F2
  8
LAYER_1
 10
3.923653732153312
 20
-42.5861456002483
 30
0.0
  0
VERTEX
  5
F3
  8
LAYER_1
 10
3.609460755959162
 20
-42.44716310795675
 30
0.0
  0
VERTEX
  5
F4
  8
LAYER_1
 10
3.983575586123976
 20
-42.09722248553928
 30
0.0
  0
VERTEX
  5
F5
  8
LAYER_1
 10
4.128307197073145
 20
-41.95296506766095
 30
0.0
  0
VERTEX
  5
F6
  8
LAYER_1
 10
4.272557960131213
 20
-41.79216485779793
 30
0.0
  0
VERTEX
  5
F7
  8
LAYER_1
 10
4.415142565040885
 20
-41.61707554443474
 30
0.0
  0
VERTEX
  5
F8
  8
LAYER_1
 10
4.554875701544867
 20
-41.4299508160559
 30
0.0
  0
VERTEX
  5
F9
  8
LAYER_1
 10
4.690572059385859
 20
-41.23304436114594
 30
0.0
  0
VERTEX
  5
FA
  8
LAYER_1
 10
4.821046328306569
 20
-41.02860986818939
 30
0.0
  0
VERTEX
  5
FB
  8
LAYER_1
 10
4.945113198049699
 20
-40.81890102567077
 30
0.0
  0
VERTEX
  5
FC
  8
LAYER_1
 10
5.061587358357952
 20
-40.60617152207459
 30
0.0
  0
VERTEX
  5
FD
  8
LAYER_1
 10
5.169283498974036
 20
-40.3926750458854
 30
0.0
  0
VERTEX
  5
FE
  8
LAYER_1
 10
5.267016309640652
 20
-40.18066528558771
 30
0.0
  0
VERTEX
  5
FF
  8
LAYER_1
 10
5.353600480100503
 20
-39.97239592966604
 30
0.0
  0
VERTEX
  5
100
  8
LAYER_1
 10
5.427850700096297
 20
-39.77012066660492
 30
0.0
  0
VERTEX
  5
101
  8
LAYER_1
 10
5.488581659370736
 20
-39.57609318488888
 30
0.0
  0
VERTEX
  5
102
  8
LAYER_1
 10
5.534608047666524
 20
-39.39256717300245
 30
0.0
  0
VERTEX
  5
103
  8
LAYER_1
 10
5.564744554726364
 20
-39.22179631943014
 30
0.0
  0
VERTEX
  5
104
  8
LAYER_1
 10
5.577805870292963
 20
-39.06603431265648
 30
0.0
  0
VERTEX
  5
105
  8
LAYER_1
 10
5.587503202259541
 20
-38.71957003943315
 30
0.0
  0
VERTEX
  5
106
  8
LAYER_1
 10
4.762503169476986
 20
-39.21932660930528
 30
0.0
  0
VERTEX
  5
107
  8
LAYER_1
 10
4.374605681355829
 20
-39.44876463822395
 30
0.0
  0
VERTEX
  5
108
  8
LAYER_1
 10
3.997778366271526
 20
-39.65922375918016
 30
0.0
  0
VERTEX
  5
109
  8
LAYER_1
 10
3.626401471950202
 20
-39.85230943438681
 30
0.0
  0
VERTEX
  5
10A
  8
LAYER_1
 10
3.254855246117985
 20
-40.0296271260568
 30
0.0
  0
VERTEX
  5
10B
  8
LAYER_1
 10
2.877519936501002
 20
-40.19278229640301
 30
0.0
  0
VERTEX
  5
10C
  8
LAYER_1
 10
2.488775790825383
 20
-40.34338040763831
 30
0.0
  0
VERTEX
  5
10D
  8
LAYER_1
 10
2.083003056817252
 20
-40.4830269219756
 30
0.0
  0
VERTEX
  5
10E
  8
LAYER_1
 10
1.654581982202739
 20
-40.61332730162777
 30
0.0
  0
VERTEX
  5
10F
  8
LAYER_1
 10
1.19789281470797
 20
-40.7358870088077
 30
0.0
  0
VERTEX
  5
110
  8
LAYER_1
 10
0.7073158020590731
 20
-40.8523115057283
 30
0.0
  0
VERTEX
  5
111
  8
LAYER_1
 10
0.1772311919821754
 20
-40.96420625460243
 30
0.0
  0
VERTEX
  5
112
  8
LAYER_1
 10
-0.3979807677965956
 20
-41.07317671764299
 30
0.0
  0
VERTEX
  5
113
  8
LAYER_1
 10
-1.023939829551112
 20
-41.18082835706288
 30
0.0
  0
VERTEX
  5
114
  8
LAYER_1
 10
-1.706265745555247
 20
-41.28876663507496
 30
0.0
  0
VERTEX
  5
115
  8
LAYER_1
 10
-3.262497149407864
 20
-41.51192495572731
 30
0.0
  0
VERTEX
  5
116
  8
LAYER_1
 10
-4.687497206032276
 20
-41.70629475654064
 30
0.0
  0
VERTEX
  5
117
  8
LAYER_1
 10
-5.207470482471081
 20
-41.86040957195417
 30
0.0
  0
VERTEX
  5
118
  8
LAYER_1
 10
-5.421536941197777
 20
-41.92722110061304
 30
0.0
  0
VERTEX
  5
119
  8
LAYER_1
 10
-5.601934984767917
 20
-41.99156083459114
 30
0.0
  0
VERTEX
  5
11A
  8
LAYER_1
 10
-5.752455257437191
 20
-42.05571986468665
 30
0.0
  0
VERTEX
  5
11B
  8
LAYER_1
 10
-5.876888403461287
 20
-42.12198928169775
 30
0.0
  0
VERTEX
  5
11C
  8
LAYER_1
 10
-5.979025067095895
 20
-42.19266017642263
 30
0.0
  0
VERTEX
  5
11D
  8
LAYER_1
 10
-6.062655892596707
 20
-42.27002363965945
 30
0.0
  0
VERTEX
  5
11E
  8
LAYER_1
 10
-6.13157152421941
 20
-42.3563707622064
 30
0.0
  0
VERTEX
  5
11F
  8
LAYER_1
 10
-6.189562606219695
 20
-42.45399263486166
 30
0.0
  0
VERTEX
  5
120
  8
LAYER_1
 10
-6.256913738777049
 20
-42.6169005329764
 30
0.0
  0
VERTEX
  5
121
  8
LAYER_1
 10
-6.326744029740222
 20
-42.84263110766913
 30
0.0
  0
VERTEX
  5
122
  8
LAYER_1
 10
-6.395521500180405
 20
-43.11340152586229
 30
0.0
  0
VERTEX
  5
123
  8
LAYER_1
 10
-6.459714171168789
 20
-43.41142895447829
 30
0.0
  0
VERTEX
  5
124
  8
LAYER_1
 10
-6.515790063776569
 20
-43.7189305604396
 30
0.0
  0
VERTEX
  5
125
  8
LAYER_1
 10
-6.560217199074936
 20
-44.01812351066864
 30
0.0
  0
VERTEX
  5
126
  8
LAYER_1
 10
-6.589463598135081
 20
-44.29122497208787
 30
0.0
  0
VERTEX
  5
127
  8
LAYER_1
 10
-6.599997282028198
 20
-44.52045211161973
 30
0.0
  0
VERTEX
  5
128
  8
LAYER_1
 10
-6.603468677566891
 20
-44.79944920048219
 30
0.0
  0
VERTEX
  5
129
  8
LAYER_1
 10
-6.610461226945409
 20
-44.88551014243787
 30
0.0
  0
VERTEX
  5
12A
  8
LAYER_1
 10
-6.623316837356841
 20
-44.94222729688787
 30
0.0
  0
VERTEX
  5
12B
  8
LAYER_1
 10
-6.643804378771287
 20
-44.97431162444069
 30
0.0
  0
VERTEX
  5
12C
  8
LAYER_1
 10
-6.673692721158849
 20
-44.98647408570484
 30
0.0
  0
VERTEX
  5
12D
  8
LAYER_1
 10
-6.768747288733721
 20
-44.96987725180118
 30
0.0
  0
VERTEX
  5
12E
  8
LAYER_1
 10
-6.937497295439243
 20
-44.92226099040532
 30
0.0
  0
VERTEX
  5
12F
  8
LAYER_1
 10
-7.80409420665643
 20
-44.87541674109104
 30
0.0
  0
VERTEX
  5
130
  8
LAYER_1
 10
-8.168255665807816
 20
-44.8613785889162
 30
0.0
  0
VERTEX
  5
131
  8
LAYER_1
 10
-8.519167639895734
 20
-44.85778469699882
 30
0.0
  0
VERTEX
  5
132
  8
LAYER_1
 10
-8.81688520150206
 20
-44.86444615372321
 30
0.0
  0
VERTEX
  5
133
  8
LAYER_1
 10
-9.021463423208672
 20
-44.88117404747371
 30
0.0
  0
VERTEX
  5
134
  8
LAYER_1
 10
-9.174530817358558
 20
-44.91494772817499
 30
0.0
  0
VERTEX
  5
135
  8
LAYER_1
 10
-9.31649356480148
 20
-44.96820638472077
 30
0.0
  0
VERTEX
  5
136
  8
LAYER_1
 10
-9.446363587227426
 20
-45.04006775414423
 30
0.0
  0
VERTEX
  5
137
  8
LAYER_1
 10
-9.563152806326382
 20
-45.1296495734786
 30
0.0
  0
VERTEX
  5
138
  8
LAYER_1
 10
-9.665873143788335
 20
-45.23606957975709
 30
0.0
  0
VERTEX
  5
139
  8
LAYER_1
 10
-9.753536521303277
 20
-45.35844551001288
 30
0.0
  0
VERTEX
  5
13A
  8
LAYER_1
 10
-9.825154860561188
 20
-45.49589510127919
 30
0.0
  0
VERTEX
  5
13B
  8
LAYER_1
 10
-9.87974008325206
 20
-45.64753609058923
 30
0.0
  0
VERTEX
  5
13C
  8
LAYER_1
 10
-9.963446705112844
 20
-45.93749884516001
 30
0.0
  0
VERTEX
  5
13D
  8
LAYER_1
 10
-10.06420070614647
 20
-49.46249898523092
 30
0.0
  0
VERTEX
  5
13E
  8
LAYER_1
 10
-10.16249742358923
 20
-49.559648804837
 30
0.0
  0
VERTEX
  5
13F
  8
LAYER_1
 10
-11.36249747127295
 20
-49.72694477285292
 30
0.0
  0
VERTEX
  5
140
  8
LAYER_1
 10
-12.51841707941158
 20
-49.87571697930709
 30
0.0
  0
VERTEX
  5
141
  8
LAYER_1
 10
-13.59012742801232
 20
-49.99807628559216
 30
0.0
  0
VERTEX
  5
142
  8
LAYER_1
 10
-14.88424950580411
 20
-50.116396967432
 30
0.0
  0
VERTEX
  5
143
  8
LAYER_1
 10
-16.45022553765538
 20
-50.23477073772557
 30
0.0
  0
VERTEX
  5
144
  8
LAYER_1
 10
-18.33749774843454
 20
-50.35728930937182
 30
0.0
  0
VERTEX
  5
145
  8
LAYER_1
 10
-20.21249782294035
 20
-50.47168830368622
 30
0.0
  0
VERTEX
  5
146
  8
LAYER_1
 10
-26.06249805539846
 20
-50.66103795941274
 30
0.0
  0
VERTEX
  5
147
  8
LAYER_1
 10
-37.91249852627516
 20
-50.6601024144041
 30
0.0
  0
VERTEX
  5
148
  8
LAYER_1
 10
-43.76249875873327
 20
-50.46949373406612
 30
0.0
  0
VERTEX
  5
149
  8
LAYER_1
 10
-47.36249890178442
 20
-50.24759170402735
 30
0.0
  0
VERTEX
  5
14A
  8
LAYER_1
 10
-48.4874989464879
 20
-50.16893256156523
 30
0.0
  0
VERTEX
  5
14B
  8
LAYER_1
 10
-49.04563373429119
 20
-50.12350913483998
 30
0.0
  0
VERTEX
  5
14C
  8
LAYER_1
 10
-49.73367087100632
 20
-50.05797889597498
 30
0.0
  0
VERTEX
  5
14D
  8
LAYER_1
 10
-50.46424707191181
 20
-49.98111121813948
 30
0.0
  0
VERTEX
  5
14E
  8
LAYER_1
 10
-51.14999905228615
 20
-49.9016754745027
 30
0.0
  0
VERTEX
  5
14F
  8
LAYER_1
 10
-52.68749911338091
 20
-49.71307752990229
 30
0.0
  0
VERTEX
  5
150
  8
LAYER_1
 10
-53.88749916106462
 20
-49.53749898821115
 30
0.0
  0
VERTEX
  5
151
  8
LAYER_1
 10
-53.97323350825658
 20
-45.78749883919954
 30
0.0
  0
VERTEX
  5
152
  8
LAYER_1
 10
-54.13758104983647
 20
-45.46984569980066
 30
0.0
  0
VERTEX
  5
153
  8
LAYER_1
 10
-54.21734410837715
 20
-45.33606394588818
 30
0.0
  0
VERTEX
  5
154
  8
LAYER_1
 10
-54.3130296804116
 20
-45.20662627454597
 30
0.0
  0
VERTEX
  5
155
  8
LAYER_1
 10
-54.41261244326353
 20
-45.09629831136075
 30
0.0
  0
VERTEX
  5
156
  8
LAYER_1
 10
-54.50406707425665
 20
-45.01984568191926
 30
0.0
  0
VERTEX
  5
157
  8
LAYER_1
 10
-54.70620555709695
 20
-44.88749880343676
 30
0.0
  0
VERTEX
  5
158
  8
LAYER_1
 10
-56.81249927729368
 20
-44.88749880343676
 30
0.0
  0
VERTEX
  5
159
  8
LAYER_1
 10
-57.28128409760945
 20
-44.99250576794695
 30
0.0
  0
VERTEX
  5
15A
  8
LAYER_1
 10
-57.3335845496775
 20
-44.37750226334011
 30
0.0
  0
VERTEX
  5
15B
  8
LAYER_1
 10
-57.36632312835543
 20
-44.08840519744313
 30
0.0
  0
VERTEX
  5
15C
  8
LAYER_1
 10
-57.41680061978018
 20
-43.75589040577026
 30
0.0
  0
VERTEX
  5
15D
  8
LAYER_1
 10
-57.47813146647241
 20
-43.42105566039761
 30
0.0
  0
VERTEX
  5
15E
  8
LAYER_1
 10
-57.54343011095277
 20
-43.1249987334013
 30
0.0
  0
VERTEX
  5
15F
  8
LAYER_1
 10
-57.59791728704195
 20
-42.92017433357074
 30
0.0
  0
VERTEX
  5
160
  8
LAYER_1
 10
-57.65709968025908
 20
-42.73714353376074
 30
0.0
  0
VERTEX
  5
161
  8
LAYER_1
 10
-57.72494398429683
 20
-42.5740767994102
 30
0.0
  0
VERTEX
  5
162
  8
LAYER_1
 10
-57.80541689284789
 20
-42.42914459595803
 30
0.0
  0
VERTEX
  5
163
  8
LAYER_1
 10
-57.90248509960496
 20
-42.30051738884313
 30
0.0
  0
VERTEX
  5
164
  8
LAYER_1
 10
-58.02011529826071
 20
-42.18636564350438
 30
0.0
  0
VERTEX
  5
165
  8
LAYER_1
 10
-58.16227418250784
 20
-42.08485982538071
 30
0.0
  0
VERTEX
  5
166
  8
LAYER_1
 10
-58.33292844603903
 20
-41.99417039991099
 30
0.0
  0
VERTEX
  5
167
  8
LAYER_1
 10
-58.53604478254698
 20
-41.91246783253415
 30
0.0
  0
VERTEX
  5
168
  8
LAYER_1
 10
-58.77558988572436
 20
-41.83792258868908
 30
0.0
  0
VERTEX
  5
169
  8
LAYER_1
 10
-59.05553044926386
 20
-41.76870513381469
 30
0.0
  0
VERTEX
  5
16A
  8
LAYER_1
 10
-59.37983316685817
 20
-41.70298593334986
 30
0.0
  0
VERTEX
  5
16B
  8
LAYER_1
 10
-59.75246473219998
 20
-41.63893545273352
 30
0.0
  0
VERTEX
  5
16C
  8
LAYER_1
 10
-60.17739183898198
 20
-41.57472415740455
 30
0.0
  0
VERTEX
  5
16D
  8
LAYER_1
 10
-61.19999945163727
 20
-41.43850098436434
 30
0.0
  0
VERTEX
  5
16E
  8
LAYER_1
 10
-61.89379208354457
 20
-41.34685580411222
 30
0.0
  0
VERTEX
  5
16F
  8
LAYER_1
 10
-62.54351032314597
 20
-41.25282192136976
 30
0.0
  0
VERTEX
  5
170
  8
LAYER_1
 10
-63.15250684952296
 20
-41.1553880862872
 30
0.0
  0
VERTEX
  5
171
  8
LAYER_1
 10
-63.72413434175705
 20
-41.05354304901483
 30
0.0
  0
VERTEX
  5
172
  8
LAYER_1
 10
-64.2617454789297
 20
-40.94627555970294
 30
0.0
  0
VERTEX
  5
173
  8
LAYER_1
 10
-64.7686929401224
 20
-40.8325743685018
 30
0.0
  0
VERTEX
  5
174
  8
LAYER_1
 10
-65.24832940441667
 20
-40.71142822556168
 30
0.0
  0
VERTEX
  5
175
  8
LAYER_1
 10
-65.70400755089398
 20
-40.58182588103284
 30
0.0
  0
VERTEX
  5
176
  8
LAYER_1
 10
-66.13908005863581
 20
-40.44275608506558
 30
0.0
  0
VERTEX
  5
177
  8
LAYER_1
 10
-66.55689960672368
 20
-40.29320758781018
 30
0.0
  0
VERTEX
  5
178
  8
LAYER_1
 10
-66.96081887423905
 20
-40.1321691394169
 30
0.0
  0
VERTEX
  5
179
  8
LAYER_1
 10
-67.35419054026343
 20
-39.95862949003603
 30
0.0
  0
VERTEX
  5
17A
  8
LAYER_1
 10
-67.7403672838783
 20
-39.77157738981784
 30
0.0
  0
VERTEX
  5
17B
  8
LAYER_1
 10
-68.12270178416516
 20
-39.57000158891261
 30
0.0
  0
VERTEX
  5
17C
  8
LAYER_1
 10
-68.5045467202055
 20
-39.35289083747061
 30
0.0
  0
VERTEX
  5
17D
  8
LAYER_1
 10
-68.88925477108079
 20
-39.11923388564212
 30
0.0
  0
VERTEX
  5
17E
  8
LAYER_1
 10
-69.56249978393316
 20
-38.69805345541247
 30
0.0
  0
VERTEX
  5
17F
  8
LAYER_1
 10
-69.53990949346469
 20
-39.01777601915602
 30
0.0
  0
VERTEX
  5
180
  8
LAYER_1
 10
-69.52188064783927
 20
-39.18231441084973
 30
0.0
  0
VERTEX
  5
181
  8
LAYER_1
 10
-69.49034273395169
 20
-39.35671628612479
 30
0.0
  0
VERTEX
  5
182
  8
LAYER_1
 10
-69.44528488391958
 20
-39.54101476927536
 30
0.0
  0
VERTEX
  5
183
  8
LAYER_1
 10
-69.38669622986056
 20
-39.73524298459559
 30
0.0
  0
VERTEX
  5
184
  8
LAYER_1
 10
-69.31456590389227
 20
-39.93943405637962
 30
0.0
  0
VERTEX
  5
185
  8
LAYER_1
 10
-69.22888303813235
 20
-40.15362110892165
 30
0.0
  0
VERTEX
  5
186
  8
LAYER_1
 10
-69.12963676469842
 20
-40.37783726651579
 30
0.0
  0
VERTEX
  5
187
  8
LAYER_1
 10
-69.0168162157081
 20
-40.61211565345622
 30
0.0
  0
VERTEX
  5
188
  8
LAYER_1
 10
-68.89770777504796
 20
-40.84371951827755
 30
0.0
  0
VERTEX
  5
189
  8
LAYER_1
 10
-68.78491549052367
 20
-41.04720128592382
 30
0.0
  0
VERTEX
  5
18A
  8
LAYER_1
 10
-68.67350963609367
 20
-41.22932911064083
 30
0.0
  0
VERTEX
  5
18B
  8
LAYER_1
 10
-68.55856048571643
 20
-41.3968711466744
 30
0.0
  0
VERTEX
  5
18C
  8
LAYER_1
 10
-68.4351383133504
 20
-41.55659554827035
 30
0.0
  0
VERTEX
  5
18D
  8
LAYER_1
 10
-68.29831339295404
 20
-41.71527046967449
 30
0.0
  0
VERTEX
  5
18E
  8
LAYER_1
 10
-68.1431559984858
 20
-41.87966406513264
 30
0.0
  0
VERTEX
  5
18F
  8
LAYER_1
 10
-67.96473640390413
 20
-42.05654448889064
 30
0.0
  0
VERTEX
  5
190
  8
LAYER_1
 10
-67.5572693722491
 20
-42.45059030249451
 30
0.0
  0
VERTEX
  5
191
  8
LAYER_1
 10
-67.9151034376489
 20
-42.60887732354227
 30
0.0
  0
VERTEX
  5
192
  8
LAYER_1
 10
-68.02264951674802
 20
-42.65288392022013
 30
0.0
  0
VERTEX
  5
193
  8
LAYER_1
 10
-68.1303267730528
 20
-42.68848643327927
 30
0.0
  0
VERTEX
  5
194
  8
LAYER_1
 10
-68.2446275926388
 20
-42.71656203226313
 30
0.0
  0
VERTEX
  5
195
  8
LAYER_1
 10
-68.37204436158159
 20
-42.7379878867152
 30
0.0
  0
VERTEX
  5
196
  8
LAYER_1
 10
-68.69219529183971
 20
-42.76439904019789
 30
0.0
  0
VERTEX
  5
197
  8
LAYER_1
 10
-69.14271865243163
 20
-42.77473725007515
 30
0.0
  0
VERTEX
  5
198
  8
LAYER_1
 10
-69.52482313172916
 20
-42.77332324865979
 30
0.0
  0
VERTEX
  5
199
  8
LAYER_1
 10
-69.92223597074914
 20
-42.76387510563992
 30
0.0
  0
VERTEX
  5
19A
  8
LAYER_1
 10
-70.28796044354404
 20
-42.74795508339268
 30
0.0
  0
VERTEX
  5
19B
  8
LAYER_1
 10
-70.5749998241663
 20
-42.72712544429524
 30
0.0
  0
VERTEX
  5
19C
  8
LAYER_1
 10
-70.80230868128203
 20
-42.71086741379818
 30
0.0
  0
VERTEX
  5
19D
  8
LAYER_1
 10
-71.00282468212134
 20
-42.70769242388813
 30
0.0
  0
VERTEX
  5
19E
  8
LAYER_1
 10
-71.15548489173966
 20
-42.71722152430655
 30
0.0
  0
VERTEX
  5
19F
  8
LAYER_1
 10
-71.20728690767078
 20
-42.72663168643312
 30
0.0
  0
VERTEX
  5
1A0
  8
LAYER_1
 10
-71.23922637519239
 20
-42.73907576479485
 30
0.0
  0
VERTEX
  5
1A1
  8
LAYER_1
 10
-71.26579643747958
 20
-42.76427433243273
 30
0.0
  0
VERTEX
  5
1A2
  8
LAYER_1
 10
-71.28198621708879
 20
-42.79761403332958
 30
0.0
  0
VERTEX
  5
1A3
  8
LAYER_1
 10
-71.28801048774218
 20
-42.83873361537978
 30
0.0
  0
VERTEX
  5
1A4
  8
LAYER_1
 10
-71.28408402316194
 20
-42.88727182647769
 30
0.0
  0
VERTEX
  5
1A5
  8
LAYER_1
 10
-71.2472379831892
 20
-43.00515912739406
 30
0.0
  0
VERTEX
  5
1A6
  8
LAYER_1
 10
-71.17316628694799
 20
-43.14838591923363
 30
0.0
  0
VERTEX
  5
1A7
  8
LAYER_1
 10
-71.06358712421573
 20
-43.31406218515131
 30
0.0
  0
VERTEX
  5
1A8
  8
LAYER_1
 10
-70.92021868476981
 20
-43.49929790830201
 30
0.0
  0
VERTEX
  5
1A9
  8
LAYER_1
 10
-70.74477915838764
 20
-43.70120307184065
 30
0.0
  0
VERTEX
  5
1AA
  8
LAYER_1
 10
-70.53898673484663
 20
-43.91688765892214
 30
0.0
  0
VERTEX
  5
1AB
  8
LAYER_1
 10
-70.2655225345735
 20
-44.17203618326547
 30
0.0
  0
VERTEX
  5
1AC
  8
LAYER_1
 10
-69.97453488198849
 20
-44.40416104697351
 30
0.0
  0
VERTEX
  5
1AD
  8
LAYER_1
 10
-69.66293240640408
 20
-44.61487411777692
 30
0.0
  0
VERTEX
  5
1AE
  8
LAYER_1
 10
-69.32762373713271
 20
-44.80578726340634
 30
0.0
  0
VERTEX
  5
1AF
  8
LAYER_1
 10
-68.9655175034869
 20
-44.9785123515924
 30
0.0
  0
VERTEX
  5
1B0
  8
LAYER_1
 10
-68.57352233477908
 20
-45.13466125006575
 30
0.0
  0
VERTEX
  5
1B1
  8
LAYER_1
 10
-68.14854686032174
 20
-45.27584582655705
 30
0.0
  0
VERTEX
  5
1B2
  8
LAYER_1
 10
-67.68749970942736
 20
-45.40367794879693
 30
0.0
  0
VERTEX
  5
1B3
  8
LAYER_1
 10
-67.42338002320005
 20
-45.46419298240377
 30
0.0
  0
VERTEX
  5
1B4
  8
LAYER_1
 10
-67.11309460596743
 20
-45.52484471360012
 30
0.0
  0
VERTEX
  5
1B5
  8
LAYER_1
 10
-66.42463195332371
 20
-45.63644206072928
 30
0.0
  0
VERTEX
  5
1B6
  8
LAYER_1
 10
-65.76332250117107
 20
-45.71823757412039
 30
0.0
  0
VERTEX
  5
1B7
  8
LAYER_1
 10
-65.48697858455233
 20
-45.74163701314417
 30
0.0
  0
VERTEX
  5
1B8
  8
LAYER_1
 10
-65.27037699918444
 20
-45.74999883770943
 30
0.0
  0
VERTEX
  5
1B9
  8
LAYER_1
 10
-64.8671746559522
 20
-45.74999883770943
 30
0.0
  0
VERTEX
  5
1BA
  8
LAYER_1
 10
-64.91780353843781
 20
-46.3739722215325
 30
0.0
  0
VERTEX
  5
1BB
  8
LAYER_1
 10
-64.93205959028415
 20
-46.70495479169048
 30
0.0
  0
VERTEX
  5
1BC
  8
LAYER_1
 10
-64.92902389687396
 20
-47.10416616483742
 30
0.0
  0
VERTEX
  5
1BD
  8
LAYER_1
 10
-64.9104758064073
 20
-47.54969254450771
 30
0.0
  0
VERTEX
  5
1BE
  8
LAYER_1
 10
-64.87819466708424
 20
-48.0196201342357
 30
0.0
  0
VERTEX
  5
1BF
  8
LAYER_1
 10
-64.83395982710488
 20
-48.49203513755579
 30
0.0
  0
VERTEX
  5
1C0
  8
LAYER_1
 10
-64.7795506346693
 20
-48.94502375800235
 30
0.0
  0
VERTEX
  5
1C1
  8
LAYER_1
 10
-64.71674643797758
 20
-49.35667219910977
 30
0.0
  0
VERTEX
  5
1C2
  8
LAYER_1
 10
-64.64732658522979
 20
-49.7050666644124
 30
0.0
  0
VERTEX
  5
1C3
  8
LAYER_1
 10
-64.58576601196016
 20
-49.94462142702785
 30
0.0
  0
VERTEX
  5
1C4
  8
LAYER_1
 10
-64.51705612290338
 20
-50.163269744113
 30
0.0
  0
VERTEX
  5
1C5
  8
LAYER_1
 10
-64.4401520790548
 20
-50.36176232590511
 30
0.0
  0
VERTEX
  5
1C6
  8
LAYER_1
 10
-64.35400904140971
 20
-50.54084988264139
 30
0.0
  0
VERTEX
  5
1C7
  8
LAYER_1
 10
-64.25758217096347
 20
-50.70128312455908
 30
0.0
  0
VERTEX
  5
1C8
  8
LAYER_1
 10
-64.1498266287114
 20
-50.84381276189541
 30
0.0
  0
VERTEX
  5
1C9
  8
LAYER_1
 10
-64.02969757564881
 20
-50.96918950488759
 30
0.0
  0
VERTEX
  5
1CA
  8
LAYER_1
 10
-63.89615017277102
 20
-51.07816406377289
 30
0.0
  0
VERTEX
  5
1CB
  8
LAYER_1
 10
-63.74813958107335
 20
-51.1714871487885
 30
0.0
  0
VERTEX
  5
1CC
  8
LAYER_1
 10
-63.58462096155114
 20
-51.24990947017169
 30
0.0
  0
VERTEX
  5
1CD
  8
LAYER_1
 10
-63.40454947519969
 20
-51.31418173815966
 30
0.0
  0
VERTEX
  5
1CE
  8
LAYER_1
 10
-63.20688028301436
 20
-51.36505466298964
 30
0.0
  0
VERTEX
  5
1CF
  8
LAYER_1
 10
-62.99056854599044
 20
-51.40327895489888
 30
0.0
  0
VERTEX
  5
1D0
  8
LAYER_1
 10
-62.75456942512327
 20
-51.42960532412459
 30
0.0
  0
VERTEX
  5
1D1
  8
LAYER_1
 10
-62.49783808140816
 20
-51.44478448090402
 30
0.0
  0
VERTEX
  5
1D2
  8
LAYER_1
 10
-62.21932967584046
 20
-51.4495671354744
 30
0.0
  0
VERTEX
  5
1D3
  8
LAYER_1
 10
-61.85755387528964
 20
-51.43794690941468
 30
0.0
  0
VERTEX
  5
1D4
  8
LAYER_1
 10
-61.43199437711442
 20
-51.40662697587589
 30
0.0
  0
VERTEX
  5
1D5
  8
LAYER_1
 10
-60.99572564698739
 20
-51.36038394001186
 30
0.0
  0
VERTEX
  5
1D6
  8
LAYER_1
 10
-60.60182215058111
 20
-51.30399440697644
 30
0.0
  0
VERTEX
  5
1D7
  8
LAYER_1
 10
-59.74114483909415
 20
-51.15885360721117
 30
0.0
  0
VERTEX
  5
1D8
  8
LAYER_1
 10
-59.68775053244878
 20
-51.21224791385742
 30
0.0
  0
VERTEX
  5
1D9
  8
LAYER_1
 10
-59.55903693662921
 20
-53.5874991491437
 30
0.0
  0
VERTEX
  5
1DA
  8
LAYER_1
 10
-59.46814570469151
 20
-54.14999917149544
 30
0.0
  0
VERTEX
  5
1DB
  8
LAYER_1
 10
-59.42234432278539
 20
-54.38952396044692
 30
0.0
  0
VERTEX
  5
1DC
  8
LAYER_1
 10
-59.36482735823455
 20
-54.62587702027684
 30
0.0
  0
VERTEX
  5
1DD
  8
LAYER_1
 10
-59.30294768326738
 20
-54.83182016810866
 30
0.0
  0
VERTEX
  5
1DE
  8
LAYER_1
 10
-59.24405817011224
 20
-54.98011522106586
 30
0.0
  0
VERTEX
  5
1DF
  8
LAYER_1
 10
-59.17610507013069
 20
-55.09609528274031
 30
0.0
  0
VERTEX
  5
1E0
  8
LAYER_1
 10
-59.08449278534421
 20
-55.22066278196966
 30
0.0
  0
VERTEX
  5
1E1
  8
LAYER_1
 10
-58.97232410628283
 20
-55.35081215583939
 30
0.0
  0
VERTEX
  5
1E2
  8
LAYER_1
 10
-58.84270182347655
 20
-55.48353784143499
 30
0.0
  0
VERTEX
  5
1E3
  8
LAYER_1
 10
-58.69872872745538
 20
-55.61583427584194
 30
0.0
  0
VERTEX
  5
1E4
  8
LAYER_1
 10
-58.54350760874932
 20
-55.74469589614571
 30
0.0
  0
VERTEX
  5
1E5
  8
LAYER_1
 10
-58.38014125788843
 20
-55.8671171394318
 30
0.0
  0
VERTEX
  5
1E6
  8
LAYER_1
 10
-58.21173246540268
 20
-55.98009244278566
 30
0.0
  0
VERTEX
  5
1E7
  8
LAYER_1
 10
-57.9791239246001
 20
-56.11520358409827
 30
0.0
  0
VERTEX
  5
1E8
  8
LAYER_1
 10
-57.7135705872472
 20
-56.24785226481845
 30
0.0
  0
VERTEX
  5
1E9
  8
LAYER_1
 10
-57.41583295123381
 20
-56.37785356201196
 30
0.0
  0
VERTEX
  5
1EA
  8
LAYER_1
 10
-57.0866715144498
 20
-56.5050225527446
 30
0.0
  0
VERTEX
  5
1EB
  8
LAYER_1
 10
-56.726846774785
 20
-56.62917431408215
 30
0.0
  0
VERTEX
  5
1EC
  8
LAYER_1
 10
-56.33711923012926
 20
-56.75012392309038
 30
0.0
  0
VERTEX
  5
1ED
  8
LAYER_1
 10
-55.91824937837242
 20
-56.86768645683507
 30
0.0
  0
VERTEX
  5
1EE
  8
LAYER_1
 10
-55.47099771740432
 20
-56.98167699238201
 30
0.0
  0
VERTEX
  5
1EF
  8
LAYER_1
 10
-54.99612474511481
 20
-57.09191060679699
 30
0.0
  0
VERTEX
  5
1F0
  8
LAYER_1
 10
-54.49439095939373
 20
-57.19820237714577
 30
0.0
  0
VERTEX
  5
1F1
  8
LAYER_1
 10
-53.96655685813091
 20
-57.30036738049414
 30
0.0
  0
VERTEX
  5
1F2
  8
LAYER_1
 10
-53.41338293921623
 20
-57.39822069390787
 30
0.0
  0
VERTEX
  5
1F3
  8
LAYER_1
 10
-52.83562970053951
 20
-57.49157739445275
 30
0.0
  0
VERTEX
  5
1F4
  8
LAYER_1
 10
-52.2340576399906
 20
-57.58025255919456
 30
0.0
  0
VERTEX
  5
1F5
  8
LAYER_1
 10
-51.60942725545934
 20
-57.66406126519908
 30
0.0
  0
VERTEX
  5
1F6
  8
LAYER_1
 10
-50.96249904483557
 20
-57.7428185895321
 30
0.0
  0
VERTEX
  5
1F7
  8
LAYER_1
 10
-50.28749901801348
 20
-57.82097745322822
 30
0.0
  0
VERTEX
  5
1F8
  8
LAYER_1
 10
-49.04999896883965
 20
-57.93206455809685
 30
0.0
  0
VERTEX
  5
1F9
  8
LAYER_1
 10
-47.79046766879037
 20
-58.03656757372995
 30
0.0
  0
VERTEX
  5
1FA
  8
LAYER_1
 10
-46.49999886751175
 20
-58.13182484703232
 30
0.0
  0
SEQEND
  5
FF4
  8
LAYER_1
  0
POLYLINE
  5
71
  8
LAYER_1
 66
     1
 10
0.0
 20
0.0
 30
0.0
 70
     1
  0
VERTEX
  5
1FB
  8
LAYER_1
 10
28.16250409930944
 20
-55.1275027988124
 30
0.0
  0
VERTEX
  5
1FC
  8
LAYER_1
 10
28.68750412017107
 20
-55.17599365137571
 30
0.0
  0
VERTEX
  5
1FD
  8
LAYER_1
 10
35.5125043913722
 20
-55.19235551761091
 30
0.0
  0
VERTEX
  5
1FE
  8
LAYER_1
 10
37.98750448971987
 20
-55.04702900579393
 30
0.0
  0
VERTEX
  5
1FF
  8
LAYER_1
 10
39.90407622801609
 20
-55.00116213997988
 30
0.0
  0
VERTEX
  5
200
  8
LAYER_1
 10
40.80327369344479
 20
-54.98869854010623
 30
0.0
  0
VERTEX
  5
201
  8
LAYER_1
 10
41.72961307595327
 20
-54.99214580701347
 30
0.0
  0
VERTEX
  5
202
  8
LAYER_1
 10
42.61858002961289
 20
-55.01072127269657
 30
0.0
  0
VERTEX
  5
203
  8
LAYER_1
 10
43.40566020849502
 20
-55.04364226915052
 30
0.0
  0
VERTEX
  5
204
  8
LAYER_1
 10
44.24902173246196
 20
-55.08085325260726
 30
0.0
  0
VERTEX
  5
205
  8
LAYER_1
 10
45.06879780636893
 20
-55.09458978789196
 30
0.0
  0
VERTEX
  5
206
  8
LAYER_1
 10
45.9372372007816
 20
-55.08503065068894
 30
0.0
  0
VERTEX
  5
207
  8
LAYER_1
 10
46.92658868626562
 20
-55.05235461668245
 30
0.0
  0
VERTEX
  5
208
  8
LAYER_1
 10
48.86250492185354
 20
-54.97271996922968
 30
0.0
  0
VERTEX
  5
209
  8
LAYER_1
 10
49.83750496059656
 20
-54.86039294340844
 30
0.0
  0
VERTEX
  5
20A
  8
LAYER_1
 10
50.63245207245915
 20
-54.7595173495253
 30
0.0
  0
VERTEX
  5
20B
  8
LAYER_1
 10
51.37217813837637
 20
-54.64708518008669
 30
0.0
  0
VERTEX
  5
20C
  8
LAYER_1
 10
52.04834213413532
 20
-54.52505561018478
 30
0.0
  0
VERTEX
  5
20D
  8
LAYER_1
 10
52.65260303552315
 20
-54.39538781491169
 30
0.0
  0
VERTEX
  5
20E
  8
LAYER_1
 10
53.17661981832697
 20
-54.26004096935958
 30
0.0
  0
VERTEX
  5
20F
  8
LAYER_1
 10
53.40593009519334
 20
-54.19085014494519
 30
0.0
  0
VERTEX
  5
210
  8
LAYER_1
 10
53.61205145833389
 20
-54.12097424862058
 30
0.0
  0
VERTEX
  5
211
  8
LAYER_1
 10
53.79394127972199
 20
-54.0506581772723
 30
0.0
  0
VERTEX
  5
212
  8
LAYER_1
 10
53.95055693133104
 20
-53.98014682778685
 30
0.0
  0
VERTEX
  5
213
  8
LAYER_1
 10
54.08085578513443
 20
-53.90968509705074
 30
0.0
  0
VERTEX
  5
214
  8
LAYER_1
 10
54.18379521310555
 20
-53.83951788195051
 30
0.0
  0
VERTEX
  5
215
  8
LAYER_1
 10
54.24492949497228
 20
-53.7892976522376
 30
0.0
  0
VERTEX
  5
216
  8
LAYER_1
 10
54.29074108449313
 20
-53.74253830689733
 30
0.0
  0
VERTEX
  5
217
  8
LAYER_1
 10
54.32274287787593
 20
-53.69155787058816
 30
0.0
  0
VERTEX
  5
218
  8
LAYER_1
 10
54.34244777132852
 20
-53.62867436796855
 30
0.0
  0
VERTEX
  5
219
  8
LAYER_1
 10
54.35136866105874
 20
-53.54620582369697
 30
0.0
  0
VERTEX
  5
21A
  8
LAYER_1
 10
54.35101844327441
 20
-53.43647026243186
 30
0.0
  0
VERTEX
  5
21B
  8
LAYER_1
 10
54.32855626999347
 20
-53.10447018755496
 30
0.0
  0
VERTEX
  5
21C
  8
LAYER_1
 10
54.31073912981964
 20
-52.81905321089322
 30
0.0
  0
VERTEX
  5
21D
  8
LAYER_1
 10
54.3129969774639
 20
-52.62867989587499
 30
0.0
  0
VERTEX
  5
21E
  8
LAYER_1
 10
54.32218660274943
 20
-52.56294690286979
 30
0.0
  0
VERTEX
  5
21F
  8
LAYER_1
 10
54.33703407222743
 20
-52.51354957494058
 30
0.0
  0
VERTEX
  5
220
  8
LAYER_1
 10
54.35775241831055
 20
-52.47801282864242
 30
0.0
  0
VERTEX
  5
221
  8
LAYER_1
 10
54.38455467341143
 20
-52.45386158053034
 30
0.0
  0
VERTEX
  5
222
  8
LAYER_1
 10
54.48750514537096
 20
-52.38749910145998
 30
0.0
  0
VERTEX
  5
223
  8
LAYER_1
 10
57.86250527948141
 20
-52.37412796509239
 30
0.0
  0
VERTEX
  5
224
  8
LAYER_1
 10
58.74099220093211
 20
-52.2504292817134
 30
0.0
  0
VERTEX
  5
225
  8
LAYER_1
 10
59.44044595761106
 20
-52.14852923390242
 30
0.0
  0
VERTEX
  5
226
  8
LAYER_1
 10
60.0279200427779
 20
-52.05484510209423
 30
0.0
  0
VERTEX
  5
227
  8
LAYER_1
 10
60.51470142877989
 20
-51.96669229669583
 30
0.0
  0
VERTEX
  5
228
  8
LAYER_1
 10
60.91207708796431
 20
-51.88138622811425
 30
0.0
  0
VERTEX
  5
229
  8
LAYER_1
 10
61.23133399267839
 20
-51.7962423067565
 30
0.0
  0
VERTEX
  5
22A
  8
LAYER_1
 10
61.48375911526942
 20
-51.70857594302959
 30
0.0
  0
VERTEX
  5
22B
  8
LAYER_1
 10
61.68063942808465
 20
-51.61570254734055
 30
0.0
  0
VERTEX
  5
22C
  8
LAYER_1
 10
61.83326190347134
 20
-51.51493753009636
 30
0.0
  0
VERTEX
  5
22D
  8
LAYER_1
 10
61.90712957989247
 20
-51.45057812201753
 30
0.0
  0
VERTEX
  5
22E
  8
LAYER_1
 10
61.96149705218721
 20
-51.38503476341276
 30
0.0
  0
VERTEX
  5
22F
  8
LAYER_1
 10
61.99689187481763
 20
-51.31187351590348
 30
0.0
  0
VERTEX
  5
230
  8
LAYER_1
 10
62.01384160224575
 20
-51.22466044111114
 30
0.0
  0
VERTEX
  5
231
  8
LAYER_1
 10
62.01287378893362
 20
-51.11696160065718
 30
0.0
  0
VERTEX
  5
232
  8
LAYER_1
 10
61.9945159893433
 20
-50.98234305616303
 30
0.0
  0
VERTEX
  5
233
  8
LAYER_1
 10
61.90774064917619
 20
-50.60661110153994
 30
0.0
  0
VERTEX
  5
234
  8
LAYER_1
 10
61.86579280275314
 20
-50.41682109417667
 30
0.0
  0
VERTEX
  5
235
  8
LAYER_1
 10
61.84443351860553
 20
-50.24940407654105
 30
0.0
  0
VERTEX
  5
236
  8
LAYER_1
 10
61.84391372194182
 20
-50.10343104460284
 30
0.0
  0
VERTEX
  5
237
  8
LAYER_1
 10
61.86448433797045
 20
-49.9779729943318
 30
0.0
  0
VERTEX
  5
238
  8
LAYER_1
 10
61.90639629189987
 20
-49.87210092169771
 30
0.0
  0
VERTEX
  5
239
  8
LAYER_1
 10
61.96990050893854
 20
-49.78488582267032
 30
0.0
  0
VERTEX
  5
23A
  8
LAYER_1
 10
62.0552479142949
 20
-49.71539869321939
 30
0.0
  0
VERTEX
  5
23B
  8
LAYER_1
 10
62.16268943317738
 20
-49.66271052931471
 30
0.0
  0
VERTEX
  5
23C
  8
LAYER_1
 10
62.92500548064709
 20
-49.38662811569463
 30
0.0
  0
VERTEX
  5
23D
  8
LAYER_1
 10
63.38381891690717
 20
-49.21941997196911
 30
0.0
  0
VERTEX
  5
23E
  8
LAYER_1
 10
63.7803220412655
 20
-49.06747645391376
 30
0.0
  0
VERTEX
  5
23F
  8
LAYER_1
 10
64.11911843165018
 20
-48.92862163883746
 30
0.0
  0
VERTEX
  5
240
  8
LAYER_1
 10
64.40481166598931
 20
-48.80067960404907
 30
0.0
  0
VERTEX
  5
241
  8
LAYER_1
 10
64.64200532221105
 20
-48.68147442685743
 30
0.0
  0
VERTEX
  5
242
  8
LAYER_1
 10
64.83530297824353
 20
-48.56883018457145
 30
0.0
  0
VERTEX
  5
243
  8
LAYER_1
 10
64.98930821201485
 20
-48.46057095449997
 30
0.0
  0
VERTEX
  5
244
  8
LAYER_1
 10
65.10862460145313
 20
-48.35452081395185
 30
0.0
  0
VERTEX
  5
245
  8
LAYER_1
 10
65.19998660702012
 20
-48.25968142452992
 30
0.0
  0
VERTEX
  5
246
  8
LAYER_1
 10
65.2692820310782
 20
-48.17837113582223
 30
0.0
  0
VERTEX
  5
247
  8
LAYER_1
 10
65.3202703772705
 20
-48.09795423804599
 30
0.0
  0
VERTEX
  5
248
  8
LAYER_1
 10
65.35671114924018
 20
-48.00579502141841
 30
0.0
  0
VERTEX
  5
249
  8
LAYER_1
 10
65.38236385063033
 20
-47.88925777615667
 30
0.0
  0
VERTEX
  5
24A
  8
LAYER_1
 10
65.40098798508404
 20
-47.73570679247797
 30
0.0
  0
VERTEX
  5
24B
  8
LAYER_1
 10
65.43218856775482
 20
-47.26702077073848
 30
0.0
  0
VERTEX
  5
24C
  8
LAYER_1
 10
65.51833925990292
 20
-46.01166199571909
 30
0.0
  0
VERTEX
  5
24D
  8
LAYER_1
 10
65.53507901789663
 20
-45.75843805945141
 30
0.0
  0
VERTEX
  5
24E
  8
LAYER_1
 10
65.53264278382179
 20
-45.67013295341813
 30
0.0
  0
VERTEX
  5
24F
  8
LAYER_1
 10
65.52084935123297
 20
-45.59923635252796
 30
0.0
  0
VERTEX
  5
250
  8
LAYER_1
 10
65.49808387778053
 20
-45.53965120458794
 30
0.0
  0
VERTEX
  5
251
  8
LAYER_1
 10
65.46273152111486
 20
-45.48528045740511
 30
0.0
  0
VERTEX
  5
252
  8
LAYER_1
 10
65.34780678874529
 20
-45.36779395653922
 30
0.0
  0
VERTEX
  5
253
  8
LAYER_1
 10
65.25716867174825
 20
-45.30031676712797
 30
0.0
  0
VERTEX
  5
254
  8
LAYER_1
 10
65.12995832104522
 20
-45.23110151635125
 30
0.0
  0
VERTEX
  5
255
  8
LAYER_1
 10
64.96515544593666
 20
-45.15980493364872
 30
0.0
  0
VERTEX
  5
256
  8
LAYER_1
 10
64.76173975572297
 20
-45.0860837484601
 30
0.0
  0
VERTEX
  5
257
  8
LAYER_1
 10
64.5186909597046
 20
-45.00959469022506
 30
0.0
  0
VERTEX
  5
258
  8
LAYER_1
 10
64.23498876718193
 20
-44.9299944883833
 30
0.0
  0
VERTEX
  5
259
  8
LAYER_1
 10
63.5415430298255
 20
-44.76008757163842
 30
0.0
  0
VERTEX
  5
25A
  8
LAYER_1
 10
63.22058054175096
 20
-44.68690731444612
 30
0.0
  0
VERTEX
  5
25B
  8
LAYER_1
 10
63.55080806081844
 20
-44.43475985232969
 30
0.0
  0
VERTEX
  5
25C
  8
LAYER_1
 10
63.68273662259342
 20
-44.3271943704688
 30
0.0
  0
VERTEX
  5
25D
  8
LAYER_1
 10
63.79783308146222
 20
-44.22071370094925
 30
0.0
  0
VERTEX
  5
25E
  8
LAYER_1
 10
63.88372015258654
 20
-44.12760902349657
 30
0.0
  0
VERTEX
  5
25F
  8
LAYER_1
 10
63.9280205511281
 20
-44.06017151783637
 30
0.0
  0
VERTEX
  5
260
  8
LAYER_1
 10
63.97500552237034
 20
-43.93773064545947
 30
0.0
  0
VERTEX
  5
261
  8
LAYER_1
 10
63.97500552237034
 20
-41.7030472567091
 30
0.0
  0
VERTEX
  5
262
  8
LAYER_1
 10
63.33750549703836
 20
-41.37437263702415
 30
0.0
  0
VERTEX
  5
263
  8
LAYER_1
 10
61.46250542253256
 20
-41.30627455060306
 30
0.0
  0
VERTEX
  5
264
  8
LAYER_1
 10
60.56137745703745
 20
-41.28235650041557
 30
0.0
  0
VERTEX
  5
265
  8
LAYER_1
 10
59.49387253180612
 20
-41.26757342690921
 30
0.0
  0
VERTEX
  5
266
  8
LAYER_1
 10
58.39349651151861
 20
-41.26311056372197
 30
0.0
  0
VERTEX
  5
267
  8
LAYER_1
 10
57.39375526085496
 20
-41.27015314449189
 30
0.0
  0
VERTEX
  5
268
  8
LAYER_1
 10
55.20000517368317
 20
-41.3021298248018
 30
0.0
  0
VERTEX
  5
269
  8
LAYER_1
 10
55.20000517368317
 20
-8.924997374415398
 30
0.0
  0
VERTEX
  5
26A
  8
LAYER_1
 10
55.36318744131458
 20
-8.924997374415398
 30
0.0
  0
VERTEX
  5
26B
  8
LAYER_1
 10
56.21527445985188
 20
-8.587987902399732
 30
0.0
  0
VERTEX
  5
26C
  8
LAYER_1
 10
56.74682045661366
 20
-8.391359475874287
 30
0.0
  0
VERTEX
  5
26D
  8
LAYER_1
 10
57.31134383560953
 20
-8.20866489212872
 30
0.0
  0
VERTEX
  5
26E
  8
LAYER_1
 10
57.90677310181417
 20
-8.040377577604705
 30
0.0
  0
VERTEX
  5
26F
  8
LAYER_1
 10
58.53103676020221
 20
-7.886970958743923
 30
0.0
  0
VERTEX
  5
270
  8
LAYER_1
 10
59.18206331574835
 20
-7.748918461988049
 30
0.0
  0
VERTEX
  5
271
  8
LAYER_1
 10
59.85778127342725
 20
-7.626693513778763
 30
0.0
  0
VERTEX
  5
272
  8
LAYER_1
 10
60.55611913821357
 20
-7.520769540557739
 30
0.0
  0
VERTEX
  5
273
  8
LAYER_1
 10
61.27500541508198
 20
-7.431619968766654
 30
0.0
  0
VERTEX
  5
274
  8
LAYER_1
 10
64.87500555813313
 20
-7.043708394567673
 30
0.0
  0
VERTEX
  5
275
  8
LAYER_1
 10
65.40128239008347
 20
-6.97886121151106
 30
0.0
  0
VERTEX
  5
276
  8
LAYER_1
 10
65.9517352660912
 20
-6.894762037256281
 30
0.0
  0
VERTEX
  5
277
  8
LAYER_1
 10
66.51409376254355
 20
-6.79406683241977
 30
0.0
  0
VERTEX
  5
278
  8
LAYER_1
 10
67.0760874558277
 20
-6.67943155761796
 30
0.0
  0
VERTEX
  5
279
  8
LAYER_1
 10
67.62544592233084
 20
-6.553512173467281
 30
0.0
  0
VERTEX
  5
27A
  8
LAYER_1
 10
68.14989873844016
 20
-6.418964640584165
 30
0.0
  0
VERTEX
  5
27B
  8
LAYER_1
 10
68.63717548054285
 20
-6.278444919585045
 30
0.0
  0
VERTEX
  5
27C
  8
LAYER_1
 10
69.07500572502613
 20
-6.134608971086351
 30
0.0
  0
VERTEX
  5
27D
  8
LAYER_1
 10
69.39777354005594
 20
-6.01279077509351
 30
0.0
  0
VERTEX
  5
27E
  8
LAYER_1
 10
69.74119361318671
 20
-5.869126839554964
 30
0.0
  0
VERTEX
  5
27F
  8
LAYER_1
 10
70.09655167731674
 20
-5.707990906500148
 30
0.0
  0
VERTEX
  5
280
  8
LAYER_1
 10
70.45513346534435
 20
-5.533756717958504
 30
0.0
  0
VERTEX
  5
281
  8
LAYER_1
 10
70.80822471016782
 20
-5.350798015959466
 30
0.0
  0
VERTEX
  5
282
  8
LAYER_1
 10
71.14711114468548
 20
-5.163488542532471
 30
0.0
  0
VERTEX
  5
283
  8
LAYER_1
 10
71.46307850179564
 20
-4.97620203970696
 30
0.0
  0
VERTEX
  5
284
  8
LAYER_1
 10
71.74741251439659
 20
-4.793312249512368
 30
0.0
  0
VERTEX
  5
285
  8
LAYER_1
 10
72.30872556203587
 20
-4.414542119282515
 30
0.0
  0
VERTEX
  5
286
  8
LAYER_1
 10
72.3540517051845
 20
-4.296424083622796
 30
0.0
  0
VERTEX
  5
287
  8
LAYER_1
 10
72.36591827881033
 20
-4.231482232093825
 30
0.0
  0
VERTEX
  5
288
  8
LAYER_1
 10
72.34971504839902
 20
-4.172143406830723
 30
0.0
  0
VERTEX
  5
289
  8
LAYER_1
 10
72.30567697387062
 20
-4.118530915401707
 30
0.0
  0
VERTEX
  5
28A
  8
LAYER_1
 10
72.2340390151451
 20
-4.070768065374992
 30
0.0
  0
VERTEX
  5
28B
  8
LAYER_1
 10
72.13503613214252
 20
-4.028978164318793
 30
0.0
  0
VERTEX
  5
28C
  8
LAYER_1
 10
72.00890328478286
 20
-3.993284519801326
 30
0.0
  0
VERTEX
  5
28D
  8
LAYER_1
 10
71.85587543298617
 20
-3.963810439390805
 30
0.0
  0
VERTEX
  5
28E
  8
LAYER_1
 10
71.67618753667244
 20
-3.940679230655448
 30
0.0
  0
VERTEX
  5
28F
  8
LAYER_1
 10
71.09228570183343
 20
-3.87485322525764
 30
0.0
  0
VERTEX
  5
290
  8
LAYER_1
 10
70.52262501187835
 20
-3.799058225306234
 30
0.0
  0
VERTEX
  5
291
  8
LAYER_1
 10
69.96447298448388
 20
-3.712489002141845
 30
0.0
  0
VERTEX
  5
292
  8
LAYER_1
 10
69.41509713732668
 20
-3.614340327105086
 30
0.0
  0
VERTEX
  5
293
  8
LAYER_1
 10
68.87176498808343
 20
-3.503806971536572
 30
0.0
  0
VERTEX
  5
294
  8
LAYER_1
 10
68.33174405443079
 20
-3.380083706776916
 30
0.0
  0
VERTEX
  5
295
  8
LAYER_1
 10
67.79230185404543
 20
-3.242365304166732
 30
0.0
  0
VERTEX
  5
296
  8
LAYER_1
 10
67.25070590460403
 20
-3.089846535046634
 30
0.0
  0
VERTEX
  5
297
  8
LAYER_1
 10
66.70422372378326
 20
-2.921722170757237
 30
0.0
  0
VERTEX
  5
298
  8
LAYER_1
 10
66.1501228292598
 20
-2.737186982639153
 30
0.0
  0
VERTEX
  5
299
  8
LAYER_1
 10
65.5856707387103
 20
-2.535435742032997
 30
0.0
  0
VERTEX
  5
29A
  8
LAYER_1
 10
65.00813496981144
 20
-2.315663220279383
 30
0.0
  0
VERTEX
  5
29B
  8
LAYER_1
 10
64.41478304023988
 20
-2.077064188718924
 30
0.0
  0
VERTEX
  5
29C
  8
LAYER_1
 10
63.80288246767232
 20
-1.818833418692235
 30
0.0
  0
VERTEX
  5
29D
  8
LAYER_1
 10
63.16970076978541
 20
-1.540165681539929
 30
0.0
  0
VERTEX
  5
29E
  8
LAYER_1
 10
62.51250546425581
 20
-1.240255748602621
 30
0.0
  0
VERTEX
  5
29F
  8
LAYER_1
 10
61.82851478602392
 20
-0.9352587067559972
 30
0.0
  0
VERTEX
  5
2A0
  8
LAYER_1
 10
61.11517334012456
 20
-0.6394588324355421
 30
0.0
  0
VERTEX
  5
2A1
  8
LAYER_1
 10
60.41168560700986
 20
-0.3685376248003809
 30
0.0
  0
VERTEX
  5
2A2
  8
LAYER_1
 10
59.75725606713195
 20
-0.1381765830096384
 30
0.0
  0
VERTEX
  5
2A3
  8
LAYER_1
 10
58.87700674451389
 20
0.1541596273445407
 30
0.0
  0
VERTEX
  5
2A4
  8
LAYER_1
 10
58.16250529140234
 20
0.3040325482440522
 30
0.0
  0
VERTEX
  5
2A5
  8
LAYER_1
 10
57.26250525563955
 20
0.4498077506446521
 30
0.0
  0
VERTEX
  5
2A6
  8
LAYER_1
 10
56.86718785711855
 20
0.5065839132775125
 30
0.0
  0
VERTEX
  5
2A7
  8
LAYER_1
 10
56.4561380360974
 20
0.5534106823349436
 30
0.0
  0
VERTEX
  5
2A8
  8
LAYER_1
 10
56.07795931013243
 20
0.5854322925259863
 30
0.0
  0
VERTEX
  5
2A9
  8
LAYER_1
 10
55.78125519677997
 20
0.5977929785596814
 30
0.0
  0
VERTEX
  5
2AA
  8
LAYER_1
 10
55.20000517368317
 20
0.6000030040740967
 30
0.0
  0
VERTEX
  5
2AB
  8
LAYER_1
 10
55.20000517368317
 20
1.04557674720148
 30
0.0
  0
VERTEX
  5
2AC
  8
LAYER_1
 10
55.19365307630754
 20
1.222510489228152
 30
0.0
  0
VERTEX
  5
2AD
  8
LAYER_1
 10
55.17635776167094
 20
1.374878107654739
 30
0.0
  0
VERTEX
  5
2AE
  8
LAYER_1
 10
55.15076069600876
 20
1.486426698121256
 30
0.0
  0
VERTEX
  5
2AF
  8
LAYER_1
 10
55.13567446474164
 20
1.521814825256994
 30
0.0
  0
VERTEX
  5
2B0
  8
LAYER_1
 10
55.11950334555641
 20
1.540903356267719
 30
0.0
  0
VERTEX
  5
2B1
  8
LAYER_1
 10
55.08237748935399
 20
1.555490469836966
 30
0.0
  0
VERTEX
  5
2B2
  8
LAYER_1
 10
55.02480148923446
 20
1.567287450747581
 30
0.0
  0
VERTEX
  5
2B3
  8
LAYER_1
 10
54.8601536970248
 20
1.582905473342274
 30
0.0
  0
VERTEX
  5
2B4
  8
LAYER_1
 10
54.64926924848876
 20
1.588546341550516
 30
0.0
  0
VERTEX
  5
2B5
  8
LAYER_1
 10
54.41585742318767
 20
1.584998972871023
 30
0.0
  0
VERTEX
  5
2B6
  8
LAYER_1
 10
54.18362750068284
 20
1.573052284802514
 30
0.0
  0
VERTEX
  5
2B7
  8
LAYER_1
 10
53.97628876053561
 20
1.553495194843705
 30
0.0
  0
VERTEX
  5
2B8
  8
LAYER_1
 10
53.8175504823073
 20
1.527116620493314
 30
0.0
  0
VERTEX
  5
2B9
  8
LAYER_1
 10
53.76381566627566
 20
1.511615813389624
 30
0.0
  0
VERTEX
  5
2BA
  8
LAYER_1
 10
53.73112194555924
 20
1.494705479250058
 30
0.0
  0
VERTEX
  5
2BB
  8
LAYER_1
 10
53.70734692786338
 20
1.4682142210119
 30
0.0
  0
VERTEX
  5
2BC
  8
LAYER_1
 10
53.68630644900148
 20
1.43080625099525
 30
0.0
  0
VERTEX
  5
2BD
  8
LAYER_1
 10
53.65296598061923
 20
1.325685628735718
 30
0.0
  0
VERTEX
  5
2BE
  8
LAYER_1
 10
53.63217428609174
 20
1.184234518689945
 30
0.0
  0
VERTEX
  5
2BF
  8
LAYER_1
 10
53.62500511109829
 20
1.011343827076416
 30
0.0
  0
VERTEX
  5
2C0
  8
LAYER_1
 10
53.61872050632144
 20
0.8281212389191792
 30
0.0
  0
VERTEX
  5
2C1
  8
LAYER_1
 10
53.59887116465417
 20
0.6978499238841582
 30
0.0
  0
VERTEX
  5
2C2
  8
LAYER_1
 10
53.58339306404753
 20
0.6507522367449017
 30
0.0
  0
VERTEX
  5
2C3
  8
LAYER_1
 10
53.56396379509137
 20
0.6147098594351064
 30
0.0
  0
VERTEX
  5
2C4
  8
LAYER_1
 10
53.54039669641006
 20
0.5889952891377417
 30
0.0
  0
VERTEX
  5
2C5
  8
LAYER_1
 10
53.51250510662794
 20
0.5728810230357766
 30
0.0
  0
VERTEX
  5
2C6
  8
LAYER_1
 10
53.40000510215759
 20
0.5297107207292271
 30
0.0
  0
VERTEX
  5
2C7
  8
LAYER_1
 10
53.40000510215759
 20
-8.924997374415398
 30
0.0
  0
VERTEX
  5
2C8
  8
LAYER_1
 10
53.62500511109829
 20
-8.924997374415398
 30
0.0
  0
VERTEX
  5
2C9
  8
LAYER_1
 10
53.62500511109829
 20
-41.37591836109441
 30
0.0
  0
VERTEX
  5
2CA
  8
LAYER_1
 10
47.66250487416983
 20
-41.47591612221697
 30
0.0
  0
VERTEX
  5
2CB
  8
LAYER_1
 10
42.9375046864152
 20
-41.62294841043802
 30
0.0
  0
VERTEX
  5
2CC
  8
LAYER_1
 10
41.36250462383032
 20
-41.73568538077713
 30
0.0
  0
VERTEX
  5
2CD
  8
LAYER_1
 10
39.84258268843405
 20
-41.83713362696334
 30
0.0
  0
VERTEX
  5
2CE
  8
LAYER_1
 10
38.40000450611115
 20
-41.92272962221141
 30
0.0
  0
VERTEX
  5
2CF
  8
LAYER_1
 10
37.01250445097685
 20
-41.99703689330657
 30
0.0
  0
VERTEX
  5
2D0
  8
LAYER_1
 10
36.50724364355112
 20
-42.13817232079687
 30
0.0
  0
VERTEX
  5
2D1
  8
LAYER_1
 10
36.20612514055237
 20
-42.23484678312249
 30
0.0
  0
VERTEX
  5
2D2
  8
LAYER_1
 10
35.94771943229466
 20
-42.34506862025992
 30
0.0
  0
VERTEX
  5
2D3
  8
LAYER_1
 10
35.83428694822846
 20
-42.40549446369546
 30
0.0
  0
VERTEX
  5
2D4
  8
LAYER_1
 10
35.73123634928925
 20
-42.46958874200884
 30
0.0
  0
VERTEX
  5
2D5
  8
LAYER_1
 10
35.63846886429094
 20
-42.53744531892502
 30
0.0
  0
VERTEX
  5
2D6
  8
LAYER_1
 10
35.55588572204742
 20
-42.60915805816897
 30
0.0
  0
VERTEX
  5
2D7
  8
LAYER_1
 10
35.48338815137262
 20
-42.68482082346563
 30
0.0
  0
VERTEX
  5
2D8
  8
LAYER_1
 10
35.42087738108044
 20
-42.76452747853997
 30
0.0
  0
VERTEX
  5
2D9
  8
LAYER_1
 10
35.3682546399848
 20
-42.84837188711697
 30
0.0
  0
VERTEX
  5
2DA
  8
LAYER_1
 10
35.32542115689959
 20
-42.93644791292157
 30
0.0
  0
VERTEX
  5
2DB
  8
LAYER_1
 10
35.29227816063874
 20
-43.02884941967873
 30
0.0
  0
VERTEX
  5
2DC
  8
LAYER_1
 10
35.26872688001615
 20
-43.12567027111341
 30
0.0
  0
VERTEX
  5
2DD
  8
LAYER_1
 10
35.25466854384573
 20
-43.22700433095059
 30
0.0
  0
VERTEX
  5
2DE
  8
LAYER_1
 10
35.25000438094139
 20
-43.33294546291522
 30
0.0
  0
VERTEX
  5
2DF
  8
LAYER_1
 10
35.24398852113093
 20
-43.50304941397197
 30
0.0
  0
VERTEX
  5
2E0
  8
LAYER_1
 10
35.23125394037492
 20
-43.55814658147828
 30
0.0
  0
VERTEX
  5
2E1
  8
LAYER_1
 10
35.20739958705801
 20
-43.59846252169653
 30
0.0
  0
VERTEX
  5
2E2
  8
LAYER_1
 10
35.1689489571849
 20
-43.62788871817173
 30
0.0
  0
VERTEX
  5
2E3
  8
LAYER_1
 10
35.11242554676028
 20
-43.65031665444885
 30
0.0
  0
VERTEX
  5
2E4
  8
LAYER_1
 10
34.9312543682754
 20
-43.68974368058884
 30
0.0
  0
VERTEX
  5
2E5
  8
LAYER_1
 10
34.61250435560942
 20
-43.74923897369342
 30
0.0
  0
VERTEX
  5
2E6
  8
LAYER_1
 10
26.4375040307641
 20
-43.78288037519082
 30
0.0
  0
VERTEX
  5
2E7
  8
LAYER_1
 10
24.52500395476818
 20
-43.86287473102807
 30
0.0
  0
VERTEX
  5
2E8
  8
LAYER_1
 10
23.65486790985909
 20
-43.89354490030629
 30
0.0
  0
VERTEX
  5
2E9
  8
LAYER_1
 10
22.69946815316646
 20
-43.91791834544301
 30
0.0
  0
VERTEX
  5
2EA
  8
LAYER_1
 10
21.77459840769733
 20
-43.93353248773999
 30
0.0
  0
VERTEX
  5
2EB
  8
LAYER_1
 10
20.99605239645874
 20
-43.93792474849896
 30
0.0
  0
VERTEX
  5
2EC
  8
LAYER_1
 10
20.45709763044435
 20
-43.93970318017567
 30
0.0
  0
VERTEX
  5
2ED
  8
LAYER_1
 10
19.95777575152743
 20
-43.94939923820327
 30
0.0
  0
VERTEX
  5
2EE
  8
LAYER_1
 10
19.47966476933729
 20
-43.9683702762658
 30
0.0
  0
VERTEX
  5
2EF
  8
LAYER_1
 10
19.00434269350324
 20
-43.99797364804734
 30
0.0
  0
VERTEX
  5
2F0
  8
LAYER_1
 10
18.51338753365459
 20
-44.03956670723196
 30
0.0
  0
VERTEX
  5
2F1
  8
LAYER_1
 10
17.98837729942065
 20
-44.09450680750372
 30
0.0
  0
VERTEX
  5
2F2
  8
LAYER_1
 10
16.76250364631414
 20
-44.24985754604497
 30
0.0
  0
VERTEX
  5
2F3
  8
LAYER_1
 10
16.24851925089024
 20
-44.31342309671565
 30
0.0
  0
VERTEX
  5
2F4
  8
LAYER_1
 10
15.75000360608101
 20
-44.36561015646411
 30
0.0
  0
VERTEX
  5
2F5
  8
LAYER_1
 10
15.1201837661512
 20
-44.43642089739895
 30
0.0
  0
VERTEX
  5
2F6
  8
LAYER_1
 10
14.46559572832948
 20
-44.53257372173097
 30
0.0
  0
VERTEX
  5
2F7
  8
LAYER_1
 10
13.88133660665925
 20
-44.63855248563939
 30
0.0
  0
VERTEX
  5
2F8
  8
LAYER_1
 10
13.64529823751951
 20
-44.69037779999073
 30
0.0
  0
VERTEX
  5
2F9
  8
LAYER_1
 10
13.46250351518393
 20
-44.73884104530337
 30
0.0
  0
VERTEX
  5
2FA
  8
LAYER_1
 10
13.25842991695461
 20
-44.80382298098227
 30
0.0
  0
VERTEX
  5
2FB
  8
LAYER_1
 10
13.08227605804589
 20
-44.86733551074899
 30
0.0
  0
VERTEX
  5
2FC
  8
LAYER_1
 10
12.92976151770095
 20
-44.93178695899294
 30
0.0
  0
VERTEX
  5
2FD
  8
LAYER_1
 10
12.79660587516293
 20
-44.99958565010347
 30
0.0
  0
VERTEX
  5
2FE
  8
LAYER_1
 10
12.67852870967502
 20
-45.07313990846998
 30
0.0
  0
VERTEX
  5
2FF
  8
LAYER_1
 10
12.57124960048036
 20
-45.15485805848185
 30
0.0
  0
VERTEX
  5
300
  8
LAYER_1
 10
12.47048812682214
 20
-45.24714842452844
 30
0.0
  0
VERTEX
  5
301
  8
LAYER_1
 10
12.37196386794351
 20
-45.35241933099915
 30
0.0
  0
VERTEX
  5
302
  8
LAYER_1
 10
12.12787961731132
 20
-45.63041593441909
 30
0.0
  0
VERTEX
  5
303
  8
LAYER_1
 10
12.21633972193037
 20
-48.33749894052744
 30
0.0
  0
VERTEX
  5
304
  8
LAYER_1
 10
12.31442159769551
 20
-48.61250891468941
 30
0.0
  0
VERTEX
  5
305
  8
LAYER_1
 10
12.37209218224293
 20
-48.74695367284099
 30
0.0
  0
VERTEX
  5
306
  8
LAYER_1
 10
12.44491557119882
 20
-48.86438857167786
 30
0.0
  0
VERTEX
  5
307
  8
LAYER_1
 10
12.53640554705283
 20
-48.96719125787971
 30
0.0
  0
VERTEX
  5
308
  8
LAYER_1
 10
12.65007589229463
 20
-49.05773937812623
 30
0.0
  0
VERTEX
  5
309
  8
LAYER_1
 10
12.78944038941386
 20
-49.1384105790971
 30
0.0
  0
VERTEX
  5
30A
  8
LAYER_1
 10
12.95801282090018
 20
-49.211582507472
 30
0.0
  0
VERTEX
  5
30B
  8
LAYER_1
 10
13.15930696924325
 20
-49.27963280993063
 30
0.0
  0
VERTEX
  5
30C
  8
LAYER_1
 10
13.39683661693272
 20
-49.34493913315266
 30
0.0
  0
VERTEX
  5
30D
  8
LAYER_1
 10
14.76861699048979
 20
-49.68887033058267
 30
0.0
  0
VERTEX
  5
30E
  8
LAYER_1
 10
15.54973044493403
 20
-49.88393372947604
 30
0.0
  0
VERTEX
  5
30F
  8
LAYER_1
 10
15.76014370239808
 20
-49.99274265368857
 30
0.0
  0
VERTEX
  5
310
  8
LAYER_1
 10
15.85379782600669
 20
-50.04789082809029
 30
0.0
  0
VERTEX
  5
311
  8
LAYER_1
 10
15.93264001984464
 20
-50.1106243845782
 30
0.0
  0
VERTEX
  5
312
  8
LAYER_1
 10
15.99855934594117
 20
-50.18463435345945
 30
0.0
  0
VERTEX
  5
313
  8
LAYER_1
 10
16.05344486632551
 20
-50.27361176504119
 30
0.0
  0
VERTEX
  5
314
  8
LAYER_1
 10
16.09918564302689
 20
-50.38124764963055
 30
0.0
  0
VERTEX
  5
315
  8
LAYER_1
 10
16.13767073807455
 20
-50.51123303753469
 30
0.0
  0
VERTEX
  5
316
  8
LAYER_1
 10
16.17078921349772
 20
-50.66725895906075
 30
0.0
  0
VERTEX
  5
317
  8
LAYER_1
 10
16.20043013132563
 20
-50.85301644451587
 30
0.0
  0
VERTEX
  5
318
  8
LAYER_1
 10
16.23230234066251
 20
-51.04869499045842
 30
0.0
  0
VERTEX
  5
319
  8
LAYER_1
 10
16.26991557786788
 20
-51.21789674774307
 30
0.0
  0
VERTEX
  5
31A
  8
LAYER_1
 10
16.31547261928463
 20
-51.36498819372352
 30
0.0
  0
VERTEX
  5
31B
  8
LAYER_1
 10
16.37117624125561
 20
-51.49433580575345
 30
0.0
  0
VERTEX
  5
31C
  8
LAYER_1
 10
16.43922922012371
 20
-51.61030606118654
 30
0.0
  0
VERTEX
  5
31D
  8
LAYER_1
 10
16.52183433223182
 20
-51.71726543737648
 30
0.0
  0
VERTEX
  5
31E
  8
LAYER_1
 10
16.6211943539228
 20
-51.81958041167693
 30
0.0
  0
VERTEX
  5
31F
  8
LAYER_1
 10
16.73951206153953
 20
-51.92161746144158
 30
0.0
  0
VERTEX
  5
320
  8
LAYER_1
 10
16.86197364809274
 20
-52.0068571963999
 30
0.0
  0
VERTEX
  5
321
  8
LAYER_1
 10
17.01382317995918
 20
-52.07861371417734
 30
0.0
  0
VERTEX
  5
322
  8
LAYER_1
 10
17.22020238125023
 20
-52.14113256254967
 30
0.0
  0
VERTEX
  5
323
  8
LAYER_1
 10
17.50625297607731
 20
-52.1986592892927
 30
0.0
  0
VERTEX
  5
324
  8
LAYER_1
 10
17.89711668855183
 20
-52.25543944218218
 30
0.0
  0
VERTEX
  5
325
  8
LAYER_1
 10
18.41793524278518
 20
-52.3157185689939
 30
0.0
  0
VERTEX
  5
326
  8
LAYER_1
 10
19.95000377297401
 20
-52.46375593548714
 30
0.0
  0
VERTEX
  5
327
  8
LAYER_1
 10
21.26250382512808
 20
-52.58395029307902
 30
0.0
  0
VERTEX
  5
328
  8
LAYER_1
 10
21.86250384896994
 20
-52.69506064350584
 30
0.0
  0
VERTEX
  5
329
  8
LAYER_1
 10
22.17907231608065
 20
-52.75424779414226
 30
0.0
  0
VERTEX
  5
32A
  8
LAYER_1
 10
22.41495841125438
 20
-52.80509739571681
 30
0.0
  0
VERTEX
  5
32B
  8
LAYER_1
 10
22.58202032582332
 20
-52.85801939420678
 30
0.0
  0
VERTEX
  5
32C
  8
LAYER_1
 10
22.6434479001723
 20
-52.88851065041295
 30
0.0
  0
VERTEX
  5
32D
  8
LAYER_1
 10
22.69211625111966
 20
-52.92342373558947
 30
0.0
  0
VERTEX
  5
32E
  8
LAYER_1
 10
22.72950765258192
 20
-52.96405989298349
 30
0.0
  0
VERTEX
  5
32F
  8
LAYER_1
 10
22.75710437847559
 20
-53.01172036584217
 30
0.0
  0
VERTEX
  5
330
  8
LAYER_1
 10
22.77638870271721
 20
-53.06770639741269
 30
0.0
  0
VERTEX
  5
331
  8
LAYER_1
 10
22.7888428992233
 20
-53.13331923094219
 30
0.0
  0
VERTEX
  5
332
  8
LAYER_1
 10
22.79919000469499
 20
-53.29863027686682
 30
0.0
  0
VERTEX
  5
333
  8
LAYER_1
 10
22.80000388622284
 20
-53.51806344959334
 30
0.0
  0
VERTEX
  5
334
  8
LAYER_1
 10
22.80695448317118
 20
-53.77037203953113
 30
0.0
  0
VERTEX
  5
335
  8
LAYER_1
 10
22.83004353563287
 20
-53.97936709664972
 30
0.0
  0
VERTEX
  5
336
  8
LAYER_1
 10
22.87262693603297
 20
-54.15037651593447
 30
0.0
  0
VERTEX
  5
337
  8
LAYER_1
 10
22.90227773309273
 20
-54.22330157857208
 30
0.0
  0
VERTEX
  5
338
  8
LAYER_1
 10
22.93806057679648
 20
-54.28872819237074
 30
0.0
  0
VERTEX
  5
339
  8
LAYER_1
 10
22.98039495369733
 20
-54.34732234420362
 30
0.0
  0
VERTEX
  5
33A
  8
LAYER_1
 10
23.02970035034844
 20
-54.39975002094388
 30
0.0
  0
VERTEX
  5
33B
  8
LAYER_1
 10
23.08639625330291
 20
-54.44667720946471
 30
0.0
  0
VERTEX
  5
33C
  8
LAYER_1
 10
23.15090214911388
 20
-54.48876989663926
 30
0.0
  0
VERTEX
  5
33D
  8
LAYER_1
 10
23.30502186551783
 20
-54.56111571444223
 30
0.0
  0
VERTEX
  5
33E
  8
LAYER_1
 10
23.49541539198532
 20
-54.62211536933813
 30
0.0
  0
VERTEX
  5
33F
  8
LAYER_1
 10
23.88750392943621
 20
-54.72890931601385
 30
0.0
  0
VERTEX
  5
340
  8
LAYER_1
 10
24.97500397264957
 20
-54.85034288321533
 30
0.0
  0
VERTEX
  5
341
  8
LAYER_1
 10
26.05148839042522
 20
-54.95897764747198
 30
0.0
  0
VERTEX
  5
342
  8
LAYER_1
 10
27.11250405758619
 20
-55.0496396246146
 30
0.0
  0
SEQEND
  5
FF5
  8
LAYER_1
  0
POLYLINE
  5
72
  8
LAYER_1
 66
     1
 10
0.0
 20
0.0
 30
0.0
 70
     1
  0
VERTEX
  5
343
  8
LAYER_1
 10
-40.54703048785452
 20
-44.43645918417953
 30
0.0
  0
VERTEX
  5
344
  8
LAYER_1
 10
-40.22037672594416
 20
-44.51058599150987
 30
0.0
  0
VERTEX
  5
345
  8
LAYER_1
 10
-40.07814331353806
 20
-44.53384486174937
 30
0.0
  0
VERTEX
  5
346
  8
LAYER_1
 10
-39.97499860823154
 20
-44.54322950803635
 30
0.0
  0
VERTEX
  5
347
  8
LAYER_1
 10
-39.86035896503145
 20
-44.53870004639741
 30
0.0
  0
VERTEX
  5
348
  8
LAYER_1
 10
-39.72738454640805
 20
-44.52251193432898
 30
0.0
  0
VERTEX
  5
349
  8
LAYER_1
 10
-39.42621601545376
 20
-44.4601758336687
 30
0.0
  0
VERTEX
  5
34A
  8
LAYER_1
 10
-39.11106228049353
 20
-44.36625335558551
 30
0.0
  0
VERTEX
  5
34B
  8
LAYER_1
 10
-38.9606063568627
 20
-44.31058227173848
 30
0.0
  0
VERTEX
  5
34C
  8
LAYER_1
 10
-38.82149260665221
 20
-44.25077664960946
 30
0.0
  0
VERTEX
  5
34D
  8
LAYER_1
 10
-38.71271601309782
 20
-44.19798013030582
 30
0.0
  0
VERTEX
  5
34E
  8
LAYER_1
 10
-38.60707843008865
 20
-44.13936257323873
 30
0.0
  0
VERTEX
  5
34F
  8
LAYER_1
 10
-38.48789709124435
 20
-44.06244131314598
 30
0.0
  0
VERTEX
  5
350
  8
LAYER_1
 10
-38.33848923018455
 20
-43.95473368476539
 30
0.0
  0
VERTEX
  5
351
  8
LAYER_1
 10
-37.88226287589693
 20
-43.59702866209179
 30
0.0
  0
VERTEX
  5
352
  8
LAYER_1
 10
-37.10493723618283
 20
-42.96638618312026
 30
0.0
  0
VERTEX
  5
353
  8
LAYER_1
 10
-36.40398665984787
 20
-42.39527361644793
 30
0.0
  0
VERTEX
  5
354
  8
LAYER_1
 10
-33.86249836534262
 20
-40.61930865001975
 30
0.0
  0
VERTEX
  5
355
  8
LAYER_1
 10
-33.8249983638525
 20
-40.57819118625322
 30
0.0
  0
VERTEX
  5
356
  8
LAYER_1
 10
-33.66632648254745
 20
-40.46302211237217
 30
0.0
  0
VERTEX
  5
357
  8
LAYER_1
 10
-33.33749834448099
 20
-40.24386567109627
 30
0.0
  0
VERTEX
  5
358
  8
LAYER_1
 10
-32.81095468296398
 20
-39.88063599864455
 30
0.0
  0
VERTEX
  5
359
  8
LAYER_1
 10
-32.17692420272464
 20
-39.41907809236202
 30
0.0
  0
VERTEX
  5
35A
  8
LAYER_1
 10
-31.46635007884969
 20
-38.88749856501818
 30
0.0
  0
VERTEX
  5
35B
  8
LAYER_1
 10
-31.23942416547174
 20
-38.74681026844546
 30
0.0
  0
VERTEX
  5
35C
  8
LAYER_1
 10
-31.06814211371084
 20
-38.63358182350754
 30
0.0
  0
VERTEX
  5
35D
  8
LAYER_1
 10
-30.97499825060368
 20
-38.55891402129082
 30
0.0
  0
VERTEX
  5
35E
  8
LAYER_1
 10
-30.93749824911356
 20
-38.51170607070889
 30
0.0
  0
VERTEX
  5
35F
  8
LAYER_1
 10
-29.73749820142984
 20
-37.62348346891962
 30
0.0
  0
VERTEX
  5
360
  8
LAYER_1
 10
-29.69999819993973
 20
-37.57652627481843
 30
0.0
  0
VERTEX
  5
361
  8
LAYER_1
 10
-29.58582344518834
 20
-37.47843363898586
 30
0.0
  0
VERTEX
  5
362
  8
LAYER_1
 10
-29.36397776032537
 20
-37.30853378710493
 30
0.0
  0
VERTEX
  5
363
  8
LAYER_1
 10
-28.91397774244398
 20
-36.96490297975652
 30
0.0
  0
VERTEX
  5
364
  8
LAYER_1
 10
-28.76249816268682
 20
-36.84230746602045
 30
0.0
  0
VERTEX
  5
365
  8
LAYER_1
 10
-27.63749811798334
 20
-35.89381350558654
 30
0.0
  0
VERTEX
  5
366
  8
LAYER_1
 10
-27.56249811500311
 20
-35.81249844282866
 30
0.0
  0
VERTEX
  5
367
  8
LAYER_1
 10
-27.03749809414148
 20
-35.36550874367815
 30
0.0
  0
VERTEX
  5
368
  8
LAYER_1
 10
-26.45804693098247
 20
-34.85065672964691
 30
0.0
  0
VERTEX
  5
369
  8
LAYER_1
 10
-25.80213246161861
 20
-34.24050869897466
 30
0.0
  0
VERTEX
  5
36A
  8
LAYER_1
 10
-25.09176684995735
 20
-33.56249835342169
 30
0.0
  0
VERTEX
  5
36B
  8
LAYER_1
 10
-24.78963242138548
 20
-33.26058010986904
 30
0.0
  0
VERTEX
  5
36C
  8
LAYER_1
 10
-24.18734542034088
 20
-32.6420034205123
 30
0.0
  0
VERTEX
  5
36D
  8
LAYER_1
 10
-23.54137659780185
 20
-31.9528254997446
 30
0.0
  0
VERTEX
  5
36E
  8
LAYER_1
 10
-22.9654989448567
 20
-31.31647385388311
 30
0.0
  0
VERTEX
  5
36F
  8
LAYER_1
 10
-22.73939836669693
 20
-31.0566789797663
 30
0.0
  0
VERTEX
  5
370
  8
LAYER_1
 10
-22.57348545259376
 20
-30.85637598924497
 30
0.0
  0
VERTEX
  5
371
  8
LAYER_1
 10
-22.4594729838995
 20
-30.71249824017286
 30
0.0
  0
VERTEX
  5
372
  8
LAYER_1
 10
-21.96950895355205
 20
-30.11249821633101
 30
0.0
  0
VERTEX
  5
373
  8
LAYER_1
 10
-21.428830500389
 20
-29.4342961133242
 30
0.0
  0
VERTEX
  5
374
  8
LAYER_1
 10
-20.93014692329837
 20
-28.77251200766079
 30
0.0
  0
VERTEX
  5
375
  8
LAYER_1
 10
-20.44409510472686
 20
-28.08697097876534
 30
0.0
  0
VERTEX
  5
376
  8
LAYER_1
 10
-19.9413119271212
 20
-27.33749810606241
 30
0.0
  0
VERTEX
  5
377
  8
LAYER_1
 10
-19.30229114124639
 20
-26.36249806731939
 30
0.0
  0
VERTEX
  5
378
  8
LAYER_1
 10
-18.66890207922026
 20
-25.27588980186904
 30
0.0
  0
VERTEX
  5
379
  8
LAYER_1
 10
-18.07828102665328
 20
-24.09419386604888
 30
0.0
  0
VERTEX
  5
37A
  8
LAYER_1
 10
-17.81494332431551
 20
-23.55799522457169
 30
0.0
  0
VERTEX
  5
37B
  8
LAYER_1
 10
-17.57444972777996
 20
-23.04769873044927
 30
0.0
  0
VERTEX
  5
37C
  8
LAYER_1
 10
-17.35273590469991
 20
-22.55342983734703
 30
0.0
  0
VERTEX
  5
37D
  8
LAYER_1
 10
-17.14573752272864
 20
-22.06531399893036
 30
0.0
  0
VERTEX
  5
37E
  8
LAYER_1
 10
-16.9493902495194
 20
-21.57347666886465
 30
0.0
  0
VERTEX
  5
37F
  8
LAYER_1
 10
-16.75962975272548
 20
-21.06804330081531
 30
0.0
  0
VERTEX
  5
380
  8
LAYER_1
 10
-16.57239170000015
 20
-20.53913934844773
 30
0.0
  0
VERTEX
  5
381
  8
LAYER_1
 10
-16.38361175899668
 20
-19.97689026542731
 30
0.0
  0
VERTEX
  5
382
  8
LAYER_1
 10
-16.10741460066544
 20
-19.10136920225811
 30
0.0
  0
VERTEX
  5
383
  8
LAYER_1
 10
-15.86793677803837
 20
-18.26594307046854
 30
0.0
  0
VERTEX
  5
384
  8
LAYER_1
 10
-15.66089416650743
 20
-17.44928432765308
 30
0.0
  0
VERTEX
  5
385
  8
LAYER_1
 10
-15.48200264146463
 20
-16.63006543140622
 30
0.0
  0
VERTEX
  5
386
  8
LAYER_1
 10
-15.32697807830193
 20
-15.78695883932243
 30
0.0
  0
VERTEX
  5
387
  8
LAYER_1
 10
-15.19153635241133
 20
-14.89863700899618
 30
0.0
  0
VERTEX
  5
388
  8
LAYER_1
 10
-15.07139333918482
 20
-13.94377239802196
 30
0.0
  0
VERTEX
  5
389
  8
LAYER_1
 10
-14.96226491401436
 20
-12.90103746399424
 30
0.0
  0
VERTEX
  5
38A
  8
LAYER_1
 10
-14.85051575704051
 20
-11.73749748617411
 30
0.0
  0
VERTEX
  5
38B
  8
LAYER_1
 10
-14.85025668344712
 20
-11.32106819398008
 30
0.0
  0
VERTEX
  5
38C
  8
LAYER_1
 10
-14.85148290984403
 20
-11.18587333402983
 30
0.0
  0
VERTEX
  5
38D
  8
LAYER_1
 10
-14.85827129961955
 20
-11.07730264605429
 30
0.0
  0
VERTEX
  5
38E
  8
LAYER_1
 10
-14.87500371209597
 20
-10.98646056439438
 30
0.0
  0
VERTEX
  5
38F
  8
LAYER_1
 10
-14.90606200659562
 20
-10.90445152339103
 30
0.0
  0
VERTEX
  5
390
  8
LAYER_1
 10
-14.95582804244079
 20
-10.82237995738515
 30
0.0
  0
VERTEX
  5
391
  8
LAYER_1
 10
-15.0286836789538
 20
-10.73135030071767
 30
0.0
  0
VERTEX
  5
392
  8
LAYER_1
 10
-15.26119119127258
 20
-10.48683445276156
 30
0.0
  0
VERTEX
  5
393
  8
LAYER_1
 10
-15.42450772754568
 20
-10.31149985027956
 30
0.0
  0
VERTEX
  5
394
  8
LAYER_1
 10
-15.57745228786504
 20
-10.12730476110115
 30
0.0
  0
VERTEX
  5
395
  8
LAYER_1
 10
-15.72053381095932
 20
-9.932810390299982
 30
0.0
  0
VERTEX
  5
396
  8
LAYER_1
 10
-15.85426123555718
 20
-9.726577942949744
 30
0.0
  0
VERTEX
  5
397
  8
LAYER_1
 10
-15.97914350038729
 20
-9.507168624124102
 30
0.0
  0
VERTEX
  5
398
  8
LAYER_1
 10
-16.09568954417833
 20
-9.27314363889673
 30
0.0
  0
VERTEX
  5
399
  8
LAYER_1
 10
-16.20440830565894
 20
-9.023064192341302
 30
0.0
  0
VERTEX
  5
39A
  8
LAYER_1
 10
-16.30580872355781
 20
-8.755491489531487
 30
0.0
  0
VERTEX
  5
39B
  8
LAYER_1
 10
-16.4003997366036
 20
-8.468986735540959
 30
0.0
  0
VERTEX
  5
39C
  8
LAYER_1
 10
-16.48869028352497
 20
-8.16211113544339
 30
0.0
  0
VERTEX
  5
39D
  8
LAYER_1
 10
-16.57118930305059
 20
-7.83342589431245
 30
0.0
  0
VERTEX
  5
39E
  8
LAYER_1
 10
-16.64840573390913
 20
-7.481492217221815
 30
0.0
  0
VERTEX
  5
39F
  8
LAYER_1
 10
-16.72084851482926
 20
-7.104871309245156
 30
0.0
  0
VERTEX
  5
3A0
  8
LAYER_1
 10
-16.78902658453964
 20
-6.702124375456146
 30
0.0
  0
VERTEX
  5
3A1
  8
LAYER_1
 10
-16.91462434524583
 20
-5.81249725073576
 30
0.0
  0
VERTEX
  5
3A2
  8
LAYER_1
 10
-16.95764308206693
 20
-5.41788167040861
 30
0.0
  0
VERTEX
  5
3A3
  8
LAYER_1
 10
-16.98900205607276
 20
-5.012804285053541
 30
0.0
  0
VERTEX
  5
3A4
  8
LAYER_1
 10
-17.00893357558205
 20
-4.5997386821154
 30
0.0
  0
VERTEX
  5
3A5
  8
LAYER_1
 10
-17.0176699489135
 20
-4.181158449039041
 30
0.0
  0
VERTEX
  5
3A6
  8
LAYER_1
 10
-17.01544348438583
 20
-3.759537173269315
 30
0.0
  0
VERTEX
  5
3A7
  8
LAYER_1
 10
-17.00248649031775
 20
-3.337348442251074
 30
0.0
  0
VERTEX
  5
3A8
  8
LAYER_1
 10
-16.97903127502797
 20
-2.917065843429167
 30
0.0
  0
VERTEX
  5
3A9
  8
LAYER_1
 10
-16.94531014683522
 20
-2.501162964248445
 30
0.0
  0
VERTEX
  5
3AA
  8
LAYER_1
 10
-16.90155541405818
 20
-2.092113392153762
 30
0.0
  0
VERTEX
  5
3AB
  8
LAYER_1
 10
-16.84799938501559
 20
-1.692390714589967
 30
0.0
  0
VERTEX
  5
3AC
  8
LAYER_1
 10
-16.78487436802615
 20
-1.304468519001913
 30
0.0
  0
VERTEX
  5
3AD
  8
LAYER_1
 10
-16.71241267140859
 20
-0.9308203928344485
 30
0.0
  0
VERTEX
  5
3AE
  8
LAYER_1
 10
-16.6308466034816
 20
-0.5739199235324268
 30
0.0
  0
VERTEX
  5
3AF
  8
LAYER_1
 10
-16.54040847256391
 20
-0.2362406985406984
 30
0.0
  0
VERTEX
  5
3B0
  8
LAYER_1
 10
-16.44133058697422
 20
0.0797436946958854
 30
0.0
  0
VERTEX
  5
3B1
  8
LAYER_1
 10
-16.33384525503125
 20
0.3715596687324734
 30
0.0
  0
VERTEX
  5
3B2
  8
LAYER_1
 10
-16.21403743680672
 20
0.6562970565300379
 30
0.0
  0
VERTEX
  5
3B3
  8
LAYER_1
 10
-16.09075171228357
 20
0.9160788211741562
 30
0.0
  0
VERTEX
  5
3B4
  8
LAYER_1
 10
-15.95749374751723
 20
1.160618020657767
 30
0.0
  0
VERTEX
  5
3B5
  8
LAYER_1
 10
-15.80776920856312
 20
1.399627712973809
 30
0.0
  0
VERTEX
  5
3B6
  8
LAYER_1
 10
-15.63508376147668
 20
1.64282095611522
 30
0.0
  0
VERTEX
  5
3B7
  8
LAYER_1
 10
-15.43294307231334
 20
1.89991080807494
 30
0.0
  0
VERTEX
  5
3B8
  8
LAYER_1
 10
-15.1948528071285
 20
2.180610326845907
 30
0.0
  0
VERTEX
  5
3B9
  8
LAYER_1
 10
-14.91431863197761
 20
2.494632570421061
 30
0.0
  0
VERTEX
  5
3BA
  8
LAYER_1
 10
-14.77757919117916
 20
2.654984781529848
 30
0.0
  0
VERTEX
  5
3BB
  8
LAYER_1
 10
-14.73320766524127
 20
2.718714923351223
 30
0.0
  0
VERTEX
  5
3BC
  8
LAYER_1
 10
-14.70313681615256
 20
2.775422230885384
 30
0.0
  0
VERTEX
  5
3BD
  8
LAYER_1
 10
-14.68609305431928
 20
2.82806256028343
 30
0.0
  0
VERTEX
  5
3BE
  8
LAYER_1
 10
-14.68080279014765
 20
2.879591767696456
 30
0.0
  0
VERTEX
  5
3BF
  8
LAYER_1
 10
-14.6859924340439
 20
2.932965709275563
 30
0.0
  0
VERTEX
  5
3C0
  8
LAYER_1
 10
-14.70038839641426
 20
2.991140241171848
 30
0.0
  0
VERTEX
  5
3C1
  8
LAYER_1
 10
-14.94722880885542
 20
3.787503130733967
 30
0.0
  0
VERTEX
  5
3C2
  8
LAYER_1
 10
-15.33560424966787
 20
5.062503181397915
 30
0.0
  0
VERTEX
  5
3C3
  8
LAYER_1
 10
-15.77436889723641
 20
6.509936743697972
 30
0.0
  0
VERTEX
  5
3C4
  8
LAYER_1
 10
-16.27914303978771
 20
8.137503303587437
 30
0.0
  0
VERTEX
  5
3C5
  8
LAYER_1
 10
-16.4521581209022
 20
8.70234707603231
 30
0.0
  0
VERTEX
  5
3C6
  8
LAYER_1
 10
-16.57051854845572
 20
9.112503342330456
 30
0.0
  0
VERTEX
  5
3C7
  8
LAYER_1
 10
-16.64315206052508
 20
9.349295772386773
 30
0.0
  0
VERTEX
  5
3C8
  8
LAYER_1
 10
-16.67811119509742
 20
9.44072068347537
 30
0.0
  0
VERTEX
  5
3C9
  8
LAYER_1
 10
-16.7062279618585
 20
9.49732861939917
 30
0.0
  0
VERTEX
  5
3CA
  8
LAYER_1
 10
-16.76249768584967
 20
9.582153884546955
 30
0.0
  0
VERTEX
  5
3CB
  8
LAYER_1
 10
-17.73749772459269
 20
9.74828559011172
 30
0.0
  0
VERTEX
  5
3CC
  8
LAYER_1
 10
-18.23777851658413
 20
9.837968657592132
 30
0.0
  0
VERTEX
  5
3CD
  8
LAYER_1
 10
-18.70668325433063
 20
9.931213012733773
 30
0.0
  0
VERTEX
  5
3CE
  8
LAYER_1
 10
-19.14468128261962
 20
10.02814143857839
 30
0.0
  0
VERTEX
  5
3CF
  8
LAYER_1
 10
-19.55224194623855
 20
10.12887671816773
 30
0.0
  0
VERTEX
  5
3D0
  8
LAYER_1
 10
-19.92983458997485
 20
10.23354163454355
 30
0.0
  0
VERTEX
  5
3D1
  8
LAYER_1
 10
-20.27792855861598
 20
10.34225897074758
 30
0.0
  0
VERTEX
  5
3D2
  8
LAYER_1
 10
-20.59699319694936
 20
10.45515150982159
 30
0.0
  0
VERTEX
  5
3D3
  8
LAYER_1
 10
-20.88749784976244
 20
10.57234203480731
 30
0.0
  0
VERTEX
  5
3D4
  8
LAYER_1
 10
-21.4478495749832
 20
10.80721393840571
 30
0.0
  0
VERTEX
  5
3D5
  8
LAYER_1
 10
-21.76636148133743
 20
10.949667899242
 30
0.0
  0
VERTEX
  5
3D6
  8
LAYER_1
 10
-22.17061120387802
 20
11.15103332394086
 30
0.0
  0
VERTEX
  5
3D7
  8
LAYER_1
 10
-22.63186471270674
 20
11.39511551083303
 30
0.0
  0
VERTEX
  5
3D8
  8
LAYER_1
 10
-23.12138797792538
 20
11.66571975824925
 30
0.0
  0
VERTEX
  5
3D9
  8
LAYER_1
 10
-23.6104469696357
 20
11.94665136452028
 30
0.0
  0
VERTEX
  5
3DA
  8
LAYER_1
 10
-24.07030765793948
 20
12.22171562797684
 30
0.0
  0
VERTEX
  5
3DB
  8
LAYER_1
 10
-24.47223601293849
 20
12.47471784694969
 30
0.0
  0
VERTEX
  5
3DC
  8
LAYER_1
 10
-24.78749800473452
 20
12.68946331976957
 30
0.0
  0
VERTEX
  5
3DD
  8
LAYER_1
 10
-25.08749801665545
 20
12.90697995007517
 30
0.0
  0
VERTEX
  5
3DE
  8
LAYER_1
 10
-26.22655669387073
 20
13.64862317226037
 30
0.0
  0
VERTEX
  5
3DF
  8
LAYER_1
 10
-27.02195147198663
 20
14.15869542055003
 30
0.0
  0
VERTEX
  5
3E0
  8
LAYER_1
 10
-27.7648436014183
 20
14.61848665253044
 30
0.0
  0
VERTEX
  5
3E1
  8
LAYER_1
 10
-28.46202518066263
 20
15.03170686094849
 30
0.0
  0
VERTEX
  5
3E2
  8
LAYER_1
 10
-29.1202883082165
 20
15.40206603855104
 30
0.0
  0
VERTEX
  5
3E3
  8
LAYER_1
 10
-29.74642508257682
 20
15.73327417808498
 30
0.0
  0
VERTEX
  5
3E4
  8
LAYER_1
 10
-30.34722760224046
 20
16.02904127229718
 30
0.0
  0
VERTEX
  5
3E5
  8
LAYER_1
 10
-30.92948796570433
 20
16.29307731393451
 30
0.0
  0
VERTEX
  5
3E6
  8
LAYER_1
 10
-31.4999982714653
 20
16.52909229574387
 30
0.0
  0
VERTEX
  5
3E7
  8
LAYER_1
 10
-32.21249829977751
 20
16.8096699906536
 30
0.0
  0
VERTEX
  5
3E8
  8
LAYER_1
 10
-32.58749831467867
 20
16.94253656975135
 30
0.0
  0
VERTEX
  5
3E9
  8
LAYER_1
 10
-33.41249834746122
 20
17.17905873051717
 30
0.0
  0
VERTEX
  5
3EA
  8
LAYER_1
 10
-34.30094814695309
 20
17.42076211162871
 30
0.0
  0
VERTEX
  5
3EB
  8
LAYER_1
 10
-34.70526124300741
 20
17.51893093999161
 30
0.0
  0
VERTEX
  5
3EC
  8
LAYER_1
 10
-35.09954279649064
 20
17.60541165711935
 30
0.0
  0
VERTEX
  5
3ED
  8
LAYER_1
 10
-35.49622505232021
 20
17.68277961068202
 30
0.0
  0
VERTEX
  5
3EE
  8
LAYER_1
 10
-35.90774025541362
 20
17.75361014834968
 30
0.0
  0
VERTEX
  5
3EF
  8
LAYER_1
 10
-36.82499848306179
 20
17.88596036668027
 30
0.0
  0
VERTEX
  5
3F0
  8
LAYER_1
 10
-37.68749851733446
 20
17.99864436493272
 30
0.0
  0
VERTEX
  5
3F1
  8
LAYER_1
 10
-39.14999857544899
 20
18.0453202451498
 30
0.0
  0
VERTEX
  5
3F2
  8
LAYER_1
 10
-39.77544287389186
 20
18.05874248758853
 30
0.0
  0
VERTEX
  5
3F3
  8
LAYER_1
 10
-40.38997460960378
 20
18.05861459255667
 30
0.0
  0
VERTEX
  5
3F4
  8
LAYER_1
 10
-40.99455225673398
 20
18.04478103937887
 30
0.0
  0
VERTEX
  5
3F5
  8
LAYER_1
 10
-41.5901342894317
 20
18.01708630737983
 30
0.0
  0
VERTEX
  5
3F6
  8
LAYER_1
 10
-42.17767918184616
 20
17.97537487588421
 30
0.0
  0
VERTEX
  5
3F7
  8
LAYER_1
 10
-42.75814540812662
 20
17.91949122421672
 30
0.0
  0
VERTEX
  5
3F8
  8
LAYER_1
 10
-43.33249144242232
 20
17.84927983170201
 30
0.0
  0
VERTEX
  5
3F9
  8
LAYER_1
 10
-43.90167575888248
 20
17.76458517766476
 30
0.0
  0
VERTEX
  5
3FA
  8
LAYER_1
 10
-44.46665683165634
 20
17.66525174142967
 30
0.0
  0
VERTEX
  5
3FB
  8
LAYER_1
 10
-45.02839313489314
 20
17.5511240023214
 30
0.0
  0
VERTEX
  5
3FC
  8
LAYER_1
 10
-45.58784314274212
 20
17.42204643966463
 30
0.0
  0
VERTEX
  5
3FD
  8
LAYER_1
 10
-46.14596532935251
 20
17.27786353278405
 30
0.0
  0
VERTEX
  5
3FE
  8
LAYER_1
 10
-46.70371816887356
 20
17.11841976100433
 30
0.0
  0
VERTEX
  5
3FF
  8
LAYER_1
 10
-47.26206013545449
 20
16.94355960365016
 30
0.0
  0
VERTEX
  5
400
  8
LAYER_1
 10
-47.82194970324456
 20
16.7531275400462
 30
0.0
  0
VERTEX
  5
401
  8
LAYER_1
 10
-48.38434534639298
 20
16.54696804951715
 30
0.0
  0
VERTEX
  5
402
  8
LAYER_1
 10
-48.63968950210602
 20
16.44354240224141
 30
0.0
  0
VERTEX
  5
403
  8
LAYER_1
 10
-48.946353539466
 20
16.30849288007701
 30
0.0
  0
VERTEX
  5
404
  8
LAYER_1
 10
-49.66799438605926
 20
15.96599170674694
 30
0.0
  0
VERTEX
  5
405
  8
LAYER_1
 10
-50.45797414003771
 20
15.56440352085636
 30
0.0
  0
VERTEX
  5
406
  8
LAYER_1
 10
-51.22499905526638
 20
15.14866731373469
 30
0.0
  0
VERTEX
  5
407
  8
LAYER_1
 10
-51.93749908357859
 20
14.74793255928826
 30
0.0
  0
VERTEX
  5
408
  8
LAYER_1
 10
-54.26249917596579
 20
13.24982679410785
 30
0.0
  0
VERTEX
  5
409
  8
LAYER_1
 10
-54.82499919831753
 20
12.86402788110524
 30
0.0
  0
VERTEX
  5
40A
  8
LAYER_1
 10
-55.27901604245055
 20
12.56070737578062
 30
0.0
  0
VERTEX
  5
40B
  8
LAYER_1
 10
-55.7561970814492
 20
12.25671765791175
 30
0.0
  0
VERTEX
  5
40C
  8
LAYER_1
 10
-56.244386385559
 20
11.95900261415451
 30
0.0
  0
VERTEX
  5
40D
  8
LAYER_1
 10
-56.73142802502548
 20
11.67450613116479
 30
0.0
  0
VERTEX
  5
40E
  8
LAYER_1
 10
-57.20516607009417
 20
11.41017209559846
 30
0.0
  0
VERTEX
  5
40F
  8
LAYER_1
 10
-57.65344459101058
 20
11.17294439411138
 30
0.0
  0
VERTEX
  5
410
  8
LAYER_1
 10
-58.06410765802023
 20
10.96976691335944
 30
0.0
  0
VERTEX
  5
411
  8
LAYER_1
 10
-58.42499934136868
 20
10.80758353999852
 30
0.0
  0
VERTEX
  5
412
  8
LAYER_1
 10
-59.06249936670065
 20
10.53849227204041
 30
0.0
  0
VERTEX
  5
413
  8
LAYER_1
 10
-59.36479732788819
 20
10.41782466996303
 30
0.0
  0
VERTEX
  5
414
  8
LAYER_1
 10
-59.68936969786498
 20
10.3051846538987
 30
0.0
  0
VERTEX
  5
415
  8
LAYER_1
 10
-60.04572643855462
 20
10.19825709500563
 30
0.0
  0
VERTEX
  5
416
  8
LAYER_1
 10
-60.4433775118807
 20
10.09472686444201
 30
0.0
  0
VERTEX
  5
417
  8
LAYER_1
 10
-60.89183287976682
 20
9.992278833366063
 30
0.0
  0
VERTEX
  5
418
  8
LAYER_1
 10
-61.40060250413654
 20
9.888597872935982
 30
0.0
  0
VERTEX
  5
419
  8
LAYER_1
 10
-61.97919634691348
 20
9.781368854309974
 30
0.0
  0
VERTEX
  5
41A
  8
LAYER_1
 10
-62.63712437002121
 20
9.668276648646241
 30
0.0
  0
VERTEX
  5
41B
  8
LAYER_1
 10
-62.9613248446469
 20
9.609612639614884
 30
0.0
  0
VERTEX
  5
41C
  8
LAYER_1
 10
-63.06499254459649
 20
9.583071761710682
 30
0.0
  0
VERTEX
  5
41D
  8
LAYER_1
 10
-63.13832536015134
 20
9.553865815106692
 30
0.0
  0
VERTEX
  5
41E
  8
LAYER_1
 10
-63.18778839669704
 20
9.51860043497233
 30
0.0
  0
VERTEX
  5
41F
  8
LAYER_1
 10
-63.21984675961914
 20
9.473881256477018
 30
0.0
  0
VERTEX
  5
420
  8
LAYER_1
 10
-63.2576098861349
 20
9.342504045081213
 30
0.0
  0
VERTEX
  5
421
  8
LAYER_1
 10
-63.30347051813732
 20
9.112503342330456
 30
0.0
  0
VERTEX
  5
422
  8
LAYER_1
 10
-63.98128899043738
 20
6.937503255903721
 30
0.0
  0
VERTEX
  5
423
  8
LAYER_1
 10
-64.11079205786007
 20
6.487503238022327
 30
0.0
  0
VERTEX
  5
424
  8
LAYER_1
 10
-64.37593414613276
 20
5.625003203749657
 30
0.0
  0
VERTEX
  5
425
  8
LAYER_1
 10
-64.87538101318955
 20
3.975003138184547
 30
0.0
  0
VERTEX
  5
426
  8
LAYER_1
 10
-65.10968579197365
 20
3.187503106892109
 30
0.0
  0
VERTEX
  5
427
  8
LAYER_1
 10
-65.18773219009402
 20
2.984173182479594
 30
0.0
  0
VERTEX
  5
428
  8
LAYER_1
 10
-65.20950620314292
 20
2.920362520565055
 30
0.0
  0
VERTEX
  5
429
  8
LAYER_1
 10
-65.22019517670334
 20
2.864248047797453
 30
0.0
  0
VERTEX
  5
42A
  8
LAYER_1
 10
-65.21759374524191
 20
2.811052835191973
 30
0.0
  0
VERTEX
  5
42B
  8
LAYER_1
 10
-65.19949654322531
 20
2.7559999537638
 30
0.0
  0
VERTEX
  5
42C
  8
LAYER_1
 10
-65.16369820512014
 20
2.694312474528116
 30
0.0
  0
VERTEX
  5
42D
  8
LAYER_1
 10
-65.10799336539307
 20
2.621213468500108
 30
0.0
  0
VERTEX
  5
42E
  8
LAYER_1
 10
-64.92804271893972
 20
2.421673160127852
 30
0.0
  0
VERTEX
  5
42F
  8
LAYER_1
 10
-64.5493593702044
 20
2.001589586813914
 30
0.0
  0
VERTEX
  5
430
  8
LAYER_1
 10
-64.38369337855758
 20
1.801989356322245
 30
0.0
  0
VERTEX
  5
431
  8
LAYER_1
 10
-64.23226258536806
 20
1.606182202177367
 30
0.0
  0
VERTEX
  5
432
  8
LAYER_1
 10
-64.09390554811841
 20
1.411792153556726
 30
0.0
  0
VERTEX
  5
433
  8
LAYER_1
 10
-63.96746082429117
 20
1.216443239637764
 30
0.0
  0
VERTEX
  5
434
  8
LAYER_1
 10
-63.85176697136888
 20
1.017759489597925
 30
0.0
  0
VERTEX
  5
435
  8
LAYER_1
 10
-63.7456625468341
 20
0.8133649326146539
 30
0.0
  0
VERTEX
  5
436
  8
LAYER_1
 10
-63.64798610816938
 20
0.6008835978653939
 30
0.0
  0
VERTEX
  5
437
  8
LAYER_1
 10
-63.55757621285728
 20
0.3779395145275892
 30
0.0
  0
VERTEX
  5
438
  8
LAYER_1
 10
-63.47327141838034
 20
0.1421567117786833
 30
0.0
  0
VERTEX
  5
439
  8
LAYER_1
 10
-63.39391028222113
 20
-0.1088407812038796
 30
0.0
  0
VERTEX
  5
43A
  8
LAYER_1
 10
-63.31833136186218
 20
-0.3774289352426559
 30
0.0
  0
VERTEX
  5
43B
  8
LAYER_1
 10
-63.24537321478605
 20
-0.6659837211602015
 30
0.0
  0
VERTEX
  5
43C
  8
LAYER_1
 10
-63.10267347041246
 20
-1.312497071921825
 30
0.0
  0
VERTEX
  5
43D
  8
LAYER_1
 10
-62.99697943744138
 20
-1.877112215838653
 30
0.0
  0
VERTEX
  5
43E
  8
LAYER_1
 10
-62.96157614079183
 20
-2.127810019866195
 30
0.0
  0
VERTEX
  5
43F
  8
LAYER_1
 10
-62.93572586771351
 20
-2.382761172308637
 30
0.0
  0
VERTEX
  5
440
  8
LAYER_1
 10
-62.91787152596689
 20
-2.660960568442589
 30
0.0
  0
VERTEX
  5
441
  8
LAYER_1
 10
-62.9064560233124
 20
-2.981403103544661
 30
0.0
  0
VERTEX
  5
442
  8
LAYER_1
 10
-62.89671316632158
 20
-3.824997171759605
 30
0.0
  0
VERTEX
  5
443
  8
LAYER_1
 10
-62.89046530107766
 20
-5.362497232854366
 30
0.0
  0
VERTEX
  5
444
  8
LAYER_1
 10
-62.99111354121728
 20
-6.037497259676456
 30
0.0
  0
VERTEX
  5
445
  8
LAYER_1
 10
-63.08713200971496
 20
-6.643973550534993
 30
0.0
  0
VERTEX
  5
446
  8
LAYER_1
 10
-63.18607039573055
 20
-7.192340764848483
 30
0.0
  0
VERTEX
  5
447
  8
LAYER_1
 10
-63.28934175720963
 20
-7.687960401839496
 30
0.0
  0
VERTEX
  5
448
  8
LAYER_1
 10
-63.3983591520977
 20
-8.136193960730603
 30
0.0
  0
VERTEX
  5
449
  8
LAYER_1
 10
-63.51453563834033
 20
-8.542402940744374
 30
0.0
  0
VERTEX
  5
44A
  8
LAYER_1
 10
-63.63928427388307
 20
-8.911948841103378
 30
0.0
  0
VERTEX
  5
44B
  8
LAYER_1
 10
-63.77401811667145
 20
-9.250193161030186
 30
0.0
  0
VERTEX
  5
44C
  8
LAYER_1
 10
-63.92015022465101
 20
-9.562497399747372
 30
0.0
  0
VERTEX
  5
44D
  8
LAYER_1
 10
-64.01709065655618
 20
-9.720407562272158
 30
0.0
  0
VERTEX
  5
44E
  8
LAYER_1
 10
-64.16886983489985
 20
-9.92859116429463
 30
0.0
  0
VERTEX
  5
44F
  8
LAYER_1
 10
-64.35469676751174
 20
-10.15997789223911
 30
0.0
  0
VERTEX
  5
450
  8
LAYER_1
 10
-64.55378046222157
 20
-10.38749743252993
 30
0.0
  0
VERTEX
  5
451
  8
LAYER_1
 10
-65.03567560170126
 20
-10.91249745339155
 30
0.0
  0
VERTEX
  5
452
  8
LAYER_1
 10
-64.99088854906789
 20
-11.9624974951148
 30
0.0
  0
VERTEX
  5
453
  8
LAYER_1
 10
-64.93847170600273
 20
-12.85827878070995
 30
0.0
  0
VERTEX
  5
454
  8
LAYER_1
 10
-64.906349762219
 20
-13.25079832755728
 30
0.0
  0
VERTEX
  5
455
  8
LAYER_1
 10
-64.87534068913969
 20
-13.53749755769968
 30
0.0
  0
VERTEX
  5
456
  8
LAYER_1
 10
-64.62645140323507
 20
-15.33938436611681
 30
0.0
  0
VERTEX
  5
457
  8
LAYER_1
 10
-64.54826450056441
 20
-15.85649524856655
 30
0.0
  0
VERTEX
  5
458
  8
LAYER_1
 10
-64.48897617605967
 20
-16.19999766349792
 30
0.0
  0
VERTEX
  5
459
  8
LAYER_1
 10
-64.41038833014254
 20
-16.6124976798892
 30
0.0
  0
VERTEX
  5
45A
  8
LAYER_1
 10
-64.1102827593959
 20
-17.84999772906303
 30
0.0
  0
VERTEX
  5
45B
  8
LAYER_1
 10
-63.96405733065009
 20
-18.4192653298087
 30
0.0
  0
VERTEX
  5
45C
  8
LAYER_1
 10
-63.7877666303607
 20
-19.0544509019237
 30
0.0
  0
VERTEX
  5
45D
  8
LAYER_1
 10
-63.60360839365084
 20
-19.6780349110777
 30
0.0
  0
VERTEX
  5
45E
  8
LAYER_1
 10
-63.43378035564365
 20
-20.21249782294035
 30
0.0
  0
VERTEX
  5
45F
  8
LAYER_1
 10
-63.05738352263802
 20
-21.33749786764383
 30
0.0
  0
VERTEX
  5
460
  8
LAYER_1
 10
-62.90746461798076
 20
-21.67499788105488
 30
0.0
  0
VERTEX
  5
461
  8
LAYER_1
 10
-62.67731358385394
 20
-22.20892414749932
 30
0.0
  0
VERTEX
  5
462
  8
LAYER_1
 10
-62.47173686449978
 20
-22.72499792277813
 30
0.0
  0
VERTEX
  5
463
  8
LAYER_1
 10
-62.37097311236589
 20
-22.98749793320894
 30
0.0
  0
VERTEX
  5
464
  8
LAYER_1
 10
-61.04698232228666
 20
-25.59033768860765
 30
0.0
  0
VERTEX
  5
465
  8
LAYER_1
 10
-60.70556677178188
 20
-26.12641788392399
 30
0.0
  0
VERTEX
  5
466
  8
LAYER_1
 10
-59.94559157026718
 20
-27.33749810606241
 30
0.0
  0
VERTEX
  5
467
  8
LAYER_1
 10
-59.52703191925725
 20
-28.0124981328845
 30
0.0
  0
VERTEX
  5
468
  8
LAYER_1
 10
-59.42700705155565
 20
-28.08749813586473
 30
0.0
  0
VERTEX
  5
469
  8
LAYER_1
 10
-59.06463133601909
 20
-28.61249815672636
 30
0.0
  0
VERTEX
  5
46A
  8
LAYER_1
 10
-58.75663372669243
 20
-29.04937317408621
 30
0.0
  0
VERTEX
  5
46B
  8
LAYER_1
 10
-58.52499686225626
 20
-29.36249818652868
 30
0.0
  0
VERTEX
  5
46C
  8
LAYER_1
 10
-58.28950139712354
 20
-29.66249819844961
 30
0.0
  0
VERTEX
  5
46D
  8
LAYER_1
 10
-57.666558870681
 20
-30.44572234591871
 30
0.0
  0
VERTEX
  5
46E
  8
LAYER_1
 10
-57.39517906918478
 20
-30.76857506052633
 30
0.0
  0
VERTEX
  5
46F
  8
LAYER_1
 10
-57.11601398438511
 20
-31.08749825507402
 30
0.0
  0
VERTEX
  5
470
  8
LAYER_1
 10
-56.3948799662609
 20
-31.90401854435595
 30
0.0
  0
VERTEX
  5
471
  8
LAYER_1
 10
-56.14142561155372
 20
-32.19553881277625
 30
0.0
  0
VERTEX
  5
472
  8
LAYER_1
 10
-55.31429195794526
 20
-33.02901858905943
 30
0.0
  0
VERTEX
  5
473
  8
LAYER_1
 10
-54.57532840017205
 20
-33.76086681174981
 30
0.0
  0
VERTEX
  5
474
  8
LAYER_1
 10
-53.96017816846539
 20
-34.34999838471413
 30
0.0
  0
VERTEX
  5
475
  8
LAYER_1
 10
-53.02284857149733
 20
-35.21756577384215
 30
0.0
  0
VERTEX
  5
476
  8
LAYER_1
 10
-52.42979013827757
 20
-35.73954120854054
 30
0.0
  0
VERTEX
  5
477
  8
LAYER_1
 10
-51.6087515186657
 20
-36.4330574562532
 30
0.0
  0
VERTEX
  5
478
  8
LAYER_1
 10
-50.80259811637607
 20
-37.09570172976427
 30
0.0
  0
VERTEX
  5
479
  8
LAYER_1
 10
-50.48099881038785
 20
-37.35219288018925
 30
0.0
  0
VERTEX
  5
47A
  8
LAYER_1
 10
-50.25419533512306
 20
-37.5250612418579
 30
0.0
  0
VERTEX
  5
47B
  8
LAYER_1
 10
-50.02994408344449
 20
-37.68749851733446
 30
0.0
  0
VERTEX
  5
47C
  8
LAYER_1
 10
-49.18372151198596
 20
-38.33007945010592
 30
0.0
  0
VERTEX
  5
47D
  8
LAYER_1
 10
-48.33940140610889
 20
-38.96725607180222
 30
0.0
  0
VERTEX
  5
47E
  8
LAYER_1
 10
-47.68349695963124
 20
-39.45255072323359
 30
0.0
  0
VERTEX
  5
47F
  8
LAYER_1
 10
-47.1723991308201
 20
-39.81774483334925
 30
0.0
  0
VERTEX
  5
480
  8
LAYER_1
 10
-46.76249887794256
 20
-40.09461983109843
 30
0.0
  0
VERTEX
  5
481
  8
LAYER_1
 10
-46.23749885708094
 20
-40.44873869411715
 30
0.0
  0
VERTEX
  5
482
  8
LAYER_1
 10
-46.1624988541007
 20
-40.50997876361146
 30
0.0
  0
VERTEX
  5
483
  8
LAYER_1
 10
-45.14999881386757
 20
-41.22139581715429
 30
0.0
  0
VERTEX
  5
484
  8
LAYER_1
 10
-44.20359252626076
 20
-41.89695553896654
 30
0.0
  0
VERTEX
  5
485
  8
LAYER_1
 10
-43.349998742342
 20
-42.52216241196566
 30
0.0
  0
VERTEX
  5
486
  8
LAYER_1
 10
-42.56249871104956
 20
-43.11151195323421
 30
0.0
  0
VERTEX
  5
487
  8
LAYER_1
 10
-42.33749870210886
 20
-43.31090534117843
 30
0.0
  0
VERTEX
  5
488
  8
LAYER_1
 10
-42.04705602116631
 20
-43.56351013938099
 30
0.0
  0
VERTEX
  5
489
  8
LAYER_1
 10
-41.79177238884293
 20
-43.77400641580839
 30
0.0
  0
VERTEX
  5
48A
  8
LAYER_1
 10
-41.56358744570924
 20
-43.94746120737285
 30
0.0
  0
VERTEX
  5
48B
  8
LAYER_1
 10
-41.35444083233577
 20
-44.08894155098662
 30
0.0
  0
VERTEX
  5
48C
  8
LAYER_1
 10
-41.15627218929303
 20
-44.20351448356193
 30
0.0
  0
VERTEX
  5
48D
  8
LAYER_1
 10
-40.96102115715156
 20
-44.29624704201103
 30
0.0
  0
VERTEX
  5
48E
  8
LAYER_1
 10
-40.76062737648189
 20
-44.37220626324616
 30
0.0
  0
SEQEND
  5
FF6
  8
LAYER_1
  0
POLYLINE
  5
73
  8
LAYER_1
 66
     1
 10
0.0
 20
0.0
 30
0.0
 70
     1
  0
VERTEX
  5
48F
  8
LAYER_1
 10
25.65000399947166
 20
-36.44408915030495
 30
0.0
  0
VERTEX
  5
490
  8
LAYER_1
 10
26.51250403374434
 20
-36.50357714322099
 30
0.0
  0
VERTEX
  5
491
  8
LAYER_1
 10
27.11250405758619
 20
-36.5243884073916
 30
0.0
  0
VERTEX
  5
492
  8
LAYER_1
 10
28.16250409930944
 20
-36.44919881618976
 30
0.0
  0
VERTEX
  5
493
  8
LAYER_1
 10
28.64713302481687
 20
-36.40763741889239
 30
0.0
  0
VERTEX
  5
494
  8
LAYER_1
 10
29.19047289015725
 20
-36.3500578010343
 30
0.0
  0
VERTEX
  5
495
  8
LAYER_1
 10
29.7260783801903
 20
-36.28406970455418
 30
0.0
  0
VERTEX
  5
496
  8
LAYER_1
 10
30.18750417977571
 20
-36.21728287139076
 30
0.0
  0
VERTEX
  5
497
  8
LAYER_1
 10
30.78252003890825
 20
-36.11243404812633
 30
0.0
  0
VERTEX
  5
498
  8
LAYER_1
 10
31.37204764940986
 20
-35.99018115269952
 30
0.0
  0
VERTEX
  5
499
  8
LAYER_1
 10
31.95577399805713
 20
-35.8507541271636
 30
0.0
  0
VERTEX
  5
49A
  8
LAYER_1
 10
32.53338607162666
 20
-35.69438291357189
 30
0.0
  0
VERTEX
  5
49B
  8
LAYER_1
 10
33.10457085689505
 20
-35.52129745397765
 30
0.0
  0
VERTEX
  5
49C
  8
LAYER_1
 10
33.66901534063891
 20
-35.33172769043418
 30
0.0
  0
VERTEX
  5
49D
  8
LAYER_1
 10
34.22640650963483
 20
-35.12590356499476
 30
0.0
  0
VERTEX
  5
49E
  8
LAYER_1
 10
34.77643135065943
 20
-34.90405501971269
 30
0.0
  0
VERTEX
  5
49F
  8
LAYER_1
 10
35.31877685048929
 20
-34.66641199664124
 30
0.0
  0
VERTEX
  5
4A0
  8
LAYER_1
 10
35.853129995901
 20
-34.41320443783373
 30
0.0
  0
VERTEX
  5
4A1
  8
LAYER_1
 10
36.37917777367119
 20
-34.14466228534341
 30
0.0
  0
VERTEX
  5
4A2
  8
LAYER_1
 10
36.89660717057644
 20
-33.8610154812236
 30
0.0
  0
VERTEX
  5
4A3
  8
LAYER_1
 10
37.40510517339337
 20
-33.56249396752756
 30
0.0
  0
VERTEX
  5
4A4
  8
LAYER_1
 10
37.90435876889853
 20
-33.24932768630861
 30
0.0
  0
VERTEX
  5
4A5
  8
LAYER_1
 10
38.39405494386858
 20
-32.92174657962001
 30
0.0
  0
VERTEX
  5
4A6
  8
LAYER_1
 10
38.87388068508008
 20
-32.57998058951507
 30
0.0
  0
VERTEX
  5
4A7
  8
LAYER_1
 10
39.34352297930965
 20
-32.22425965804707
 30
0.0
  0
VERTEX
  5
4A8
  8
LAYER_1
 10
39.80266881333389
 20
-31.85481372726929
 30
0.0
  0
VERTEX
  5
4A9
  8
LAYER_1
 10
40.25100517392939
 20
-31.47187273923502
 30
0.0
  0
VERTEX
  5
4AA
  8
LAYER_1
 10
40.68821904787275
 20
-31.07566663599756
 30
0.0
  0
VERTEX
  5
4AB
  8
LAYER_1
 10
41.11399742194058
 20
-30.66642535961019
 30
0.0
  0
VERTEX
  5
4AC
  8
LAYER_1
 10
41.52802728290948
 20
-30.2443788521262
 30
0.0
  0
VERTEX
  5
4AD
  8
LAYER_1
 10
41.92999561755603
 20
-29.80975705559888
 30
0.0
  0
VERTEX
  5
4AE
  8
LAYER_1
 10
42.31958941265685
 20
-29.36278991208152
 30
0.0
  0
VERTEX
  5
4AF
  8
LAYER_1
 10
42.69649565498854
 20
-28.90370736362739
 30
0.0
  0
VERTEX
  5
4B0
  8
LAYER_1
 10
43.06040133132769
 20
-28.4327393522898
 30
0.0
  0
VERTEX
  5
4B1
  8
LAYER_1
 10
43.41099342845091
 20
-27.95011582012204
 30
0.0
  0
VERTEX
  5
4B2
  8
LAYER_1
 10
43.74795893313478
 20
-27.45606670917738
 30
0.0
  0
VERTEX
  5
4B3
  8
LAYER_1
 10
44.07098483215593
 20
-26.95082196150912
 30
0.0
  0
VERTEX
  5
4B4
  8
LAYER_1
 10
44.37975811229094
 20
-26.43461151917055
 30
0.0
  0
VERTEX
  5
4B5
  8
LAYER_1
 10
44.67396576031641
 20
-25.90766532421495
 30
0.0
  0
VERTEX
  5
4B6
  8
LAYER_1
 10
44.95329476300894
 20
-25.37021331869561
 30
0.0
  0
VERTEX
  5
4B7
  8
LAYER_1
 10
45.15247138085061
 20
-24.96052175237802
 30
0.0
  0
VERTEX
  5
4B8
  8
LAYER_1
 10
45.34188911236546
 20
-24.54637701289285
 30
0.0
  0
VERTEX
  5
4B9
  8
LAYER_1
 10
45.52152528252977
 20
-24.12800565027202
 30
0.0
  0
VERTEX
  5
4BA
  8
LAYER_1
 10
45.69135721631982
 20
-23.70563421454748
 30
0.0
  0
VERTEX
  5
4BB
  8
LAYER_1
 10
45.85136223871189
 20
-23.27948925575116
 30
0.0
  0
VERTEX
  5
4BC
  8
LAYER_1
 10
46.00151767468228
 20
-22.849797323915
 30
0.0
  0
VERTEX
  5
4BD
  8
LAYER_1
 10
46.14180084920727
 20
-22.41678496907094
 30
0.0
  0
VERTEX
  5
4BE
  8
LAYER_1
 10
46.27218908726314
 20
-21.98067874125092
 30
0.0
  0
VERTEX
  5
4BF
  8
LAYER_1
 10
46.39265971382618
 20
-21.54170519048688
 30
0.0
  0
VERTEX
  5
4C0
  8
LAYER_1
 10
46.50319005387267
 20
-21.10009086681076
 30
0.0
  0
VERTEX
  5
4C1
  8
LAYER_1
 10
46.6037574323789
 20
-20.65606232025448
 30
0.0
  0
VERTEX
  5
4C2
  8
LAYER_1
 10
46.69433917432114
 20
-20.20984610085001
 30
0.0
  0
VERTEX
  5
4C3
  8
LAYER_1
 10
46.77491260467569
 20
-19.76166875862926
 30
0.0
  0
VERTEX
  5
4C4
  8
LAYER_1
 10
46.84545504841884
 20
-19.31175684362419
 30
0.0
  0
VERTEX
  5
4C5
  8
LAYER_1
 10
46.90594383052687
 20
-18.86033690586673
 30
0.0
  0
VERTEX
  5
4C6
  8
LAYER_1
 10
46.95635627597605
 20
-18.40763549538881
 30
0.0
  0
VERTEX
  5
4C7
  8
LAYER_1
 10
46.99666970974268
 20
-17.95387916222237
 30
0.0
  0
VERTEX
  5
4C8
  8
LAYER_1
 10
47.02686145680303
 20
-17.49929445639936
 30
0.0
  0
VERTEX
  5
4C9
  8
LAYER_1
 10
47.0469088421334
 20
-17.04410792795172
 30
0.0
  0
VERTEX
  5
4CA
  8
LAYER_1
 10
47.05678919071008
 20
-16.58854612691137
 30
0.0
  0
VERTEX
  5
4CB
  8
LAYER_1
 10
47.05647982750934
 20
-16.13283560331027
 30
0.0
  0
VERTEX
  5
4CC
  8
LAYER_1
 10
47.04595807750746
 20
-15.67720290718034
 30
0.0
  0
VERTEX
  5
4CD
  8
LAYER_1
 10
47.02520126568075
 20
-15.22187458855353
 30
0.0
  0
VERTEX
  5
4CE
  8
LAYER_1
 10
46.99418671700547
 20
-14.76707719746178
 30
0.0
  0
VERTEX
  5
4CF
  8
LAYER_1
 10
46.95289175645792
 20
-14.31303728393702
 30
0.0
  0
VERTEX
  5
4D0
  8
LAYER_1
 10
46.90129370901437
 20
-13.85998139801119
 30
0.0
  0
VERTEX
  5
4D1
  8
LAYER_1
 10
46.83936989965111
 20
-13.40813608971624
 30
0.0
  0
VERTEX
  5
4D2
  8
LAYER_1
 10
46.76709765334444
 20
-12.95772790908409
 30
0.0
  0
VERTEX
  5
4D3
  8
LAYER_1
 10
46.68445429507062
 20
-12.50898340614669
 30
0.0
  0
VERTEX
  5
4D4
  8
LAYER_1
 10
46.59141714980596
 20
-12.06212913093598
 30
0.0
  0
VERTEX
  5
4D5
  8
LAYER_1
 10
46.48796354252673
 20
-11.61739163348389
 30
0.0
  0
VERTEX
  5
4D6
  8
LAYER_1
 10
46.3740707982092
 20
-11.17499746382236
 30
0.0
  0
VERTEX
  5
4D7
  8
LAYER_1
 10
46.26427196691492
 20
-10.78455753502838
 30
0.0
  0
VERTEX
  5
4D8
  8
LAYER_1
 10
46.14648182037005
 20
-10.39680045229246
 30
0.0
  0
VERTEX
  5
4D9
  8
LAYER_1
 10
46.02076652565248
 20
-10.01182500168509
 30
0.0
  0
VERTEX
  5
4DA
  8
LAYER_1
 10
45.88719224984013
 20
-9.629729969276783
 30
0.0
  0
VERTEX
  5
4DB
  8
LAYER_1
 10
45.74582516001088
 20
-9.25061414113803
 30
0.0
  0
VERTEX
  5
4DC
  8
LAYER_1
 10
45.59673142324265
 20
-8.874576303339333
 30
0.0
  0
VERTEX
  5
4DD
  8
LAYER_1
 10
45.43997720661334
 20
-8.501715241951194
 30
0.0
  0
VERTEX
  5
4DE
  8
LAYER_1
 10
45.27562867720084
 20
-8.13212974304411
 30
0.0
  0
VERTEX
  5
4DF
  8
LAYER_1
 10
45.10375200208307
 20
-7.765918592688585
 30
0.0
  0
VERTEX
  5
4E0
  8
LAYER_1
 10
44.92441334833791
 20
-7.403180576955116
 30
0.0
  0
VERTEX
  5
4E1
  8
LAYER_1
 10
44.73767888304329
 20
-7.044014481914203
 30
0.0
  0
VERTEX
  5
4E2
  8
LAYER_1
 10
44.5436147732771
 20
-6.688519093636348
 30
0.0
  0
VERTEX
  5
4E3
  8
LAYER_1
 10
44.34228718611723
 20
-6.33679319819205
 30
0.0
  0
VERTEX
  5
4E4
  8
LAYER_1
 10
44.13376228864161
 20
-5.988935581651806
 30
0.0
  0
VERTEX
  5
4E5
  8
LAYER_1
 10
43.91810624792813
 20
-5.64504503008612
 30
0.0
  0
VERTEX
  5
4E6
  8
LAYER_1
 10
43.69538523105469
 20
-5.30522032956549
 30
0.0
  0
VERTEX
  5
4E7
  8
LAYER_1
 10
43.46566540509919
 20
-4.969560266160416
 30
0.0
  0
VERTEX
  5
4E8
  8
LAYER_1
 10
43.22901293713953
 20
-4.638163625941398
 30
0.0
  0
VERTEX
  5
4E9
  8
LAYER_1
 10
42.98549399425362
 20
-4.311129194978936
 30
0.0
  0
VERTEX
  5
4EA
  8
LAYER_1
 10
42.73517474351937
 20
-3.988555759343531
 30
0.0
  0
VERTEX
  5
4EB
  8
LAYER_1
 10
42.47812135201467
 20
-3.670542105105682
 30
0.0
  0
VERTEX
  5
4EC
  8
LAYER_1
 10
42.21439998681743
 20
-3.357187018335888
 30
0.0
  0
VERTEX
  5
4ED
  8
LAYER_1
 10
41.94407681500554
 20
-3.04858928510465
 30
0.0
  0
VERTEX
  5
4EE
  8
LAYER_1
 10
41.66721800365691
 20
-2.744847691482468
 30
0.0
  0
VERTEX
  5
4EF
  8
LAYER_1
 10
41.38388971984945
 20
-2.446061023539841
 30
0.0
  0
VERTEX
  5
4F0
  8
LAYER_1
 10
41.09415813066106
 20
-2.15232806734727
 30
0.0
  0
VERTEX
  5
4F1
  8
LAYER_1
 10
40.79808940316964
 20
-1.863747608975255
 30
0.0
  0
VERTEX
  5
4F2
  8
LAYER_1
 10
40.4957497044531
 20
-1.580418434494296
 30
0.0
  0
VERTEX
  5
4F3
  8
LAYER_1
 10
40.18720520158934
 20
-1.302439329974891
 30
0.0
  0
VERTEX
  5
4F4
  8
LAYER_1
 10
39.87252206165624
 20
-1.029909081487542
 30
0.0
  0
VERTEX
  5
4F5
  8
LAYER_1
 10
39.55176645173172
 20
-0.7629264751027482
 30
0.0
  0
VERTEX
  5
4F6
  8
LAYER_1
 10
39.2250045388937
 20
-0.5015902968910098
 30
0.0
  0
VERTEX
  5
4F7
  8
LAYER_1
 10
38.78690506554555
 20
-0.1736307030668606
 30
0.0
  0
VERTEX
  5
4F8
  8
LAYER_1
 10
38.29479281701676
 20
0.1680404916487421
 30
0.0
  0
VERTEX
  5
4F9
  8
LAYER_1
 10
37.76729719101529
 20
0.5122556389091484
 30
0.0
  0
VERTEX
  5
4FA
  8
LAYER_1
 10
37.22304758524909
 20
0.8478470903677078
 30
0.0
  0
VERTEX
  5
4FB
  8
LAYER_1
 10
36.68067339742612
 20
1.16364719767777
 30
0.0
  0
VERTEX
  5
4FC
  8
LAYER_1
 10
36.15880402525433
 20
1.448488312492686
 30
0.0
  0
VERTEX
  5
4FD
  8
LAYER_1
 10
35.6760688664417
 20
1.691202786465804
 30
0.0
  0
VERTEX
  5
4FE
  8
LAYER_1
 10
35.25109731869615
 20
1.880622971250475
 30
0.0
  0
VERTEX
  5
4FF
  8
LAYER_1
 10
34.46250434964895
 20
2.209428755531135
 30
0.0
  0
VERTEX
  5
500
  8
LAYER_1
 10
34.24851996614598
 20
2.294120368958922
 30
0.0
  0
VERTEX
  5
501
  8
LAYER_1
 10
34.05000433325768
 20
2.358874485311546
 30
0.0
  0
VERTEX
  5
502
  8
LAYER_1
 10
33.87351995124482
 20
2.414513048445059
 30
0.0
  0
VERTEX
  5
503
  8
LAYER_1
 10
33.71250431984663
 20
2.477288544558832
 30
0.0
  0
VERTEX
  5
504
  8
LAYER_1
 10
33.56250431388617
 20
2.545146402037346
 30
0.0
  0
VERTEX
  5
505
  8
LAYER_1
 10
32.88750428706408
 20
2.766020544549662
 30
0.0
  0
VERTEX
  5
506
  8
LAYER_1
 10
32.54448052756904
 20
2.8739134231104
 30
0.0
  0
VERTEX
  5
507
  8
LAYER_1
 10
32.19638873437314
 20
2.974833560361605
 30
0.0
  0
VERTEX
  5
508
  8
LAYER_1
 10
31.8435596543612
 20
3.06878110113938
 30
0.0
  0
VERTEX
  5
509
  8
LAYER_1
 10
31.486324034418
 20
3.155756190279835
 30
0.0
  0
VERTEX
  5
50A
  8
LAYER_1
 10
31.12501262142834
 20
3.235758972619074
 30
0.0
  0
VERTEX
  5
50B
  8
LAYER_1
 10
30.75995616227701
 20
3.308789592993203
 30
0.0
  0
VERTEX
  5
50C
  8
LAYER_1
 10
30.01993109302855
 20
3.433934927190563
 30
0.0
  0
VERTEX
  5
50D
  8
LAYER_1
 10
29.26889480175097
 20
3.531193351560765
 30
0.0
  0
VERTEX
  5
50E
  8
LAYER_1
 10
28.50949326352263
 20
3.600566024792661
 30
0.0
  0
VERTEX
  5
50F
  8
LAYER_1
 10
27.7443724534219
 20
3.642054105575104
 30
0.0
  0
VERTEX
  5
510
  8
LAYER_1
 10
26.97617834652713
 20
3.655658752596946
 30
0.0
  0
VERTEX
  5
511
  8
LAYER_1
 10
26.2075569179167
 20
3.641381124547038
 30
0.0
  0
VERTEX
  5
512
  8
LAYER_1
 10
25.44115414266896
 20
3.599222380114232
 30
0.0
  0
VERTEX
  5
513
  8
LAYER_1
 10
24.67961599586227
 20
3.529183677987382
 30
0.0
  0
VERTEX
  5
514
  8
LAYER_1
 10
23.92558845257501
 20
3.431266176855337
 30
0.0
  0
VERTEX
  5
515
  8
LAYER_1
 10
23.18171748788552
 20
3.305471035406951
 30
0.0
  0
VERTEX
  5
516
  8
LAYER_1
 10
22.81441758972694
 20
3.232119711654397
 30
0.0
  0
VERTEX
  5
517
  8
LAYER_1
 10
22.45064907687218
 20
3.151799412331076
 30
0.0
  0
VERTEX
  5
518
  8
LAYER_1
 10
22.09074269620605
 20
3.064510282273096
 30
0.0
  0
VERTEX
  5
519
  8
LAYER_1
 10
21.73502919461335
 20
2.970252466316563
 30
0.0
  0
VERTEX
  5
51A
  8
LAYER_1
 10
21.38383931897886
 20
2.869026109297583
 30
0.0
  0
VERTEX
  5
51B
  8
LAYER_1
 10
21.03750381618738
 20
2.760831356052265
 30
0.0
  0
VERTEX
  5
51C
  8
LAYER_1
 10
20.3052914682654
 20
2.509581666900582
 30
0.0
  0
VERTEX
  5
51D
  8
LAYER_1
 10
19.59056059723282
 20
2.237194714265672
 30
0.0
  0
VERTEX
  5
51E
  8
LAYER_1
 10
18.8932342911692
 20
1.943618066212897
 30
0.0
  0
VERTEX
  5
51F
  8
LAYER_1
 10
18.21323563815406
 20
1.628799290807617
 30
0.0
  0
VERTEX
  5
520
  8
LAYER_1
 10
17.55048772626695
 20
1.292685956115194
 30
0.0
  0
VERTEX
  5
521
  8
LAYER_1
 10
16.90491364358742
 20
0.9352256302009895
 30
0.0
  0
VERTEX
  5
522
  8
LAYER_1
 10
16.276436478195
 20
0.5563658811303638
 30
0.0
  0
VERTEX
  5
523
  8
LAYER_1
 10
15.66497931816923
 20
0.1560542769686784
 30
0.0
  0
VERTEX
  5
524
  8
LAYER_1
 10
15.07046525158966
 20
-0.2657616142187054
 30
0.0
  0
VERTEX
  5
525
  8
LAYER_1
 10
14.49281736653581
 20
-0.7091342243664264
 30
0.0
  0
VERTEX
  5
526
  8
LAYER_1
 10
13.93195875108725
 20
-1.174115985409123
 30
0.0
  0
VERTEX
  5
527
  8
LAYER_1
 10
13.3878124933235
 20
-1.660759329281435
 30
0.0
  0
VERTEX
  5
528
  8
LAYER_1
 10
12.8603016813241
 20
-2.169116687918001
 30
0.0
  0
VERTEX
  5
529
  8
LAYER_1
 10
12.34934940316861
 20
-2.699240493253458
 30
0.0
  0
VERTEX
  5
52A
  8
LAYER_1
 10
11.85487874693655
 20
-3.251183177222447
 30
0.0
  0
VERTEX
  5
52B
  8
LAYER_1
 10
11.37681280070747
 20
-3.824997171759605
 30
0.0
  0
VERTEX
  5
52C
  8
LAYER_1
 10
10.91557334171212
 20
-4.419587414778023
 30
0.0
  0
VERTEX
  5
52D
  8
LAYER_1
 10
10.47953124714524
 20
-5.02401225845677
 30
0.0
  0
VERTEX
  5
52E
  8
LAYER_1
 10
10.0686653939919
 20
-5.638323556178104
 30
0.0
  0
VERTEX
  5
52F
  8
LAYER_1
 10
9.682954659237172
 20
-6.262573161324291
 30
0.0
  0
VERTEX
  5
530
  8
LAYER_1
 10
9.32237791986611
 20
-6.896812927277586
 30
0.0
  0
VERTEX
  5
531
  8
LAYER_1
 10
8.986914052863781
 20
-7.541094707420253
 30
0.0
  0
VERTEX
  5
532
  8
LAYER_1
 10
8.676541935215251
 20
-8.195470355134553
 30
0.0
  0
VERTEX
  5
533
  8
LAYER_1
 10
8.391240443905586
 20
-8.859991723802745
 30
0.0
  0
VERTEX
  5
534
  8
LAYER_1
 10
8.130988455919848
 20
-9.534710666807088
 30
0.0
  0
VERTEX
  5
535
  8
LAYER_1
 10
7.895764848243102
 20
-10.21967903752985
 30
0.0
  0
VERTEX
  5
536
  8
LAYER_1
 10
7.685548497860412
 20
-10.91494868935328
 30
0.0
  0
VERTEX
  5
537
  8
LAYER_1
 10
7.500318281756845
 20
-11.62057147565965
 30
0.0
  0
VERTEX
  5
538
  8
LAYER_1
 10
7.340053076917465
 20
-12.33659924983121
 30
0.0
  0
VERTEX
  5
539
  8
LAYER_1
 10
7.204731760327333
 20
-13.06308386525024
 30
0.0
  0
VERTEX
  5
53A
  8
LAYER_1
 10
7.094333208971518
 20
-13.80007717529898
 30
0.0
  0
VERTEX
  5
53B
  8
LAYER_1
 10
7.008836299835082
 20
-14.54763103335969
 30
0.0
  0
VERTEX
  5
53C
  8
LAYER_1
 10
6.966057097340392
 20
-15.04746305811155
 30
0.0
  0
VERTEX
  5
53D
  8
LAYER_1
 10
6.935435671992049
 20
-15.54135908342963
 30
0.0
  0
VERTEX
  5
53E
  8
LAYER_1
 10
6.917079872033081
 20
-16.03033358073013
 30
0.0
  0
VERTEX
  5
53F
  8
LAYER_1
 10
6.911097545706517
 20
-16.51540102142922
 30
0.0
  0
VERTEX
  5
540
  8
LAYER_1
 10
6.917596541255385
 20
-16.99757587694311
 30
0.0
  0
VERTEX
  5
541
  8
LAYER_1
 10
6.936684706922714
 20
-17.47787261868799
 30
0.0
  0
VERTEX
  5
542
  8
LAYER_1
 10
6.96846989095153
 20
-17.95730571808004
 30
0.0
  0
VERTEX
  5
543
  8
LAYER_1
 10
7.013059941584864
 20
-18.43688964653545
 30
0.0
  0
VERTEX
  5
544
  8
LAYER_1
 10
7.070562707065742
 20
-18.91763887547042
 30
0.0
  0
VERTEX
  5
545
  8
LAYER_1
 10
7.141086035637192
 20
-19.40056787630114
 30
0.0
  0
VERTEX
  5
546
  8
LAYER_1
 10
7.224737775542245
 20
-19.8866911204438
 30
0.0
  0
VERTEX
  5
547
  8
LAYER_1
 10
7.321625775023926
 20
-20.37702307931458
 30
0.0
  0
VERTEX
  5
548
  8
LAYER_1
 10
7.431857882325265
 20
-20.87257822432969
 30
0.0
  0
VERTEX
  5
549
  8
LAYER_1
 10
7.555541945689289
 20
-21.3743710269053
 30
0.0
  0
VERTEX
  5
54A
  8
LAYER_1
 10
7.692785813359028
 20
-21.88341595845762
 30
0.0
  0
VERTEX
  5
54B
  8
LAYER_1
 10
7.843697333577509
 20
-22.40072749040283
 30
0.0
  0
VERTEX
  5
54C
  8
LAYER_1
 10
8.063022751482025
 20
-23.07466147240546
 30
0.0
  0
VERTEX
  5
54D
  8
LAYER_1
 10
8.314352290825468
 20
-23.75344721658221
 30
0.0
  0
VERTEX
  5
54E
  8
LAYER_1
 10
8.595518905081462
 20
-24.43256596279333
 30
0.0
  0
VERTEX
  5
54F
  8
LAYER_1
 10
8.904355547723625
 20
-25.10749895089907
 30
0.0
  0
VERTEX
  5
550
  8
LAYER_1
 10
9.23869517222558
 20
-25.77372742075971
 30
0.0
  0
VERTEX
  5
551
  8
LAYER_1
 10
9.596370732060944
 20
-26.42673261223548
 30
0.0
  0
VERTEX
  5
552
  8
LAYER_1
 10
9.975215180703339
 20
-27.06199576518664
 30
0.0
  0
VERTEX
  5
553
  8
LAYER_1
 10
10.37306147162639
 20
-27.67499811947346
 30
0.0
  0
VERTEX
  5
554
  8
LAYER_1
 10
10.60164864179693
 20
-28.0124981328845
 30
0.0
  0
VERTEX
  5
555
  8
LAYER_1
 10
11.24363739396061
 20
-28.83749816566706
 30
0.0
  0
VERTEX
  5
556
  8
LAYER_1
 10
11.55512232908784
 20
-29.22017377239158
 30
0.0
  0
VERTEX
  5
557
  8
LAYER_1
 10
11.92864581375684
 20
-29.65224532587293
 30
0.0
  0
VERTEX
  5
558
  8
LAYER_1
 10
12.31727194770109
 20
-30.0807174666412
 30
0.0
  0
VERTEX
  5
559
  8
LAYER_1
 10
12.6740648306541
 20
-30.45259483522646
 30
0.0
  0
VERTEX
  5
55A
  8
LAYER_1
 10
13.46250351518393
 20
-31.24269147200331
 30
0.0
  0
VERTEX
  5
55B
  8
LAYER_1
 10
13.83750353008509
 20
-31.55292559429713
 30
0.0
  0
VERTEX
  5
55C
  8
LAYER_1
 10
14.55000355839729
 20
-32.13619336338273
 30
0.0
  0
VERTEX
  5
55D
  8
LAYER_1
 10
15.0212983044441
 20
-32.51855746595967
 30
0.0
  0
VERTEX
  5
55E
  8
LAYER_1
 10
15.15509303707985
 20
-32.62788792174482
 30
0.0
  0
VERTEX
  5
55F
  8
LAYER_1
 10
15.80879833573654
 20
-33.06503914904717
 30
0.0
  0
VERTEX
  5
560
  8
LAYER_1
 10
16.39478801524008
 20
-33.44491056824165
 30
0.0
  0
VERTEX
  5
561
  8
LAYER_1
 10
16.96772431645009
 20
-33.79037955850335
 30
0.0
  0
VERTEX
  5
562
  8
LAYER_1
 10
17.55587396910383
 20
-34.11782835682515
 30
0.0
  0
VERTEX
  5
563
  8
LAYER_1
 10
18.18750370293856
 20
-34.44363920019992
 30
0.0
  0
VERTEX
  5
564
  8
LAYER_1
 10
18.86250372976065
 20
-34.78017843984552
 30
0.0
  0
VERTEX
  5
565
  8
LAYER_1
 10
19.05000373721123
 20
-34.83737231986873
 30
0.0
  0
VERTEX
  5
566
  8
LAYER_1
 10
19.27055062097497
 20
-34.91698046004296
 30
0.0
  0
VERTEX
  5
567
  8
LAYER_1
 10
19.53750375658274
 20
-35.028063944259
 30
0.0
  0
VERTEX
  5
568
  8
LAYER_1
 10
19.84768352809947
 20
-35.16014727536272
 30
0.0
  0
VERTEX
  5
569
  8
LAYER_1
 10
20.17488641586068
 20
-35.28814393601564
 30
0.0
  0
VERTEX
  5
56A
  8
LAYER_1
 10
20.51751750906152
 20
-35.41168444829366
 30
0.0
  0
VERTEX
  5
56B
  8
LAYER_1
 10
20.87398189689713
 20
-35.5303993342726
 30
0.0
  0
VERTEX
  5
56C
  8
LAYER_1
 10
21.24268466856267
 20
-35.64391911602834
 30
0.0
  0
VERTEX
  5
56D
  8
LAYER_1
 10
21.62203091325328
 20
-35.75187431563672
 30
0.0
  0
VERTEX
  5
56E
  8
LAYER_1
 10
22.01042572016411
 20
-35.85389545517361
 30
0.0
  0
VERTEX
  5
56F
  8
LAYER_1
 10
22.40627417849032
 20
-35.94961305671487
 30
0.0
  0
VERTEX
  5
570
  8
LAYER_1
 10
22.80798137742706
 20
-36.03865764233635
 30
0.0
  0
VERTEX
  5
571
  8
LAYER_1
 10
23.21395240616948
 20
-36.1206597341139
 30
0.0
  0
VERTEX
  5
572
  8
LAYER_1
 10
23.62259235391273
 20
-36.1952498541234
 30
0.0
  0
VERTEX
  5
573
  8
LAYER_1
 10
24.03230630985195
 20
-36.26205852444068
 30
0.0
  0
VERTEX
  5
574
  8
LAYER_1
 10
24.44149936318231
 20
-36.32071626714163
 30
0.0
  0
VERTEX
  5
575
  8
LAYER_1
 10
24.84857660309895
 20
-36.37085360430208
 30
0.0
  0
VERTEX
  5
576
  8
LAYER_1
 10
25.25194311879702
 20
-36.4121010579979
 30
0.0
  0
SEQEND
  5
FF7
  8
LAYER_1
  0
POLYLINE
  5
74
  8
LAYER_1
 66
     1
 10
0.0
 20
0.0
 30
0.0
 70
     1
  0
VERTEX
  5
577
  8
LAYER_1
 10
-3.586177142438316
 20
-29.81249820441008
 30
0.0
  0
VERTEX
  5
578
  8
LAYER_1
 10
-3.467076697123559
 20
-29.90564548561074
 30
0.0
  0
VERTEX
  5
579
  8
LAYER_1
 10
-3.402359525562878
 20
-29.94705249156777
 30
0.0
  0
VERTEX
  5
57A
  8
LAYER_1
 10
-3.373804393522845
 20
-29.95624840621804
 30
0.0
  0
VERTEX
  5
57B
  8
LAYER_1
 10
-3.346132779918246
 20
-29.95761829643425
 30
0.0
  0
VERTEX
  5
57C
  8
LAYER_1
 10
-3.288483755841035
 20
-29.9364171069188
 30
0.0
  0
VERTEX
  5
57D
  8
LAYER_1
 10
-3.219499748982614
 20
-29.88252312973004
 30
0.0
  0
VERTEX
  5
57E
  8
LAYER_1
 10
-3.163700042757724
 20
-29.81553043216012
 30
0.0
  0
VERTEX
  5
57F
  8
LAYER_1
 10
-3.106744178207377
 20
-29.71907488707952
 30
0.0
  0
VERTEX
  5
580
  8
LAYER_1
 10
-3.055307364270659
 20
-29.60605664004378
 30
0.0
  0
VERTEX
  5
581
  8
LAYER_1
 10
-3.016064809886657
 20
-29.48937583660845
 30
0.0
  0
VERTEX
  5
582
  8
LAYER_1
 10
-2.94110637361689
 20
-29.21249818056822
 30
0.0
  0
VERTEX
  5
583
  8
LAYER_1
 10
-1.33552342982847
 20
-24.11249797791243
 30
0.0
  0
VERTEX
  5
584
  8
LAYER_1
 10
-0.986037533718644
 20
-22.96045018076146
 30
0.0
  0
VERTEX
  5
585
  8
LAYER_1
 10
-0.890396036635309
 20
13.31250350922346
 30
0.0
  0
VERTEX
  5
586
  8
LAYER_1
 10
-0.8228692470899404
 20
14.73750356584787
 30
0.0
  0
VERTEX
  5
587
  8
LAYER_1
 10
-0.784306311744881
 20
15.38845085733919
 30
0.0
  0
VERTEX
  5
588
  8
LAYER_1
 10
-0.7292262296116228
 20
16.10742549528368
 30
0.0
  0
VERTEX
  5
589
  8
LAYER_1
 10
-0.6649776844806312
 20
16.80706419495982
 30
0.0
  0
VERTEX
  5
58A
  8
LAYER_1
 10
-0.5989093601423718
 20
17.40000367164612
 30
0.0
  0
VERTEX
  5
58B
  8
LAYER_1
 10
-0.4424762627401719
 20
18.63750372081995
 30
0.0
  0
VERTEX
  5
58C
  8
LAYER_1
 10
-0.3296107243308484
 20
19.27500374615192
 30
0.0
  0
VERTEX
  5
58D
  8
LAYER_1
 10
-0.1065391999824741
 20
20.46797672823205
 30
0.0
  0
VERTEX
  5
58E
  8
LAYER_1
 10
0.1356820932745699
 20
21.63742102361753
 30
0.0
  0
VERTEX
  5
58F
  8
LAYER_1
 10
0.3951429136237375
 20
22.77602332991002
 30
0.0
  0
VERTEX
  5
590
  8
LAYER_1
 10
0.6699330192484823
 20
23.87647034471111
 30
0.0
  0
VERTEX
  5
591
  8
LAYER_1
 10
0.958142168332258
 20
24.93144876562244
 30
0.0
  0
VERTEX
  5
592
  8
LAYER_1
 10
1.257860119058518
 20
25.93364529024563
 30
0.0
  0
VERTEX
  5
593
  8
LAYER_1
 10
1.567176629610717
 20
26.87574661618228
 30
0.0
  0
VERTEX
  5
594
  8
LAYER_1
 10
1.724837394253872
 20
27.32197617264368
 30
0.0
  0
VERTEX
  5
595
  8
LAYER_1
 10
1.884181458172307
 20
27.75043944103405
 30
0.0
  0
VERTEX
  5
596
  8
LAYER_1
 10
2.113936139024204
 20
28.35210592582366
 30
0.0
  0
VERTEX
  5
597
  8
LAYER_1
 10
3.225003108382225
 20
30.55550548826885
 30
0.0
  0
VERTEX
  5
598
  8
LAYER_1
 10
3.225003108382225
 20
32.68163757156735
 30
0.0
  0
VERTEX
  5
599
  8
LAYER_1
 10
3.125660512608192
 20
32.7640846032445
 30
0.0
  0
VERTEX
  5
59A
  8
LAYER_1
 10
3.046103152913035
 20
32.80468391616449
 30
0.0
  0
VERTEX
  5
59B
  8
LAYER_1
 10
2.902923872128991
 20
32.85427906022787
 30
0.0
  0
VERTEX
  5
59C
  8
LAYER_1
 10
2.716425405437819
 20
32.90659404509027
 30
0.0
  0
VERTEX
  5
59D
  8
LAYER_1
 10
2.506910488021276
 20
32.95535288040725
 30
0.0
  0
VERTEX
  5
59E
  8
LAYER_1
 10
1.987503059208393
 20
33.06417412589286
 30
0.0
  0
VERTEX
  5
59F
  8
LAYER_1
 10
-0.4874970391392708
 20
33.26037595731485
 30
0.0
  0
VERTEX
  5
5A0
  8
LAYER_1
 10
-6.187497265636921
 20
33.25947709723205
 30
0.0
  0
VERTEX
  5
5A1
  8
LAYER_1
 10
-8.662497363984585
 20
33.06699456414746
 30
0.0
  0
VERTEX
  5
5A2
  8
LAYER_1
 10
-9.183244402722252
 20
32.96752972731528
 30
0.0
  0
VERTEX
  5
5A3
  8
LAYER_1
 10
-9.432736146062648
 20
32.91185262421605
 30
0.0
  0
VERTEX
  5
5A4
  8
LAYER_1
 10
-9.618684879077758
 20
32.85047866804149
 30
0.0
  0
VERTEX
  5
5A5
  8
LAYER_1
 10
-9.691545645869468
 20
32.81610787806673
 30
0.0
  0
VERTEX
  5
5A6
  8
LAYER_1
 10
-9.75297869506722
 20
32.77845588444206
 30
0.0
  0
VERTEX
  5
5A7
  8
LAYER_1
 10
-9.804470038333468
 20
32.73690369037379
 30
0.0
  0
VERTEX
  5
5A8
  8
LAYER_1
 10
-9.847505687330667
 20
32.69083229906823
 30
0.0
  0
VERTEX
  5
5A9
  8
LAYER_1
 10
-9.991019933201429
 20
32.51359970765336
 30
0.0
  0
VERTEX
  5
5AA
  8
LAYER_1
 10
-9.921566609413105
 20
30.48750419169664
 30
0.0
  0
VERTEX
  5
5AB
  8
LAYER_1
 10
-9.361466668478002
 20
29.40000414848328
 30
0.0
  0
VERTEX
  5
5AC
  8
LAYER_1
 10
-9.118834486343776
 20
28.90969162900001
 30
0.0
  0
VERTEX
  5
5AD
  8
LAYER_1
 10
-8.87224648389977
 20
28.37859785789624
 30
0.0
  0
VERTEX
  5
5AE
  8
LAYER_1
 10
-8.650541800176796
 20
27.87070721271448
 30
0.0
  0
VERTEX
  5
5AF
  8
LAYER_1
 10
-8.482559574205666
 20
27.45000407099724
 30
0.0
  0
VERTEX
  5
5B0
  8
LAYER_1
 10
-8.163752420868434
 20
26.58750403672457
 30
0.0
  0
VERTEX
  5
5B1
  8
LAYER_1
 10
-8.028648967821766
 20
26.25096052288251
 30
0.0
  0
VERTEX
  5
5B2
  8
LAYER_1
 10
-7.721150343857872
 20
25.18668934314157
 30
0.0
  0
VERTEX
  5
5B3
  8
LAYER_1
 10
-7.456034836130195
 20
24.22143504519844
 30
0.0
  0
VERTEX
  5
5B4
  8
LAYER_1
 10
-7.189578548272369
 20
23.15916662683995
 30
0.0
  0
VERTEX
  5
5B5
  8
LAYER_1
 10
-6.928179410058931
 20
22.02648818303108
 30
0.0
  0
VERTEX
  5
5B6
  8
LAYER_1
 10
-6.678235351264419
 20
20.8500038087368
 30
0.0
  0
VERTEX
  5
5B7
  8
LAYER_1
 10
-6.456913827789748
 20
19.76250376552343
 30
0.0
  0
VERTEX
  5
5B8
  8
LAYER_1
 10
-6.374996638784623
 20
19.27500374615192
 30
0.0
  0
VERTEX
  5
5B9
  8
LAYER_1
 10
-6.254747410614831
 20
18.52059370523608
 30
0.0
  0
VERTEX
  5
5BA
  8
LAYER_1
 10
-6.14435679192626
 20
17.74573469094642
 30
0.0
  0
VERTEX
  5
5BB
  8
LAYER_1
 10
-6.042280847569586
 20
16.93893321845017
 30
0.0
  0
VERTEX
  5
5BC
  8
LAYER_1
 10
-5.946975642395486
 20
16.08869580291451
 30
0.0
  0
VERTEX
  5
5BD
  8
LAYER_1
 10
-5.820196371588835
 20
14.88750357180834
 30
0.0
  0
VERTEX
  5
5BE
  8
LAYER_1
 10
-5.76917973063766
 20
-22.83211934505356
 30
0.0
  0
VERTEX
  5
5BF
  8
LAYER_1
 10
-4.191845386477212
 20
-27.86249812692404
 30
0.0
  0
SEQEND
  5
FF8
  8
LAYER_1
  0
POLYLINE
  5
75
  8
LAYER_1
 66
     1
 10
0.0
 20
0.0
 30
0.0
 70
     1
  0
VERTEX
  5
5C0
  8
LAYER_1
 10
37.31250446289778
 20
7.500848455467889
 30
0.0
  0
VERTEX
  5
5C1
  8
LAYER_1
 10
37.76250448077917
 20
7.43735445673201
 30
0.0
  0
VERTEX
  5
5C2
  8
LAYER_1
 10
38.57054862948256
 20
7.470119119520248
 30
0.0
  0
VERTEX
  5
5C3
  8
LAYER_1
 10
38.94684868669334
 20
7.490897867296576
 30
0.0
  0
VERTEX
  5
5C4
  8
LAYER_1
 10
39.31598474307017
 20
7.522911889472864
 30
0.0
  0
VERTEX
  5
5C5
  8
LAYER_1
 10
39.68050739276146
 20
7.566991774134551
 30
0.0
  0
VERTEX
  5
5C6
  8
LAYER_1
 10
40.04296722991563
 20
7.623968109367075
 30
0.0
  0
VERTEX
  5
5C7
  8
LAYER_1
 10
40.40591484868112
 20
7.694671483255876
 30
0.0
  0
VERTEX
  5
5C8
  8
LAYER_1
 10
40.77190084320635
 20
7.779932483886391
 30
0.0
  0
VERTEX
  5
5C9
  8
LAYER_1
 10
41.14347580763976
 20
7.880581699344063
 30
0.0
  0
VERTEX
  5
5CA
  8
LAYER_1
 10
41.52319033612974
 20
7.997449717714327
 30
0.0
  0
VERTEX
  5
5CB
  8
LAYER_1
 10
41.91359502282473
 20
8.131367127082623
 30
0.0
  0
VERTEX
  5
5CC
  8
LAYER_1
 10
42.31724046187317
 20
8.283164515534391
 30
0.0
  0
VERTEX
  5
5CD
  8
LAYER_1
 10
42.73667724742347
 20
8.453672471155068
 30
0.0
  0
VERTEX
  5
5CE
  8
LAYER_1
 10
43.17445597362406
 20
8.643721582030096
 30
0.0
  0
VERTEX
  5
5CF
  8
LAYER_1
 10
43.63312723462337
 20
8.854142436244913
 30
0.0
  0
VERTEX
  5
5D0
  8
LAYER_1
 10
44.11524162456982
 20
9.085765621884956
 30
0.0
  0
VERTEX
  5
5D1
  8
LAYER_1
 10
45.16000216789783
 20
9.61594133978248
 30
0.0
  0
VERTEX
  5
5D2
  8
LAYER_1
 10
45.56675457558204
 20
9.8356770689723
 30
0.0
  0
VERTEX
  5
5D3
  8
LAYER_1
 10
45.95599011548595
 20
10.06115953210742
 30
0.0
  0
VERTEX
  5
5D4
  8
LAYER_1
 10
46.3290019271312
 20
10.29362298361043
 30
0.0
  0
VERTEX
  5
5D5
  8
LAYER_1
 10
46.68708315003948
 20
10.53430167790392
 30
0.0
  0
VERTEX
  5
5D6
  8
LAYER_1
 10
47.03152692373246
 20
10.78442986941048
 30
0.0
  0
VERTEX
  5
5D7
  8
LAYER_1
 10
47.36362638773178
 20
11.04524181255272
 30
0.0
  0
VERTEX
  5
5D8
  8
LAYER_1
 10
47.68467468155912
 20
11.31797176175322
 30
0.0
  0
VERTEX
  5
5D9
  8
LAYER_1
 10
47.99596494473614
 20
11.60385397143457
 30
0.0
  0
VERTEX
  5
5DA
  8
LAYER_1
 10
48.29879031678451
 20
11.90412269601936
 30
0.0
  0
VERTEX
  5
5DB
  8
LAYER_1
 10
48.59444393722589
 20
12.2200121899302
 30
0.0
  0
VERTEX
  5
5DC
  8
LAYER_1
 10
48.88421894558195
 20
12.55275670758966
 30
0.0
  0
VERTEX
  5
5DD
  8
LAYER_1
 10
49.16940848137435
 20
12.90359050342035
 30
0.0
  0
VERTEX
  5
5DE
  8
LAYER_1
 10
49.45130568412475
 20
13.27374783184485
 30
0.0
  0
VERTEX
  5
5DF
  8
LAYER_1
 10
49.73120369335481
 20
13.66446294728576
 30
0.0
  0
VERTEX
  5
5E0
  8
LAYER_1
 10
50.01039564858621
 20
14.07697010416567
 30
0.0
  0
VERTEX
  5
5E1
  8
LAYER_1
 10
50.29017468934062
 20
14.51250355690718
 30
0.0
  0
VERTEX
  5
5E2
  8
LAYER_1
 10
50.57227185425678
 20
14.96250357478857
 30
0.0
  0
VERTEX
  5
5E3
  8
LAYER_1
 10
51.65317052659113
 20
17.1584082353888
 30
0.0
  0
VERTEX
  5
5E4
  8
LAYER_1
 10
51.69563227190484
 20
17.29795595426252
 30
0.0
  0
VERTEX
  5
5E5
  8
LAYER_1
 10
51.79541329912091
 20
17.56174591228291
 30
0.0
  0
VERTEX
  5
5E6
  8
LAYER_1
 10
51.97568523283812
 20
18.00000369548798
 30
0.0
  0
VERTEX
  5
5E7
  8
LAYER_1
 10
52.17407482562959
 20
18.49569453481448
 30
0.0
  0
VERTEX
  5
5E8
  8
LAYER_1
 10
52.38713671620849
 20
19.0761896537776
 30
0.0
  0
VERTEX
  5
5E9
  8
LAYER_1
 10
52.61126915422544
 20
19.73005965384272
 30
0.0
  0
VERTEX
  5
5EA
  8
LAYER_1
 10
52.8428703893311
 20
20.44587513647518
 30
0.0
  0
VERTEX
  5
5EB
  8
LAYER_1
 10
53.07833867117608
 20
21.21220670314034
 30
0.0
  0
VERTEX
  5
5EC
  8
LAYER_1
 10
53.31407224941105
 20
22.01762495530356
 30
0.0
  0
VERTEX
  5
5ED
  8
LAYER_1
 10
53.54646937368662
 20
22.85070049443021
 30
0.0
  0
VERTEX
  5
5EE
  8
LAYER_1
 10
53.77192829365345
 20
23.70000392198563
 30
0.0
  0
VERTEX
  5
5EF
  8
LAYER_1
 10
54.08197553178573
 20
24.90000396966934
 30
0.0
  0
VERTEX
  5
5F0
  8
LAYER_1
 10
54.41423905381029
 20
26.17500402033329
 30
0.0
  0
VERTEX
  5
5F1
  8
LAYER_1
 10
54.75840212861812
 20
27.48750407248735
 30
0.0
  0
VERTEX
  5
5F2
  8
LAYER_1
 10
54.9111150453402
 20
28.0422116247058
 30
0.0
  0
VERTEX
  5
5F3
  8
LAYER_1
 10
55.0577309981702
 20
28.53331698272969
 30
0.0
  0
VERTEX
  5
5F4
  8
LAYER_1
 10
55.15821213462623
 20
28.87716007651842
 30
0.0
  0
VERTEX
  5
5F5
  8
LAYER_1
 10
55.18877885202159
 20
29.00431787847661
 30
0.0
  0
VERTEX
  5
5F6
  8
LAYER_1
 10
55.20000517368317
 20
29.07781154663961
 30
0.0
  0
VERTEX
  5
5F7
  8
LAYER_1
 10
55.20000517368317
 20
29.17649322414904
 30
0.0
  0
VERTEX
  5
5F8
  8
LAYER_1
 10
55.6940940843478
 20
30.43199873176469
 30
0.0
  0
VERTEX
  5
5F9
  8
LAYER_1
 10
56.87435399380803
 20
33.4125043079257
 30
0.0
  0
VERTEX
  5
5FA
  8
LAYER_1
 10
57.5605249926036
 20
35.13750437647104
 30
0.0
  0
VERTEX
  5
5FB
  8
LAYER_1
 10
57.64862147658368
 20
35.21250437945127
 30
0.0
  0
VERTEX
  5
5FC
  8
LAYER_1
 10
57.69850293946342
 20
35.28305125725456
 30
0.0
  0
VERTEX
  5
5FD
  8
LAYER_1
 10
57.76919500438191
 20
35.41969188768417
 30
0.0
  0
VERTEX
  5
5FE
  8
LAYER_1
 10
57.85128858468335
 20
35.6027387699578
 30
0.0
  0
VERTEX
  5
5FF
  8
LAYER_1
 10
57.93537459371197
 20
35.81250440329313
 30
0.0
  0
VERTEX
  5
600
  8
LAYER_1
 10
58.1179849720881
 20
36.28242629696615
 30
0.0
  0
VERTEX
  5
601
  8
LAYER_1
 10
58.27806231184806
 20
36.6750044375658
 30
0.0
  0
VERTEX
  5
602
  8
LAYER_1
 10
58.6545933537715
 20
37.61250447481871
 30
0.0
  0
VERTEX
  5
603
  8
LAYER_1
 10
58.98609793552859
 20
38.43750450760126
 30
0.0
  0
VERTEX
  5
604
  8
LAYER_1
 10
59.08510256035007
 20
38.66250451654196
 30
0.0
  0
VERTEX
  5
605
  8
LAYER_1
 10
59.87356255718731
 20
40.612504594028
 30
0.0
  0
VERTEX
  5
606
  8
LAYER_1
 10
60.0093355249258
 20
40.98750460892916
 30
0.0
  0
VERTEX
  5
607
  8
LAYER_1
 10
60.06643365401257
 20
41.15496331592641
 30
0.0
  0
VERTEX
  5
608
  8
LAYER_1
 10
60.10725870376037
 20
41.29898305758647
 30
0.0
  0
VERTEX
  5
609
  8
LAYER_1
 10
60.13181568456234
 20
41.42257047415949
 30
0.0
  0
VERTEX
  5
60A
  8
LAYER_1
 10
60.14010960681166
 20
41.52873220589562
 30
0.0
  0
VERTEX
  5
60B
  8
LAYER_1
 10
60.1321454809015
 20
41.620474893045
 30
0.0
  0
VERTEX
  5
60C
  8
LAYER_1
 10
60.10792831722502
 20
41.70080517585778
 30
0.0
  0
VERTEX
  5
60D
  8
LAYER_1
 10
60.06746312617538
 20
41.7727296945841
 30
0.0
  0
VERTEX
  5
60E
  8
LAYER_1
 10
60.01075491814575
 20
41.83925508947411
 30
0.0
  0
VERTEX
  5
60F
  8
LAYER_1
 10
59.87150446591298
 20
41.97850554170687
 30
0.0
  0
VERTEX
  5
610
  8
LAYER_1
 10
60.58224558829687
 20
43.76250471919775
 30
0.0
  0
VERTEX
  5
611
  8
LAYER_1
 10
61.14846234443056
 20
45.15000477433205
 30
0.0
  0
VERTEX
  5
612
  8
LAYER_1
 10
62.32761567046154
 20
48.03750488907099
 30
0.0
  0
VERTEX
  5
613
  8
LAYER_1
 10
62.94055224035881
 20
49.53750494867563
 30
0.0
  0
VERTEX
  5
614
  8
LAYER_1
 10
63.20387847581128
 20
50.17500497400761
 30
0.0
  0
VERTEX
  5
615
  8
LAYER_1
 10
63.59964965808777
 20
51.15000501275063
 30
0.0
  0
VERTEX
  5
616
  8
LAYER_1
 10
63.96948566941936
 20
52.05000504851341
 30
0.0
  0
VERTEX
  5
617
  8
LAYER_1
 10
64.17133652294959
 20
52.54641131823882
 30
0.0
  0
VERTEX
  5
618
  8
LAYER_1
 10
64.32327984617135
 20
52.9500050842762
 30
0.0
  0
VERTEX
  5
619
  8
LAYER_1
 10
64.4253650492766
 20
53.20929415707943
 30
0.0
  0
VERTEX
  5
61A
  8
LAYER_1
 10
64.47188770746706
 20
53.30445919992344
 30
0.0
  0
VERTEX
  5
61B
  8
LAYER_1
 10
64.507344252314
 20
53.35875510051847
 30
0.0
  0
VERTEX
  5
61C
  8
LAYER_1
 10
64.53361586408542
 20
53.39395173022481
 30
0.0
  0
VERTEX
  5
61D
  8
LAYER_1
 10
64.55513004112962
 20
53.43711380777785
 30
0.0
  0
VERTEX
  5
61E
  8
LAYER_1
 10
64.56966664724055
 20
53.48277149433228
 30
0.0
  0
VERTEX
  5
61F
  8
LAYER_1
 10
64.5750055462122
 20
53.52545495104275
 30
0.0
  0
VERTEX
  5
620
  8
LAYER_1
 10
64.58929263237246
 20
53.59374744452559
 30
0.0
  0
VERTEX
  5
621
  8
LAYER_1
 10
64.62819311449198
 20
53.7091327064503
 30
0.0
  0
VERTEX
  5
622
  8
LAYER_1
 10
64.75606960844127
 20
54.0167049705633
 30
0.0
  0
VERTEX
  5
623
  8
LAYER_1
 10
64.9371336706703
 20
54.41250514239073
 30
0.0
  0
VERTEX
  5
624
  8
LAYER_1
 10
65.71712971741292
 20
56.36250521987677
 30
0.0
  0
VERTEX
  5
625
  8
LAYER_1
 10
65.84961220586575
 20
56.70000523328781
 30
0.0
  0
VERTEX
  5
626
  8
LAYER_1
 10
66.2212852427474
 20
57.6000052690506
 30
0.0
  0
VERTEX
  5
627
  8
LAYER_1
 10
66.40892005796198
 20
58.05234903702512
 30
0.0
  0
VERTEX
  5
628
  8
LAYER_1
 10
66.52415746057781
 20
58.35000529885292
 30
0.0
  0
VERTEX
  5
629
  8
LAYER_1
 10
66.64886650734604
 20
58.66969281155616
 30
0.0
  0
VERTEX
  5
62A
  8
LAYER_1
 10
66.85927357339509
 20
59.17500533163548
 30
0.0
  0
VERTEX
  5
62B
  8
LAYER_1
 10
67.15111393909841
 20
59.87859910959378
 30
0.0
  0
VERTEX
  5
62C
  8
LAYER_1
 10
67.4716094297163
 20
60.67500539124012
 30
0.0
  0
VERTEX
  5
62D
  8
LAYER_1
 10
67.7656124831813
 20
61.4004123409197
 30
0.0
  0
VERTEX
  5
62E
  8
LAYER_1
 10
67.99375826594257
 20
61.9333055973409
 30
0.0
  0
VERTEX
  5
62F
  8
LAYER_1
 10
68.12176425866286
 20
62.23367911976161
 30
0.0
  0
VERTEX
  5
630
  8
LAYER_1
 10
68.16070413476695
 20
62.34127212671584
 30
0.0
  0
VERTEX
  5
631
  8
LAYER_1
 10
68.17500568926334
 20
62.40004926216335
 30
0.0
  0
VERTEX
  5
632
  8
LAYER_1
 10
68.18632205411517
 20
62.45290497234433
 30
0.0
  0
VERTEX
  5
633
  8
LAYER_1
 10
68.2171339386127
 20
62.54437528674115
 30
0.0
  0
VERTEX
  5
634
  8
LAYER_1
 10
68.31842100619733
 20
62.79174912162767
 30
0.0
  0
VERTEX
  5
635
  8
LAYER_1
 10
68.66027384635859
 20
63.60000550746918
 30
0.0
  0
VERTEX
  5
636
  8
LAYER_1
 10
69.29848314239652
 20
65.156255569309
 30
0.0
  0
VERTEX
  5
637
  8
LAYER_1
 10
69.44696055678668
 20
65.5125055834651
 30
0.0
  0
VERTEX
  5
638
  8
LAYER_1
 10
70.72500579059124
 20
68.65096679051138
 30
0.0
  0
VERTEX
  5
639
  8
LAYER_1
 10
70.72500579059124
 20
68.85287544717954
 30
0.0
  0
VERTEX
  5
63A
  8
LAYER_1
 10
67.40411686197629
 20
68.81250571459532
 30
0.0
  0
VERTEX
  5
63B
  8
LAYER_1
 10
66.88469714839002
 20
67.53750566393137
 30
0.0
  0
VERTEX
  5
63C
  8
LAYER_1
 10
65.87458052110131
 20
65.0625055655837
 30
0.0
  0
VERTEX
  5
63D
  8
LAYER_1
 10
65.0465311314019
 20
63.03750548511744
 30
0.0
  0
VERTEX
  5
63E
  8
LAYER_1
 10
64.57768052399223
 20
61.87500543892384
 30
0.0
  0
VERTEX
  5
63F
  8
LAYER_1
 10
64.44618239257952
 20
61.53750542551279
 30
0.0
  0
VERTEX
  5
640
  8
LAYER_1
 10
63.13277087440002
 20
58.3125052973628
 30
0.0
  0
VERTEX
  5
641
  8
LAYER_1
 10
62.94629042500645
 20
57.86250527948141
 30
0.0
  0
VERTEX
  5
642
  8
LAYER_1
 10
62.62500546872616
 20
57.07500524818897
 30
0.0
  0
VERTEX
  5
643
  8
LAYER_1
 10
62.28750545531511
 20
56.25000521540642
 30
0.0
  0
VERTEX
  5
644
  8
LAYER_1
 10
61.95105058737929
 20
55.42500518262386
 30
0.0
  0
VERTEX
  5
645
  8
LAYER_1
 10
61.43086475814565
 20
54.11810914806324
 30
0.0
  0
VERTEX
  5
646
  8
LAYER_1
 10
61.16639811747319
 20
53.47500510513783
 30
0.0
  0
VERTEX
  5
647
  8
LAYER_1
 10
60.83344128210854
 20
52.66875507310033
 30
0.0
  0
VERTEX
  5
648
  8
LAYER_1
 10
60.51663550105039
 20
51.88125504180789
 30
0.0
  0
VERTEX
  5
649
  8
LAYER_1
 10
60.24350061417326
 20
51.22500501573086
 30
0.0
  0
VERTEX
  5
64A
  8
LAYER_1
 10
59.99819822628572
 20
50.625004991889
 30
0.0
  0
VERTEX
  5
64B
  8
LAYER_1
 10
59.86766083508559
 20
50.28750497847795
 30
0.0
  0
VERTEX
  5
64C
  8
LAYER_1
 10
59.37787196517678
 20
49.08750493079424
 30
0.0
  0
VERTEX
  5
64D
  8
LAYER_1
 10
58.42686802003462
 20
46.76250483840704
 30
0.0
  0
VERTEX
  5
64E
  8
LAYER_1
 10
57.47258599784737
 20
44.41875474527478
 30
0.0
  0
VERTEX
  5
64F
  8
LAYER_1
 10
56.97951905089354
 20
43.20000469684601
 30
0.0
  0
VERTEX
  5
650
  8
LAYER_1
 10
56.82101214134562
 20
43.1988562387116
 30
0.0
  0
VERTEX
  5
651
  8
LAYER_1
 10
56.71660040391424
 20
43.188270307032
 30
0.0
  0
VERTEX
  5
652
  8
LAYER_1
 10
56.66851680570772
 20
43.17419284185853
 30
0.0
  0
VERTEX
  5
653
  8
LAYER_1
 10
56.62226349958118
 20
43.15297034614272
 30
0.0
  0
VERTEX
  5
654
  8
LAYER_1
 10
56.57715206934002
 20
43.12363629664468
 30
0.0
  0
VERTEX
  5
655
  8
LAYER_1
 10
56.53249409878963
 20
43.08522417012449
 30
0.0
  0
VERTEX
  5
656
  8
LAYER_1
 10
56.44178487198276
 20
42.97729959305802
 30
0.0
  0
VERTEX
  5
657
  8
LAYER_1
 10
56.34462848960376
 20
42.82146442902408
 30
0.0
  0
VERTEX
  5
658
  8
LAYER_1
 10
56.2355176220958
 20
42.60998649210335
 30
0.0
  0
VERTEX
  5
659
  8
LAYER_1
 10
55.9594031134657
 20
41.98917355592455
 30
0.0
  0
VERTEX
  5
65A
  8
LAYER_1
 10
55.32968599934222
 20
40.53864624384473
 30
0.0
  0
VERTEX
  5
65B
  8
LAYER_1
 10
54.76129264246811
 20
39.28438210313273
 30
0.0
  0
VERTEX
  5
65C
  8
LAYER_1
 10
54.59441459869564
 20
38.91908126827528
 30
0.0
  0
VERTEX
  5
65D
  8
LAYER_1
 10
54.52500514686108
 20
38.74731718096774
 30
0.0
  0
VERTEX
  5
65E
  8
LAYER_1
 10
54.52500514686108
 20
38.71337471691545
 30
0.0
  0
VERTEX
  5
65F
  8
LAYER_1
 10
54.26932863324561
 20
38.16293959586707
 30
0.0
  0
VERTEX
  5
660
  8
LAYER_1
 10
54.0457689668325
 20
37.67336084258393
 30
0.0
  0
VERTEX
  5
661
  8
LAYER_1
 10
53.88589846061464
 20
37.30322453786695
 30
0.0
  0
VERTEX
  5
662
  8
LAYER_1
 10
53.78365692099614
 20
37.03783697443735
 30
0.0
  0
VERTEX
  5
663
  8
LAYER_1
 10
53.73298415438114
 20
36.86250444501638
 30
0.0
  0
VERTEX
  5
664
  8
LAYER_1
 10
53.69220087740916
 20
36.71250443905592
 30
0.0
  0
VERTEX
  5
665
  8
LAYER_1
 10
53.63606926421511
 20
36.56250443309546
 30
0.0
  0
VERTEX
  5
666
  8
LAYER_1
 10
53.07051964749434
 20
35.31752901371313
 30
0.0
  0
VERTEX
  5
667
  8
LAYER_1
 10
52.93243748511674
 20
35.0085575967302
 30
0.0
  0
VERTEX
  5
668
  8
LAYER_1
 10
52.87500508129597
 20
34.85546409452836
 30
0.0
  0
VERTEX
  5
669
  8
LAYER_1
 10
52.87500508129597
 20
34.81337456194338
 30
0.0
  0
VERTEX
  5
66A
  8
LAYER_1
 10
52.36753058916432
 20
33.71250431984663
 30
0.0
  0
VERTEX
  5
66B
  8
LAYER_1
 10
51.85482894164913
 20
32.55273405544781
 30
0.0
  0
VERTEX
  5
66C
  8
LAYER_1
 10
51.56862319398005
 20
31.92381010674377
 30
0.0
  0
VERTEX
  5
66D
  8
LAYER_1
 10
51.45392241607406
 20
31.69396867818585
 30
0.0
  0
VERTEX
  5
66E
  8
LAYER_1
 10
51.34818065595378
 20
31.50375411079519
 30
0.0
  0
VERTEX
  5
66F
  8
LAYER_1
 10
51.24391612899416
 20
31.34057627755016
 30
0.0
  0
VERTEX
  5
670
  8
LAYER_1
 10
51.13364705057019
 20
31.19184505142914
 30
0.0
  0
VERTEX
  5
671
  8
LAYER_1
 10
51.00989163605685
 20
31.04497030541053
 30
0.0
  0
VERTEX
  5
672
  8
LAYER_1
 10
50.86516810082914
 20
30.8873619124727
 30
0.0
  0
VERTEX
  5
673
  8
LAYER_1
 10
50.55419739877372
 20
30.57876627712161
 30
0.0
  0
VERTEX
  5
674
  8
LAYER_1
 10
50.39529871263764
 20
30.43676890613862
 30
0.0
  0
VERTEX
  5
675
  8
LAYER_1
 10
50.23388824363612
 20
30.30283830085548
 30
0.0
  0
VERTEX
  5
676
  8
LAYER_1
 10
50.06978882217432
 20
30.17687431220081
 30
0.0
  0
VERTEX
  5
677
  8
LAYER_1
 10
49.90282327865734
 20
30.0587767911032
 30
0.0
  0
VERTEX
  5
678
  8
LAYER_1
 10
49.7328144434903
 20
29.94844558849127
 30
0.0
  0
VERTEX
  5
679
  8
LAYER_1
 10
49.55958514707834
 20
29.84578055529362
 30
0.0
  0
VERTEX
  5
67A
  8
LAYER_1
 10
49.38295821982658
 20
29.75068154243887
 30
0.0
  0
VERTEX
  5
67B
  8
LAYER_1
 10
49.20275649214013
 20
29.66304840085563
 30
0.0
  0
VERTEX
  5
67C
  8
LAYER_1
 10
49.01880279442412
 20
29.5827809814725
 30
0.0
  0
VERTEX
  5
67D
  8
LAYER_1
 10
48.83091995708367
 20
29.50977913521809
 30
0.0
  0
VERTEX
  5
67E
  8
LAYER_1
 10
48.63893081052392
 20
29.44394271302101
 30
0.0
  0
VERTEX
  5
67F
  8
LAYER_1
 10
48.44265818514997
 20
29.38517156580987
 30
0.0
  0
VERTEX
  5
680
  8
LAYER_1
 10
48.24192491136697
 20
29.33336554451328
 30
0.0
  0
VERTEX
  5
681
  8
LAYER_1
 10
48.03655381958002
 20
29.28842450005985
 30
0.0
  0
VERTEX
  5
682
  8
LAYER_1
 10
47.3625048622489
 20
29.15364025089349
 30
0.0
  0
VERTEX
  5
683
  8
LAYER_1
 10
45.07500477135181
 20
29.1996366858148
 30
0.0
  0
VERTEX
  5
684
  8
LAYER_1
 10
42.93070781114511
 20
29.25652493017693
 30
0.0
  0
VERTEX
  5
685
  8
LAYER_1
 10
40.98750460892916
 20
29.32870805588152
 30
0.0
  0
VERTEX
  5
686
  8
LAYER_1
 10
39.18750453740358
 20
29.41178299102697
 30
0.0
  0
VERTEX
  5
687
  8
LAYER_1
 10
32.58750427514315
 20
29.35274885617423
 30
0.0
  0
VERTEX
  5
688
  8
LAYER_1
 10
31.50000423192978
 20
29.22516990924787
 30
0.0
  0
VERTEX
  5
689
  8
LAYER_1
 10
30.18154972145519
 20
29.05798642266531
 30
0.0
  0
VERTEX
  5
68A
  8
LAYER_1
 10
28.92705981496426
 20
28.87306030342102
 30
0.0
  0
VERTEX
  5
68B
  8
LAYER_1
 10
27.73285820560193
 20
28.66962147093628
 30
0.0
  0
VERTEX
  5
68C
  8
LAYER_1
 10
26.59526858651314
 20
28.44689984463236
 30
0.0
  0
VERTEX
  5
68D
  8
LAYER_1
 10
26.04655442742911
 20
28.32806733361735
 30
0.0
  0
VERTEX
  5
68E
  8
LAYER_1
 10
25.51061465084281
 20
28.20412534393054
 30
0.0
  0
VERTEX
  5
68F
  8
LAYER_1
 10
24.98698971839737
 20
28.07497761549956
 30
0.0
  0
VERTEX
  5
690
  8
LAYER_1
 10
24.4752200917359
 20
27.94052788825208
 30
0.0
  0
VERTEX
  5
691
  8
LAYER_1
 10
23.97484623250151
 20
27.80067990211576
 30
0.0
  0
VERTEX
  5
692
  8
LAYER_1
 10
23.48540860233733
 20
27.65533739701827
 30
0.0
  0
VERTEX
  5
693
  8
LAYER_1
 10
23.00644766288646
 20
27.50440411288725
 30
0.0
  0
VERTEX
  5
694
  8
LAYER_1
 10
22.53750387579203
 20
27.34778378965038
 30
0.0
  0
VERTEX
  5
695
  8
LAYER_1
 10
21.56250383704901
 20
27.01269991198768
 30
0.0
  0
VERTEX
  5
696
  8
LAYER_1
 10
21.18750382214785
 20
26.86394972612817
 30
0.0
  0
VERTEX
  5
697
  8
LAYER_1
 10
20.2606866046703
 20
26.48745707117783
 30
0.0
  0
VERTEX
  5
698
  8
LAYER_1
 10
19.88071210699943
 20
26.32336554617982
 30
0.0
  0
VERTEX
  5
699
  8
LAYER_1
 10
19.52918778224596
 20
26.16255455094291
 30
0.0
  0
VERTEX
  5
69A
  8
LAYER_1
 10
19.18573420456399
 20
25.99540708154935
 30
0.0
  0
VERTEX
  5
69B
  8
LAYER_1
 10
18.8299719481076
 20
25.8123061340814
 30
0.0
  0
VERTEX
  5
69C
  8
LAYER_1
 10
18.00000369548798
 20
25.35977578925129
 30
0.0
  0
VERTEX
  5
69D
  8
LAYER_1
 10
17.62729091075654
 20
25.14659695244725
 30
0.0
  0
VERTEX
  5
69E
  8
LAYER_1
 10
17.23738019152264
 20
24.91363719930931
 30
0.0
  0
VERTEX
  5
69F
  8
LAYER_1
 10
16.449768116024
 20
24.41695055739639
 30
0.0
  0
VERTEX
  5
6A0
  8
LAYER_1
 10
16.07396834299752
 20
24.16751147530378
 30
0.0
  0
VERTEX
  5
6A1
  8
LAYER_1
 10
15.72477380194514
 20
23.92686709024196
 30
0.0
  0
VERTEX
  5
6A2
  8
LAYER_1
 10
15.41313528448596
 20
23.70216130555213
 30
0.0
  0
VERTEX
  5
6A3
  8
LAYER_1
 10
15.15000358223915
 20
23.50053802457545
 30
0.0
  0
VERTEX
  5
6A4
  8
LAYER_1
 10
14.47669974232132
 20
22.95941109048041
 30
0.0
  0
VERTEX
  5
6A5
  8
LAYER_1
 10
14.26440806406981
 20
22.78235140925472
 30
0.0
  0
VERTEX
  5
6A6
  8
LAYER_1
 10
14.11848857347414
 20
22.65191572248849
 30
0.0
  0
VERTEX
  5
6A7
  8
LAYER_1
 10
14.02654029042248
 20
22.5563201331154
 30
0.0
  0
VERTEX
  5
6A8
  8
LAYER_1
 10
13.97616223480301
 20
22.48378074406913
 30
0.0
  0
VERTEX
  5
6A9
  8
LAYER_1
 10
13.95495342650391
 20
22.42251365828337
 30
0.0
  0
VERTEX
  5
6AA
  8
LAYER_1
 10
13.95051288541335
 20
22.3607349786918
 30
0.0
  0
VERTEX
  5
6AB
  8
LAYER_1
 10
13.9601910003753
 20
22.23131569454661
 30
0.0
  0
VERTEX
  5
6AC
  8
LAYER_1
 10
13.987547291161
 20
22.05344891961314
 30
0.0
  0
VERTEX
  5
6AD
  8
LAYER_1
 10
14.08175174560604
 20
21.6089621281723
 30
0.0
  0
VERTEX
  5
6AE
  8
LAYER_1
 10
14.20604093955316
 20
21.14045306595122
 30
0.0
  0
VERTEX
  5
6AF
  8
LAYER_1
 10
14.27100315471648
 20
20.93255845254244
 30
0.0
  0
VERTEX
  5
6B0
  8
LAYER_1
 10
14.33332956380708
 20
20.76110019453181
 30
0.0
  0
VERTEX
  5
6B1
  8
LAYER_1
 10
14.43338682038163
 20
20.48113619925006
 30
0.0
  0
VERTEX
  5
6B2
  8
LAYER_1
 10
14.46382459201659
 20
20.37123355429427
 30
0.0
  0
VERTEX
  5
6B3
  8
LAYER_1
 10
14.47500355541706
 20
20.30149168348676
 30
0.0
  0
VERTEX
  5
6B4
  8
LAYER_1
 10
14.47500355541706
 20
20.19328679707752
 30
0.0
  0
VERTEX
  5
6B5
  8
LAYER_1
 10
15.7926923405474
 20
17.5875036790967
 30
0.0
  0
VERTEX
  5
6B6
  8
LAYER_1
 10
15.94874515394986
 20
17.362503670156
 30
0.0
  0
VERTEX
  5
6B7
  8
LAYER_1
 10
16.38709239003624
 20
16.68750364333391
 30
0.0
  0
VERTEX
  5
6B8
  8
LAYER_1
 10
17.0289923133245
 20
15.70439819887839
 30
0.0
  0
VERTEX
  5
6B9
  8
LAYER_1
 10
18.03428970163085
 20
14.21250354498625
 30
0.0
  0
VERTEX
  5
6BA
  8
LAYER_1
 10
18.20822051461216
 20
13.96623507823856
 30
0.0
  0
VERTEX
  5
6BB
  8
LAYER_1
 10
18.38538145233668
 20
13.73483713106491
 30
0.0
  0
VERTEX
  5
6BC
  8
LAYER_1
 10
18.56748270441581
 20
13.5171468351076
 30
0.0
  0
VERTEX
  5
6BD
  8
LAYER_1
 10
18.75623446046091
 20
13.31200132200895
 30
0.0
  0
VERTEX
  5
6BE
  8
LAYER_1
 10
18.95334691008337
 20
13.11823772341128
 30
0.0
  0
VERTEX
  5
6BF
  8
LAYER_1
 10
19.16053024289458
 20
12.93469317095689
 30
0.0
  0
VERTEX
  5
6C0
  8
LAYER_1
 10
19.3794946485059
 20
12.76020479628809
 30
0.0
  0
VERTEX
  5
6C1
  8
LAYER_1
 10
19.61195031652872
 20
12.5936097310472
 30
0.0
  0
VERTEX
  5
6C2
  8
LAYER_1
 10
19.85960743657442
 20
12.43374510687654
 30
0.0
  0
VERTEX
  5
6C3
  8
LAYER_1
 10
20.12417619825438
 20
12.27944805541841
 30
0.0
  0
VERTEX
  5
6C4
  8
LAYER_1
 10
20.40736679117998
 20
12.12955570831513
 30
0.0
  0
VERTEX
  5
6C5
  8
LAYER_1
 10
20.7108894049626
 20
11.98290519720901
 30
0.0
  0
VERTEX
  5
6C6
  8
LAYER_1
 10
21.03645422921361
 20
11.83833365374236
 30
0.0
  0
VERTEX
  5
6C7
  8
LAYER_1
 10
21.38577145354441
 20
11.69467820955749
 30
0.0
  0
VERTEX
  5
6C8
  8
LAYER_1
 10
21.76055126756637
 20
11.55077599629672
 30
0.0
  0
VERTEX
  5
6C9
  8
LAYER_1
 10
22.16250386089087
 20
11.40546414560237
 30
0.0
  0
VERTEX
  5
6CA
  8
LAYER_1
 10
23.62500391900539
 20
10.8808300962573
 30
0.0
  0
VERTEX
  5
6CB
  8
LAYER_1
 10
24.18750394135714
 20
10.67285310934075
 30
0.0
  0
VERTEX
  5
6CC
  8
LAYER_1
 10
27.33750406652689
 20
9.663202766827254
 30
0.0
  0
VERTEX
  5
6CD
  8
LAYER_1
 10
28.31250410526991
 20
9.374532018984013
 30
0.0
  0
VERTEX
  5
6CE
  8
LAYER_1
 10
29.36250414699316
 20
9.081264426047753
 30
0.0
  0
VERTEX
  5
6CF
  8
LAYER_1
 10
30.21045659133377
 20
8.853975390011586
 30
0.0
  0
VERTEX
  5
6D0
  8
LAYER_1
 10
31.10801277552419
 20
8.630968968291409
 30
0.0
  0
VERTEX
  5
6D1
  8
LAYER_1
 10
32.03512762830767
 20
8.416410891034147
 30
0.0
  0
VERTEX
  5
6D2
  8
LAYER_1
 10
32.97175607842748
 20
8.214466888386719
 30
0.0
  0
VERTEX
  5
6D3
  8
LAYER_1
 10
33.89785305462685
 20
8.029302690496051
 30
0.0
  0
VERTEX
  5
6D4
  8
LAYER_1
 10
34.79337348564907
 20
7.865084027509063
 30
0.0
  0
VERTEX
  5
6D5
  8
LAYER_1
 10
35.63827230023736
 20
7.725976629572678
 30
0.0
  0
VERTEX
  5
6D6
  8
LAYER_1
 10
36.41250442713499
 20
7.61614622683382
 30
0.0
  0
SEQEND
  5
FF9
  8
LAYER_1
  0
POLYLINE
  5
76
  8
LAYER_1
 66
     1
 10
0.0
 20
0.0
 30
0.0
 70
     1
  0
VERTEX
  5
6D7
  8
LAYER_1
 10
-55.74368457873147
 20
20.44902489962649
 30
0.0
  0
VERTEX
  5
6D8
  8
LAYER_1
 10
-55.61590938368477
 20
20.43679264841022
 30
0.0
  0
VERTEX
  5
6D9
  8
LAYER_1
 10
-55.42042557391694
 20
20.4300474726525
 30
0.0
  0
VERTEX
  5
6DA
  8
LAYER_1
 10
-54.93276526954824
 20
20.43487546129386
 30
0.0
  0
VERTEX
  5
6DB
  8
LAYER_1
 10
-54.69007391245761
 20
20.4481604253004
 30
0.0
  0
VERTEX
  5
6DC
  8
LAYER_1
 10
-54.48246778899674
 20
20.47229259521679
 30
0.0
  0
VERTEX
  5
6DD
  8
LAYER_1
 10
-54.29836436674163
 20
20.51222310856489
 30
0.0
  0
VERTEX
  5
6DE
  8
LAYER_1
 10
-54.12618111326829
 20
20.57290310286659
 30
0.0
  0
VERTEX
  5
6DF
  8
LAYER_1
 10
-53.95433549615273
 20
20.65928371564376
 30
0.0
  0
VERTEX
  5
6E0
  8
LAYER_1
 10
-53.77124498297098
 20
20.77631608441829
 30
0.0
  0
VERTEX
  5
6E1
  8
LAYER_1
 10
-53.56532704129902
 20
20.92895134671206
 30
0.0
  0
VERTEX
  5
6E2
  8
LAYER_1
 10
-53.32499913871288
 20
21.12214064004694
 30
0.0
  0
VERTEX
  5
6E3
  8
LAYER_1
 10
-52.86320684007836
 20
21.48565856102497
 30
0.0
  0
VERTEX
  5
6E4
  8
LAYER_1
 10
-52.33330552273659
 20
21.87438296246354
 30
0.0
  0
VERTEX
  5
6E5
  8
LAYER_1
 10
-51.76484452701924
 20
22.26728566004959
 30
0.0
  0
VERTEX
  5
6E6
  8
LAYER_1
 10
-51.18737319325797
 20
22.64333846947008
 30
0.0
  0
VERTEX
  5
6E7
  8
LAYER_1
 10
-50.39999902248383
 20
23.14283603715224
 30
0.0
  0
VERTEX
  5
6E8
  8
LAYER_1
 10
-50.13749901205301
 20
23.3032181426446
 30
0.0
  0
VERTEX
  5
6E9
  8
LAYER_1
 10
-49.8749990016222
 20
23.45197180703724
 30
0.0
  0
VERTEX
  5
6EA
  8
LAYER_1
 10
-49.59046774031594
 20
23.61480085745685
 30
0.0
  0
VERTEX
  5
6EB
  8
LAYER_1
 10
-49.27499897778034
 20
23.8090237846736
 30
0.0
  0
VERTEX
  5
6EC
  8
LAYER_1
 10
-48.9374989643693
 20
24.02560295748833
 30
0.0
  0
VERTEX
  5
6ED
  8
LAYER_1
 10
-45.75242215391015
 20
25.57500399649143
 30
0.0
  0
VERTEX
  5
6EE
  8
LAYER_1
 10
-45.67723722976132
 20
25.57500399649143
 30
0.0
  0
VERTEX
  5
6EF
  8
LAYER_1
 10
-44.08310957910935
 20
26.32500402629375
 30
0.0
  0
VERTEX
  5
6F0
  8
LAYER_1
 10
-44.04663885803205
 20
26.32500402629375
 30
0.0
  0
VERTEX
  5
6F1
  8
LAYER_1
 10
-43.95145809503177
 20
26.35624506946635
 30
0.0
  0
VERTEX
  5
6F2
  8
LAYER_1
 10
-43.77383344337366
 20
26.43135651368985
 30
0.0
  0
VERTEX
  5
6F3
  8
LAYER_1
 10
-43.18585670047477
 20
26.68640506074064
 30
0.0
  0
VERTEX
  5
6F4
  8
LAYER_1
 10
-42.97480108456242
 20
26.76776539224146
 30
0.0
  0
VERTEX
  5
6F5
  8
LAYER_1
 10
-42.81049340759266
 20
26.82069592483669
 30
0.0
  0
VERTEX
  5
6F6
  8
LAYER_1
 10
-42.68652824600393
 20
26.8469562803594
 30
0.0
  0
VERTEX
  5
6F7
  8
LAYER_1
 10
-42.59650017623463
 20
26.84830608064269
 30
0.0
  0
VERTEX
  5
6F8
  8
LAYER_1
 10
-42.5340037747232
 20
26.82650494751966
 30
0.0
  0
VERTEX
  5
6F9
  8
LAYER_1
 10
-42.49263361790804
 20
26.78331250282336
 30
0.0
  0
VERTEX
  5
6FA
  8
LAYER_1
 10
-42.46039771488201
 20
26.75334348764394
 30
0.0
  0
VERTEX
  5
6FB
  8
LAYER_1
 10
-42.40309611885137
 20
26.7210452525385
 30
0.0
  0
VERTEX
  5
6FC
  8
LAYER_1
 10
-42.32883116845254
 20
26.69030022704536
 30
0.0
  0
VERTEX
  5
6FD
  8
LAYER_1
 10
-42.24570520232194
 20
26.66499084070286
 30
0.0
  0
VERTEX
  5
6FE
  8
LAYER_1
 10
-42.03999442789526
 20
26.61336072291435
 30
0.0
  0
VERTEX
  5
6FF
  8
LAYER_1
 10
-41.32624653072939
 20
26.31098672573319
 30
0.0
  0
VERTEX
  5
700
  8
LAYER_1
 10
-40.08749861270189
 20
25.77565932916035
 30
0.0
  0
VERTEX
  5
701
  8
LAYER_1
 10
-39.56249859184027
 20
25.54270592976869
 30
0.0
  0
VERTEX
  5
702
  8
LAYER_1
 10
-38.36249854415655
 20
24.94767765904093
 30
0.0
  0
VERTEX
  5
703
  8
LAYER_1
 10
-37.70269615107676
 20
24.61325133652944
 30
0.0
  0
VERTEX
  5
704
  8
LAYER_1
 10
-37.04667359667823
 20
24.26687133283002
 30
0.0
  0
VERTEX
  5
705
  8
LAYER_1
 10
-36.40644774872102
 20
23.91553069824052
 30
0.0
  0
VERTEX
  5
706
  8
LAYER_1
 10
-35.79403547496522
 20
23.5662224830588
 30
0.0
  0
VERTEX
  5
707
  8
LAYER_1
 10
-35.22145364317088
 20
23.22593973758269
 30
0.0
  0
VERTEX
  5
708
  8
LAYER_1
 10
-34.70071912109807
 20
22.90167551211004
 30
0.0
  0
VERTEX
  5
709
  8
LAYER_1
 10
-34.24384877650688
 20
22.6004228569387
 30
0.0
  0
VERTEX
  5
70A
  8
LAYER_1
 10
-33.86285947715734
 20
22.32917482236651
 30
0.0
  0
VERTEX
  5
70B
  8
LAYER_1
 10
-33.33089158758884
 20
21.93750385195017
 30
0.0
  0
VERTEX
  5
70C
  8
LAYER_1
 10
-33.08261216172301
 20
21.74902479692757
 30
0.0
  0
VERTEX
  5
70D
  8
LAYER_1
 10
-32.77955826611402
 20
21.5065113325837
 30
0.0
  0
VERTEX
  5
70E
  8
LAYER_1
 10
-32.15689442486457
 20
21.00197158701562
 30
0.0
  0
VERTEX
  5
70F
  8
LAYER_1
 10
-31.94403601909942
 20
20.84423732659198
 30
0.0
  0
VERTEX
  5
710
  8
LAYER_1
 10
-31.76899369995611
 20
20.73414887531308
 30
0.0
  0
VERTEX
  5
711
  8
LAYER_1
 10
-31.61089277497123
 20
20.66017278385726
 30
0.0
  0
VERTEX
  5
712
  8
LAYER_1
 10
-31.44885855168139
 20
20.61077560290285
 30
0.0
  0
VERTEX
  5
713
  8
LAYER_1
 10
-31.02949144033322
 20
20.53958417521169
 30
0.0
  0
VERTEX
  5
714
  8
LAYER_1
 10
-30.76208953542151
 20
20.50805489947007
 30
0.0
  0
VERTEX
  5
715
  8
LAYER_1
 10
-30.51763949765132
 20
20.49423934872839
 30
0.0
  0
VERTEX
  5
716
  8
LAYER_1
 10
-30.29551115153366
 20
20.49824016172546
 30
0.0
  0
VERTEX
  5
717
  8
LAYER_1
 10
-30.09507432157956
 20
20.52015997720009
 30
0.0
  0
VERTEX
  5
718
  8
LAYER_1
 10
-29.91569883230004
 20
20.56010143389113
 30
0.0
  0
VERTEX
  5
719
  8
LAYER_1
 10
-29.75675450820612
 20
20.61816717053739
 30
0.0
  0
VERTEX
  5
71A
  8
LAYER_1
 10
-29.61761117380883
 20
20.6944598258777
 30
0.0
  0
VERTEX
  5
71B
  8
LAYER_1
 10
-29.49763865361919
 20
20.78908203865088
 30
0.0
  0
VERTEX
  5
71C
  8
LAYER_1
 10
-29.43222411496295
 20
20.86151900992385
 30
0.0
  0
VERTEX
  5
71D
  8
LAYER_1
 10
-29.37613899375123
 20
20.94572606257147
 30
0.0
  0
VERTEX
  5
71E
  8
LAYER_1
 10
-29.33029196662898
 20
21.03855148703696
 30
0.0
  0
VERTEX
  5
71F
  8
LAYER_1
 10
-29.29559171024118
 20
21.13684357376356
 30
0.0
  0
VERTEX
  5
720
  8
LAYER_1
 10
-29.27294690123279
 20
21.2374506131945
 30
0.0
  0
VERTEX
  5
721
  8
LAYER_1
 10
-29.26326621624876
 20
21.33722089577301
 30
0.0
  0
VERTEX
  5
722
  8
LAYER_1
 10
-29.26745833193405
 20
21.43300271194231
 30
0.0
  0
VERTEX
  5
723
  8
LAYER_1
 10
-29.28643192493364
 20
21.52164435214564
 30
0.0
  0
VERTEX
  5
724
  8
LAYER_1
 10
-29.334043631996
 20
21.6716555576181
 30
0.0
  0
VERTEX
  5
725
  8
LAYER_1
 10
-29.97945602679772
 20
22.23744183304511
 30
0.0
  0
VERTEX
  5
726
  8
LAYER_1
 10
-30.42014775280267
 20
22.60469286416076
 30
0.0
  0
VERTEX
  5
727
  8
LAYER_1
 10
-30.90798833544561
 20
22.97532003050895
 30
0.0
  0
VERTEX
  5
728
  8
LAYER_1
 10
-31.44185885651946
 20
23.34862309001875
 30
0.0
  0
VERTEX
  5
729
  8
LAYER_1
 10
-32.02064039781718
 20
23.72390180061923
 30
0.0
  0
VERTEX
  5
72A
  8
LAYER_1
 10
-32.64321404113169
 20
24.10045592023944
 30
0.0
  0
VERTEX
  5
72B
  8
LAYER_1
 10
-33.30846086825594
 20
24.47758520680846
 30
0.0
  0
VERTEX
  5
72C
  8
LAYER_1
 10
-34.01526196098287
 20
24.85458941825534
 30
0.0
  0
VERTEX
  5
72D
  8
LAYER_1
 10
-34.7624984011054
 20
25.23076831250917
 30
0.0
  0
VERTEX
  5
72E
  8
LAYER_1
 10
-35.73749843984842
 20
25.7080900664039
 30
0.0
  0
VERTEX
  5
72F
  8
LAYER_1
 10
-36.07499845325947
 20
25.85905360051201
 30
0.0
  0
VERTEX
  5
730
  8
LAYER_1
 10
-36.77888083570088
 20
26.16707678633227
 30
0.0
  0
VERTEX
  5
731
  8
LAYER_1
 10
-37.5579088625868
 20
26.49625822309952
 30
0.0
  0
VERTEX
  5
732
  8
LAYER_1
 10
-38.3548567149839
 20
26.82278814324282
 30
0.0
  0
VERTEX
  5
733
  8
LAYER_1
 10
-39.11249857395887
 20
27.1228567791913
 30
0.0
  0
VERTEX
  5
734
  8
LAYER_1
 10
-40.16249861568213
 20
27.53020265621286
 30
0.0
  0
VERTEX
  5
735
  8
LAYER_1
 10
-40.34999862313271
 20
27.61243673390399
 30
0.0
  0
VERTEX
  5
736
  8
LAYER_1
 10
-40.43125523826923
 20
27.65265866367441
 30
0.0
  0
VERTEX
  5
737
  8
LAYER_1
 10
-40.46991387164014
 20
27.68443076059287
 30
0.0
  0
VERTEX
  5
738
  8
LAYER_1
 10
-40.4737034321188
 20
27.6978375881538
 30
0.0
  0
VERTEX
  5
739
  8
LAYER_1
 10
-40.46736488150239
 20
27.70995931720714
 30
0.0
  0
VERTEX
  5
73A
  8
LAYER_1
 10
-40.42499862611294
 20
27.73145062606498
 30
0.0
  0
VERTEX
  5
73B
  8
LAYER_1
 10
-40.08749861270189
 20
27.8598278184667
 30
0.0
  0
VERTEX
  5
73C
  8
LAYER_1
 10
-39.8624986037612
 20
27.95142519639857
 30
0.0
  0
VERTEX
  5
73D
  8
LAYER_1
 10
-39.03749857097864
 20
28.27265680192802
 30
0.0
  0
VERTEX
  5
73E
  8
LAYER_1
 10
-38.02020472422097
 20
28.68103656095812
 30
0.0
  0
VERTEX
  5
73F
  8
LAYER_1
 10
-37.64275043752106
 20
28.84450020411546
 30
0.0
  0
VERTEX
  5
740
  8
LAYER_1
 10
-37.31972565164956
 20
28.99469765156154
 30
0.0
  0
VERTEX
  5
741
  8
LAYER_1
 10
-37.13779251312776
 20
29.07409060215761
 30
0.0
  0
VERTEX
  5
742
  8
LAYER_1
 10
-37.07720653847014
 20
29.08780107665017
 30
0.0
  0
VERTEX
  5
743
  8
LAYER_1
 10
-37.03202215973579
 20
29.08221563380886
 30
0.0
  0
VERTEX
  5
744
  8
LAYER_1
 10
-36.99860027656553
 20
29.05585533603598
 30
0.0
  0
VERTEX
  5
745
  8
LAYER_1
 10
-36.97330178860018
 20
29.00724124573388
 30
0.0
  0
VERTEX
  5
746
  8
LAYER_1
 10
-36.93251859684749
 20
28.83733593715128
 30
0.0
  0
VERTEX
  5
747
  8
LAYER_1
 10
-36.91197205156676
 20
28.75694443642453
 30
0.0
  0
VERTEX
  5
748
  8
LAYER_1
 10
-36.87929338478847
 20
28.66752637509668
 30
0.0
  0
VERTEX
  5
749
  8
LAYER_1
 10
-36.7814651956243
 20
28.46682255410385
 30
0.0
  0
VERTEX
  5
74A
  8
LAYER_1
 10
-36.64688504712521
 20
28.24564844110513
 30
0.0
  0
VERTEX
  5
74B
  8
LAYER_1
 10
-36.48340395706141
 20
28.01442800303288
 30
0.0
  0
VERTEX
  5
74C
  8
LAYER_1
 10
-36.29887294320312
 20
27.78358520681945
 30
0.0
  0
VERTEX
  5
74D
  8
LAYER_1
 10
-36.10114302332055
 20
27.56354401939716
 30
0.0
  0
VERTEX
  5
74E
  8
LAYER_1
 10
-35.89806521518393
 20
27.36472840769839
 30
0.0
  0
VERTEX
  5
74F
  8
LAYER_1
 10
-35.69749053656344
 20
27.19756233865547
 30
0.0
  0
VERTEX
  5
750
  8
LAYER_1
 10
-35.49262290626761
 20
27.05261737966696
 30
0.0
  0
VERTEX
  5
751
  8
LAYER_1
 10
-35.26664978980498
 20
26.90918967266241
 30
0.0
  0
VERTEX
  5
752
  8
LAYER_1
 10
-35.02394444570867
 20
26.7694700228593
 30
0.0
  0
VERTEX
  5
753
  8
LAYER_1
 10
-34.76888013251184
 20
26.63564923547511
 30
0.0
  0
VERTEX
  5
754
  8
LAYER_1
 10
-34.50583010874762
 20
26.50991811572728
 30
0.0
  0
VERTEX
  5
755
  8
LAYER_1
 10
-34.23916763294918
 20
26.39446746883331
 30
0.0
  0
VERTEX
  5
756
  8
LAYER_1
 10
-33.97326596364964
 20
26.29148810001064
 30
0.0
  0
VERTEX
  5
757
  8
LAYER_1
 10
-33.71249835938215
 20
26.20317081447675
 30
0.0
  0
VERTEX
  5
758
  8
LAYER_1
 10
-33.26249834150076
 20
26.06250401586294
 30
0.0
  0
VERTEX
  5
759
  8
LAYER_1
 10
-28.68749815970659
 20
26.10593097813565
 30
0.0
  0
VERTEX
  5
75A
  8
LAYER_1
 10
-28.16534403137613
 20
26.03137160248156
 30
0.0
  0
VERTEX
  5
75B
  8
LAYER_1
 10
-27.78754541938403
 20
25.98774130228432
 30
0.0
  0
VERTEX
  5
75C
  8
LAYER_1
 10
-27.66559234083433
 20
25.98149421396207
 30
0.0
  0
VERTEX
  5
75D
  8
LAYER_1
 10
-27.61245880905859
 20
25.98754332081371
 30
0.0
  0
VERTEX
  5
75E
  8
LAYER_1
 10
-27.58172771507152
 20
26.01827441479993
 30
0.0
  0
VERTEX
  5
75F
  8
LAYER_1
 10
-27.96570564282325
 20
26.50082600535741
 30
0.0
  0
VERTEX
  5
760
  8
LAYER_1
 10
-28.26882304267172
 20
26.85987297580239
 30
0.0
  0
VERTEX
  5
761
  8
LAYER_1
 10
-28.60364909853121
 20
27.21711213709334
 30
0.0
  0
VERTEX
  5
762
  8
LAYER_1
 10
-28.9623491951176
 20
27.56587013002656
 30
0.0
  0
VERTEX
  5
763
  8
LAYER_1
 10
-29.33708871714673
 20
27.89947359539837
 30
0.0
  0
VERTEX
  5
764
  8
LAYER_1
 10
-29.72003304933445
 20
28.21124917400508
 30
0.0
  0
VERTEX
  5
765
  8
LAYER_1
 10
-30.10334757639662
 20
28.49452350664301
 30
0.0
  0
VERTEX
  5
766
  8
LAYER_1
 10
-30.4791976830491
 20
28.74262323410848
 30
0.0
  0
VERTEX
  5
767
  8
LAYER_1
 10
-30.83974875400773
 20
28.94887499719779
 30
0.0
  0
VERTEX
  5
768
  8
LAYER_1
 10
-31.0828795673382
 20
29.08456160253059
 30
0.0
  0
VERTEX
  5
769
  8
LAYER_1
 10
-31.1524467677701
 20
29.13023200180253
 30
0.0
  0
VERTEX
  5
76A
  8
LAYER_1
 10
-31.17277844825641
 20
29.15222394884366
 30
0.0
  0
VERTEX
  5
76B
  8
LAYER_1
 10
-31.13390746313789
 20
29.14775297431606
 30
0.0
  0
VERTEX
  5
76C
  8
LAYER_1
 10
-31.04227928692299
 20
29.12137086436623
 30
0.0
  0
VERTEX
  5
76D
  8
LAYER_1
 10
-30.75551693483999
 20
29.02020122120278
 30
0.0
  0
VERTEX
  5
76E
  8
LAYER_1
 10
-30.59718690955654
 20
28.96572076522547
 30
0.0
  0
VERTEX
  5
76F
  8
LAYER_1
 10
-30.43127034447655
 20
28.91959338590157
 30
0.0
  0
VERTEX
  5
770
  8
LAYER_1
 10
-30.25821482238624
 20
28.881802098139
 30
0.0
  0
VERTEX
  5
771
  8
LAYER_1
 10
-30.07846792607182
 20
28.8523299168457
 30
0.0
  0
VERTEX
  5
772
  8
LAYER_1
 10
-29.89247723831953
 20
28.83115985692959
 30
0.0
  0
VERTEX
  5
773
  8
LAYER_1
 10
-29.70069034191557
 20
28.8182749332986
 30
0.0
  0
VERTEX
  5
774
  8
LAYER_1
 10
-29.50355481964618
 20
28.81365816086066
 30
0.0
  0
VERTEX
  5
775
  8
LAYER_1
 10
-29.30151825429756
 20
28.8172925545237
 30
0.0
  0
VERTEX
  5
776
  8
LAYER_1
 10
-29.09502822865593
 20
28.82916112919563
 30
0.0
  0
VERTEX
  5
777
  8
LAYER_1
 10
-28.88453232550754
 20
28.8492468997844
 30
0.0
  0
VERTEX
  5
778
  8
LAYER_1
 10
-28.67047812763858
 20
28.87753288119793
 30
0.0
  0
VERTEX
  5
779
  8
LAYER_1
 10
-28.45331321783528
 20
28.91400208834413
 30
0.0
  0
VERTEX
  5
77A
  8
LAYER_1
 10
-28.23348517888387
 20
28.95863753613095
 30
0.0
  0
VERTEX
  5
77B
  8
LAYER_1
 10
-28.01144159357055
 20
29.01142223946631
 30
0.0
  0
VERTEX
  5
77C
  8
LAYER_1
 10
-27.56249811500311
 20
29.14137147241436
 30
0.0
  0
VERTEX
  5
77D
  8
LAYER_1
 10
-27.25284556083562
 20
29.2520391283628
 30
0.0
  0
VERTEX
  5
77E
  8
LAYER_1
 10
-26.89396502941298
 20
29.39817209468786
 30
0.0
  0
VERTEX
  5
77F
  8
LAYER_1
 10
-26.49711730052686
 20
29.57428435380133
 30
0.0
  0
VERTEX
  5
780
  8
LAYER_1
 10
-26.07356315396894
 20
29.77488988811501
 30
0.0
  0
VERTEX
  5
781
  8
LAYER_1
 10
-25.63456336953093
 20
29.99450268004071
 30
0.0
  0
VERTEX
  5
782
  8
LAYER_1
 10
-25.19137872700449
 20
30.22763671199024
 30
0.0
  0
VERTEX
  5
783
  8
LAYER_1
 10
-24.75527000618133
 20
30.46880596637538
 30
0.0
  0
VERTEX
  5
784
  8
LAYER_1
 10
-24.33749798685312
 20
30.71252442560794
 30
0.0
  0
VERTEX
  5
785
  8
LAYER_1
 10
-23.51249795407057
 20
31.20804274518396
 30
0.0
  0
VERTEX
  5
786
  8
LAYER_1
 10
-23.39300418920969
 20
31.32699798516708
 30
0.0
  0
VERTEX
  5
787
  8
LAYER_1
 10
-24.12775109846222
 20
31.37643994569839
 30
0.0
  0
VERTEX
  5
788
  8
LAYER_1
 10
-24.40783598348607
 20
31.40014176331993
 30
0.0
  0
VERTEX
  5
789
  8
LAYER_1
 10
-24.72099867571803
 20
31.43628912456399
 30
0.0
  0
VERTEX
  5
78A
  8
LAYER_1
 10
-25.07470148480957
 20
31.48614997160876
 30
0.0
  0
VERTEX
  5
78B
  8
LAYER_1
 10
-25.4764067204122
 20
31.55099224663244
 30
0.0
  0
VERTEX
  5
78C
  8
LAYER_1
 10
-26.45367370975672
 20
31.73069284932925
 30
0.0
  0
VERTEX
  5
78D
  8
LAYER_1
 10
-27.71249812096357
 20
31.98553447007994
 30
0.0
  0
VERTEX
  5
78E
  8
LAYER_1
 10
-28.12294120830269
 20
32.05998519456564
 30
0.0
  0
VERTEX
  5
78F
  8
LAYER_1
 10
-28.54799227321267
 20
32.11620845974394
 30
0.0
  0
VERTEX
  5
790
  8
LAYER_1
 10
-28.98051263924147
 20
32.15403948086585
 30
0.0
  0
VERTEX
  5
791
  8
LAYER_1
 10
-29.41336362993705
 20
32.17331347318232
 30
0.0
  0
VERTEX
  5
792
  8
LAYER_1
 10
-29.83940656884736
 20
32.17386565194437
 30
0.0
  0
VERTEX
  5
793
  8
LAYER_1
 10
-30.25150277952037
 20
32.15553123240301
 30
0.0
  0
VERTEX
  5
794
  8
LAYER_1
 10
-30.64251358550403
 20
32.1181454298092
 30
0.0
  0
VERTEX
  5
795
  8
LAYER_1
 10
-31.0053003103463
 20
32.06154345941395
 30
0.0
  0
VERTEX
  5
796
  8
LAYER_1
 10
-31.59810239244068
 20
31.94810836681349
 30
0.0
  0
VERTEX
  5
797
  8
LAYER_1
 10
-31.63639084450292
 20
31.98750425130129
 30
0.0
  0
VERTEX
  5
798
  8
LAYER_1
 10
-30.05583402459122
 20
33.11250429600477
 30
0.0
  0
VERTEX
  5
799
  8
LAYER_1
 10
-29.99006113629147
 20
33.13762262381296
 30
0.0
  0
VERTEX
  5
79A
  8
LAYER_1
 10
-29.94692201642157
 20
33.13256555273941
 30
0.0
  0
VERTEX
  5
79B
  8
LAYER_1
 10
-29.87808548482213
 20
33.10022801120272
 30
0.0
  0
VERTEX
  5
79C
  8
LAYER_1
 10
-29.7930288342376
 20
33.04594443739148
 30
0.0
  0
VERTEX
  5
79D
  8
LAYER_1
 10
-29.70122935741247
 20
32.97504926949426
 30
0.0
  0
VERTEX
  5
79E
  8
LAYER_1
 10
-29.55076972120678
 20
32.86307018208495
 30
0.0
  0
VERTEX
  5
79F
  8
LAYER_1
 10
-29.36700246768468
 20
32.75016490267748
 30
0.0
  0
VERTEX
  5
7A0
  8
LAYER_1
 10
-29.1577881959353
 20
32.63972512074338
 30
0.0
  0
VERTEX
  5
7A1
  8
LAYER_1
 10
-28.93098750504776
 20
32.53514252575415
 30
0.0
  0
VERTEX
  5
7A2
  8
LAYER_1
 10
-28.69446099411121
 20
32.43980880718128
 30
0.0
  0
VERTEX
  5
7A3
  8
LAYER_1
 10
-28.45606926221476
 20
32.3571156544963
 30
0.0
  0
VERTEX
  5
7A4
  8
LAYER_1
 10
-28.22367290844755
 20
32.29045475717069
 30
0.0
  0
VERTEX
  5
7A5
  8
LAYER_1
 10
-28.00513253189871
 20
32.24321780467596
 30
0.0
  0
VERTEX
  5
7A6
  8
LAYER_1
 10
-27.76524015713194
 20
32.21171014508889
 30
0.0
  0
VERTEX
  5
7A7
  8
LAYER_1
 10
-27.49664993328492
 20
32.19443780709562
 30
0.0
  0
VERTEX
  5
7A8
  8
LAYER_1
 10
-27.20793407971407
 20
32.19093945539713
 30
0.0
  0
VERTEX
  5
7A9
  8
LAYER_1
 10
-26.90766481577583
 20
32.20075375469438
 30
0.0
  0
VERTEX
  5
7AA
  8
LAYER_1
 10
-26.60441436082663
 20
32.22341936968834
 30
0.0
  0
VERTEX
  5
7AB
  8
LAYER_1
 10
-26.30675493422289
 20
32.25847496507998
 30
0.0
  0
VERTEX
  5
7AC
  8
LAYER_1
 10
-26.02325875532105
 20
32.30545920557028
 30
0.0
  0
VERTEX
  5
7AD
  8
LAYER_1
 10
-25.76249804347754
 20
32.36391075586022
 30
0.0
  0
VERTEX
  5
7AE
  8
LAYER_1
 10
-25.53432819549795
 20
32.42984410833105
 30
0.0
  0
VERTEX
  5
7AF
  8
LAYER_1
 10
-25.30362825951542
 20
32.5098223306738
 30
0.0
  0
VERTEX
  5
7B0
  8
LAYER_1
 10
-25.07010718502857
 20
32.60398674593753
 30
0.0
  0
VERTEX
  5
7B1
  8
LAYER_1
 10
-24.83347392153603
 20
32.71247867717135
 30
0.0
  0
VERTEX
  5
7B2
  8
LAYER_1
 10
-24.59343741853644
 20
32.83543944742436
 30
0.0
  0
VERTEX
  5
7B3
  8
LAYER_1
 10
-24.34970662552842
 20
32.97301037974565
 30
0.0
  0
VERTEX
  5
7B4
  8
LAYER_1
 10
-24.1019904920106
 20
33.1253327971843
 30
0.0
  0
VERTEX
  5
7B5
  8
LAYER_1
 10
-23.84999796748161
 20
33.29254802278942
 30
0.0
  0
VERTEX
  5
7B6
  8
LAYER_1
 10
-22.34999790787697
 20
34.30408462911141
 30
0.0
  0
VERTEX
  5
7B7
  8
LAYER_1
 10
-21.41249787062407
 20
34.92906361631992
 30
0.0
  0
VERTEX
  5
7B8
  8
LAYER_1
 10
-21.0374978557229
 20
35.12503801050627
 30
0.0
  0
VERTEX
  5
7B9
  8
LAYER_1
 10
-20.71206815529149
 20
35.28551720710404
 30
0.0
  0
VERTEX
  5
7BA
  8
LAYER_1
 10
-20.4562478326261
 20
35.39615208368382
 30
0.0
  0
VERTEX
  5
7BB
  8
LAYER_1
 10
-20.37616482163139
 20
35.43070163510294
 30
0.0
  0
VERTEX
  5
7BC
  8
LAYER_1
 10
-20.31058376433793
 20
35.46922649012848
 30
0.0
  0
VERTEX
  5
7BD
  8
LAYER_1
 10
-20.26627223913965
 20
35.50702630266429
 30
0.0
  0
VERTEX
  5
7BE
  8
LAYER_1
 10
-20.24999782443047
 20
35.5394007266142
 30
0.0
  0
VERTEX
  5
7BF
  8
LAYER_1
 10
-20.2554030972653
 20
35.56618499480696
 30
0.0
  0
VERTEX
  5
7C0
  8
LAYER_1
 10
-20.27656590304066
 20
35.59146964869294
 30
0.0
  0
VERTEX
  5
7C1
  8
LAYER_1
 10
-20.32090672266276
 20
35.61789361685204
 30
0.0
  0
VERTEX
  5
7C2
  8
LAYER_1
 10
-20.39584603703787
 20
35.64809582786422
 30
0.0
  0
VERTEX
  5
7C3
  8
LAYER_1
 10
-20.66720207367208
 20
35.73039069276744
 30
0.0
  0
VERTEX
  5
7C4
  8
LAYER_1
 10
-21.14999786019325
 20
35.85946567204198
 30
0.0
  0
VERTEX
  5
7C5
  8
LAYER_1
 10
-22.01249789446592
 20
36.09294516077394
 30
0.0
  0
VERTEX
  5
7C6
  8
LAYER_1
 10
-22.31249790638685
 20
36.17893254541812
 30
0.0
  0
VERTEX
  5
7C7
  8
LAYER_1
 10
-25.08749801665545
 20
36.18750441819429
 30
0.0
  0
VERTEX
  5
7C8
  8
LAYER_1
 10
-25.68613674386801
 20
36.01421346813355
 30
0.0
  0
VERTEX
  5
7C9
  8
LAYER_1
 10
-25.9673298635666
 20
35.92408144982216
 30
0.0
  0
VERTEX
  5
7CA
  8
LAYER_1
 10
-26.29042138779039
 20
35.80677482133977
 30
0.0
  0
VERTEX
  5
7CB
  8
LAYER_1
 10
-26.61549498915699
 20
35.67748017166387
 30
0.0
  0
VERTEX
  5
7CC
  8
LAYER_1
 10
-26.902634340284
 20
35.55138408977194
 30
0.0
  0
VERTEX
  5
7CD
  8
LAYER_1
 10
-27.52049320948743
 20
35.2618456614711
 30
0.0
  0
VERTEX
  5
7CE
  8
LAYER_1
 10
-25.912498049438
 20
37.04797696186176
 30
0.0
  0
VERTEX
  5
7CF
  8
LAYER_1
 10
-25.824105188783
 20
37.04899070716438
 30
0.0
  0
VERTEX
  5
7D0
  8
LAYER_1
 10
-25.7805799319824
 20
37.04018035908328
 30
0.0
  0
VERTEX
  5
7D1
  8
LAYER_1
 10
-25.72741346008626
 20
37.01544239392534
 30
0.0
  0
VERTEX
  5
7D2
  8
LAYER_1
 10
-25.67133355579248
 20
36.97857094013044
 30
0.0
  0
VERTEX
  5
7D3
  8
LAYER_1
 10
-25.61906800179899
 20
36.9333601261385
 30
0.0
  0
VERTEX
  5
7D4
  8
LAYER_1
 10
-25.53236685778072
 20
36.87360141174
 30
0.0
  0
VERTEX
  5
7D5
  8
LAYER_1
 10
-25.38252668361753
 20
36.79711933802623
 30
0.0
  0
VERTEX
  5
7D6
  8
LAYER_1
 10
-25.19059501231464
 20
36.71375765538838
 30
0.0
  0
VERTEX
  5
7D7
  8
LAYER_1
 10
-24.97761937687731
 20
36.63336011421757
 30
0.0
  0
VERTEX
  5
7D8
  8
LAYER_1
 10
-24.72500066945376
 20
36.55694603607927
 30
0.0
  0
VERTEX
  5
7D9
  8
LAYER_1
 10
-24.46168086970368
 20
36.49989615236903
 30
0.0
  0
VERTEX
  5
7DA
  8
LAYER_1
 10
-24.18924688532808
 20
36.46188239336969
 30
0.0
  0
VERTEX
  5
7DB
  8
LAYER_1
 10
-23.90928562402793
 20
36.44257668936405
 30
0.0
  0
VERTEX
  5
7DC
  8
LAYER_1
 10
-23.62338399350426
 20
36.44165097063491
 30
0.0
  0
VERTEX
  5
7DD
  8
LAYER_1
 10
-23.33312890145803
 20
36.4587771674651
 30
0.0
  0
VERTEX
  5
7DE
  8
LAYER_1
 10
-23.04010725559027
 20
36.49362721013743
 30
0.0
  0
VERTEX
  5
7DF
  8
LAYER_1
 10
-22.74590596360196
 20
36.54587302893472
 30
0.0
  0
VERTEX
  5
7E0
  8
LAYER_1
 10
-22.4521119331941
 20
36.61518655413978
 30
0.0
  0
VERTEX
  5
7E1
  8
LAYER_1
 10
-22.1603120720677
 20
36.70123971603542
 30
0.0
  0
VERTEX
  5
7E2
  8
LAYER_1
 10
-21.87209328792374
 20
36.80370444490444
 30
0.0
  0
VERTEX
  5
7E3
  8
LAYER_1
 10
-21.58904248846323
 20
36.92225267102968
 30
0.0
  0
VERTEX
  5
7E4
  8
LAYER_1
 10
-21.31274658138716
 20
37.05655632469394
 30
0.0
  0
VERTEX
  5
7E5
  8
LAYER_1
 10
-21.04479247439653
 20
37.20628733618003
 30
0.0
  0
VERTEX
  5
7E6
  8
LAYER_1
 10
-20.78676707519234
 20
37.37111763577077
 30
0.0
  0
VERTEX
  5
7E7
  8
LAYER_1
 10
-20.54025729147558
 20
37.55071915374897
 30
0.0
  0
VERTEX
  5
7E8
  8
LAYER_1
 10
-20.26801673616895
 20
37.76250448077917
 30
0.0
  0
VERTEX
  5
7E9
  8
LAYER_1
 10
-18.48749775439501
 20
39.19679918756918
 30
0.0
  0
VERTEX
  5
7EA
  8
LAYER_1
 10
-18.05784470696859
 20
39.47635094196339
 30
0.0
  0
VERTEX
  5
7EB
  8
LAYER_1
 10
-17.6823315670262
 20
39.70431822664677
 30
0.0
  0
VERTEX
  5
7EC
  8
LAYER_1
 10
-17.51201062276347
 20
39.79742945117773
 30
0.0
  0
VERTEX
  5
7ED
  8
LAYER_1
 10
-17.3828446801465
 20
39.85984774535325
 30
0.0
  0
VERTEX
  5
7EE
  8
LAYER_1
 10
-17.29545016216146
 20
39.89767416073554
 30
0.0
  0
VERTEX
  5
7EF
  8
LAYER_1
 10
-17.2377027915818
 20
39.92816891087243
 30
0.0
  0
VERTEX
  5
7F0
  8
LAYER_1
 10
-17.21426665880869
 20
39.95479807223207
 30
0.0
  0
VERTEX
  5
7F1
  8
LAYER_1
 10
-17.21687283484996
 20
39.96774620601673
 30
0.0
  0
VERTEX
  5
7F2
  8
LAYER_1
 10
-17.22980585424332
 20
39.98102772128263
 30
0.0
  0
VERTEX
  5
7F3
  8
LAYER_1
 10
-17.28898446828686
 20
40.01032393449228
 30
0.0
  0
VERTEX
  5
7F4
  8
LAYER_1
 10
-17.3964665913405
 20
40.04615278832918
 30
0.0
  0
VERTEX
  5
7F5
  8
LAYER_1
 10
-17.7749977260828
 20
40.15127272375743
 30
0.0
  0
VERTEX
  5
7F6
  8
LAYER_1
 10
-18.02999747364874
 20
40.21483824964859
 30
0.0
  0
VERTEX
  5
7F7
  8
LAYER_1
 10
-18.29413128327002
 20
40.27016291739579
 30
0.0
  0
VERTEX
  5
7F8
  8
LAYER_1
 10
-18.56680169324393
 20
40.31717443563691
 30
0.0
  0
VERTEX
  5
7F9
  8
LAYER_1
 10
-18.84741124186778
 20
40.35580051300985
 30
0.0
  0
VERTEX
  5
7FA
  8
LAYER_1
 10
-19.13536246743887
 20
40.38596885815249
 30
0.0
  0
VERTEX
  5
7FB
  8
LAYER_1
 10
-19.43005790825452
 20
40.40760717970271
 30
0.0
  0
VERTEX
  5
7FC
  8
LAYER_1
 10
-19.73090010261201
 20
40.42064318629838
 30
0.0
  0
VERTEX
  5
7FD
  8
LAYER_1
 10
-20.03729158880866
 20
40.42500458657742
 30
0.0
  0
VERTEX
  5
7FE
  8
LAYER_1
 10
-20.80835247144811
 20
40.42500458657742
 30
0.0
  0
VERTEX
  5
7FF
  8
LAYER_1
 10
-20.22268974543558
 20
40.72451553792099
 30
0.0
  0
VERTEX
  5
800
  8
LAYER_1
 10
-19.77846225813019
 20
40.96177341764705
 30
0.0
  0
VERTEX
  5
801
  8
LAYER_1
 10
-19.59925065828969
 20
41.06748906614713
 30
0.0
  0
VERTEX
  5
802
  8
LAYER_1
 10
-19.44093371893176
 20
41.16984278468877
 30
0.0
  0
VERTEX
  5
803
  8
LAYER_1
 10
-19.29773136351223
 20
41.27276977148465
 30
0.0
  0
VERTEX
  5
804
  8
LAYER_1
 10
-19.16386351548694
 20
41.38020522474744
 30
0.0
  0
VERTEX
  5
805
  8
LAYER_1
 10
-18.90101103544239
 20
41.62434232352439
 30
0.0
  0
VERTEX
  5
806
  8
LAYER_1
 10
-18.64940582329191
 20
41.89706903183978
 30
0.0
  0
VERTEX
  5
807
  8
LAYER_1
 10
-18.347049778992
 20
42.2530153952216
 30
0.0
  0
VERTEX
  5
808
  8
LAYER_1
 10
-18.05892103632245
 20
42.61335938258159
 30
0.0
  0
VERTEX
  5
809
  8
LAYER_1
 10
-17.84999772906303
 20
42.89927896283143
 30
0.0
  0
VERTEX
  5
80A
  8
LAYER_1
 10
-17.42102447830283
 20
43.48977841046027
 30
0.0
  0
VERTEX
  5
80B
  8
LAYER_1
 10
-17.17164016057308
 20
43.81725004795025
 30
0.0
  0
VERTEX
  5
80C
  8
LAYER_1
 10
-17.00832395920826
 20
44.02055008033214
 30
0.0
  0
VERTEX
  5
80D
  8
LAYER_1
 10
-16.74162471268647
 20
44.35805009374319
 30
0.0
  0
VERTEX
  5
80E
  8
LAYER_1
 10
-16.63302186419407
 20
44.49004831040422
 30
0.0
  0
VERTEX
  5
80F
  8
LAYER_1
 10
-16.46363592823773
 20
44.67982901497012
 30
0.0
  0
VERTEX
  5
810
  8
LAYER_1
 10
-16.03522920439635
 20
45.13125477358699
 30
0.0
  0
VERTEX
  5
811
  8
LAYER_1
 10
-15.49970667522992
 20
45.67500479519367
 30
0.0
  0
VERTEX
  5
812
  8
LAYER_1
 10
-16.17763764089331
 20
45.67500479519367
 30
0.0
  0
VERTEX
  5
813
  8
LAYER_1
 10
-16.53703668338061
 20
45.66365775344403
 30
0.0
  0
VERTEX
  5
814
  8
LAYER_1
 10
-16.9296807407778
 20
45.63122256964262
 30
0.0
  0
VERTEX
  5
815
  8
LAYER_1
 10
-17.34211143015598
 20
45.58010815596064
 30
0.0
  0
VERTEX
  5
816
  8
LAYER_1
 10
-17.76087036858629
 20
45.51272342456933
 30
0.0
  0
VERTEX
  5
817
  8
LAYER_1
 10
-18.17249917313984
 20
45.43147728763992
 30
0.0
  0
VERTEX
  5
818
  8
LAYER_1
 10
-18.56353946088774
 20
45.33877865734363
 30
0.0
  0
VERTEX
  5
819
  8
LAYER_1
 10
-18.92053284890112
 20
45.2370364458517
 30
0.0
  0
VERTEX
  5
81A
  8
LAYER_1
 10
-19.23002095425109
 20
45.12865956533537
 30
0.0
  0
VERTEX
  5
81B
  8
LAYER_1
 10
-19.83749780803919
 20
44.88914303857264
 30
0.0
  0
VERTEX
  5
81C
  8
LAYER_1
 10
-19.91249781101942
 20
44.88832390123694
 30
0.0
  0
VERTEX
  5
81D
  8
LAYER_1
 10
-19.92207361264608
 20
44.89157375930403
 30
0.0
  0
VERTEX
  5
81E
  8
LAYER_1
 10
-19.92039395622262
 20
44.90120603517194
 30
0.0
  0
VERTEX
  5
81F
  8
LAYER_1
 10
-19.8864509087807
 20
44.9368866854041
 30
0.0
  0
VERTEX
  5
820
  8
LAYER_1
 10
-19.71850835240475
 20
45.05479429551146
 30
0.0
  0
VERTEX
  5
821
  8
LAYER_1
 10
-19.55616332708684
 20
45.17003852688373
 30
0.0
  0
VERTEX
  5
822
  8
LAYER_1
 10
-19.37586298579228
 20
45.32343135090339
 30
0.0
  0
VERTEX
  5
823
  8
LAYER_1
 10
-19.1825035700195
 20
45.5095639238384
 30
0.0
  0
VERTEX
  5
824
  8
LAYER_1
 10
-18.98098132126691
 20
45.72302740195671
 30
0.0
  0
VERTEX
  5
825
  8
LAYER_1
 10
-18.77619248103292
 20
45.95841294152626
 30
0.0
  0
VERTEX
  5
826
  8
LAYER_1
 10
-18.57303329081597
 20
46.210311698815
 30
0.0
  0
VERTEX
  5
827
  8
LAYER_1
 10
-18.37639999211446
 20
46.4733148300909
 30
0.0
  0
VERTEX
  5
828
  8
LAYER_1
 10
-18.19118882642681
 20
46.7420134916219
 30
0.0
  0
VERTEX
  5
829
  8
LAYER_1
 10
-18.00688167393245
 20
47.0215221567577
 30
0.0
  0
VERTEX
  5
82A
  8
LAYER_1
 10
-17.13749770075083
 20
48.79056181276651
 30
0.0
  0
VERTEX
  5
82B
  8
LAYER_1
 10
-16.93900524837751
 20
49.27143499274936
 30
0.0
  0
VERTEX
  5
82C
  8
LAYER_1
 10
-16.27499766647816
 20
51.17682627986142
 30
0.0
  0
VERTEX
  5
82D
  8
LAYER_1
 10
-16.27499766647816
 20
51.28096972626896
 30
0.0
  0
VERTEX
  5
82E
  8
LAYER_1
 10
-16.28492401032335
 20
51.32487188407787
 30
0.0
  0
VERTEX
  5
82F
  8
LAYER_1
 10
-16.31553041729082
 20
51.34862645514413
 30
0.0
  0
VERTEX
  5
830
  8
LAYER_1
 10
-16.36805795052832
 20
51.35264809602008
 30
0.0
  0
VERTEX
  5
831
  8
LAYER_1
 10
-16.44374767318368
 20
51.33735146325803
 30
0.0
  0
VERTEX
  5
832
  8
LAYER_1
 10
-16.6124976798892
 20
51.28958975383949
 30
0.0
  0
VERTEX
  5
833
  8
LAYER_1
 10
-17.44553945472783
 20
50.88174744649373
 30
0.0
  0
VERTEX
  5
834
  8
LAYER_1
 10
-17.71253017045801
 20
50.74575081499329
 30
0.0
  0
VERTEX
  5
835
  8
LAYER_1
 10
-17.97421341597515
 20
50.60184928704103
 30
0.0
  0
VERTEX
  5
836
  8
LAYER_1
 10
-18.23033704504597
 20
50.45025960242938
 30
0.0
  0
VERTEX
  5
837
  8
LAYER_1
 10
-18.48064891143716
 20
50.29119850095074
 30
0.0
  0
VERTEX
  5
838
  8
LAYER_1
 10
-18.72489686891545
 20
50.12488272239749
 30
0.0
  0
VERTEX
  5
839
  8
LAYER_1
 10
-18.96282877124754
 20
49.95152900656205
 30
0.0
  0
VERTEX
  5
83A
  8
LAYER_1
 10
-19.19419247220014
 20
49.77135409323684
 30
0.0
  0
VERTEX
  5
83B
  8
LAYER_1
 10
-19.41873582553995
 20
49.58457472221422
 30
0.0
  0
VERTEX
  5
83C
  8
LAYER_1
 10
-19.6362066850337
 20
49.39140763328663
 30
0.0
  0
VERTEX
  5
83D
  8
LAYER_1
 10
-19.84635290444809
 20
49.19206956624645
 30
0.0
  0
VERTEX
  5
83E
  8
LAYER_1
 10
-20.04892233754983
 20
48.98677726088608
 30
0.0
  0
VERTEX
  5
83F
  8
LAYER_1
 10
-20.24366283810562
 20
48.77574745699793
 30
0.0
  0
VERTEX
  5
840
  8
LAYER_1
 10
-20.43032225988217
 20
48.55919689437442
 30
0.0
  0
VERTEX
  5
841
  8
LAYER_1
 10
-20.60864845664621
 20
48.33734231280792
 30
0.0
  0
VERTEX
  5
842
  8
LAYER_1
 10
-20.77838928216444
 20
48.11040045209086
 30
0.0
  0
VERTEX
  5
843
  8
LAYER_1
 10
-20.93929259020356
 20
47.87858805201563
 30
0.0
  0
VERTEX
  5
844
  8
LAYER_1
 10
-21.36894207121971
 20
47.23528225268024
 30
0.0
  0
VERTEX
  5
845
  8
LAYER_1
 10
-21.56249787658453
 20
46.79869139885255
 30
0.0
  0
VERTEX
  5
846
  8
LAYER_1
 10
-21.56249787658453
 20
48.66079155819027
 30
0.0
  0
VERTEX
  5
847
  8
LAYER_1
 10
-21.12769320770607
 20
48.78170135032943
 30
0.0
  0
VERTEX
  5
848
  8
LAYER_1
 10
-20.9410547834407
 20
48.83976783108101
 30
0.0
  0
VERTEX
  5
849
  8
LAYER_1
 10
-20.7610053228359
 20
48.90827002747821
 30
0.0
  0
VERTEX
  5
84A
  8
LAYER_1
 10
-20.58768060685641
 20
48.98707303609693
 30
0.0
  0
VERTEX
  5
84B
  8
LAYER_1
 10
-20.421216416467
 20
49.07604195351304
 30
0.0
  0
VERTEX
  5
84C
  8
LAYER_1
 10
-20.26174853263241
 20
49.17504187630241
 30
0.0
  0
VERTEX
  5
84D
  8
LAYER_1
 10
-20.10941273631739
 20
49.2839379010409
 30
0.0
  0
VERTEX
  5
84E
  8
LAYER_1
 10
-19.96434480848668
 20
49.4025951243044
 30
0.0
  0
VERTEX
  5
84F
  8
LAYER_1
 10
-19.82668053010504
 20
49.53087864266877
 30
0.0
  0
VERTEX
  5
850
  8
LAYER_1
 10
-19.69655568213723
 20
49.66865355270988
 30
0.0
  0
VERTEX
  5
851
  8
LAYER_1
 10
-19.57410604554798
 20
49.81578495100361
 30
0.0
  0
VERTEX
  5
852
  8
LAYER_1
 10
-19.45946740130205
 20
49.97213793412583
 30
0.0
  0
VERTEX
  5
853
  8
LAYER_1
 10
-19.35277553036418
 20
50.13757759865241
 30
0.0
  0
VERTEX
  5
854
  8
LAYER_1
 10
-19.25416621369914
 20
50.31196904115924
 30
0.0
  0
VERTEX
  5
855
  8
LAYER_1
 10
-19.16377523227166
 20
50.49517735822216
 30
0.0
  0
VERTEX
  5
856
  8
LAYER_1
 10
-19.0817383670465
 20
50.68706764641706
 30
0.0
  0
VERTEX
  5
857
  8
LAYER_1
 10
-19.00819139898842
 20
50.88750500231981
 30
0.0
  0
VERTEX
  5
858
  8
LAYER_1
 10
-18.80515780772244
 20
51.48750502616167
 30
0.0
  0
VERTEX
  5
859
  8
LAYER_1
 10
-18.93263889495893
 20
55.16250517219305
 30
0.0
  0
VERTEX
  5
85A
  8
LAYER_1
 10
-18.9374977722764
 20
57.3750052601099
 30
0.0
  0
VERTEX
  5
85B
  8
LAYER_1
 10
-18.9600714831647
 20
57.3750052601099
 30
0.0
  0
VERTEX
  5
85C
  8
LAYER_1
 10
-19.00195555593274
 20
57.34774829817941
 30
0.0
  0
VERTEX
  5
85D
  8
LAYER_1
 10
-19.0813528166666
 20
57.27150817594909
 30
0.0
  0
VERTEX
  5
85E
  8
LAYER_1
 10
-19.32376405031494
 20
57.00526303195577
 30
0.0
  0
VERTEX
  5
85F
  8
LAYER_1
 10
-19.62945948067599
 20
56.64263899086365
 30
0.0
  0
VERTEX
  5
860
  8
LAYER_1
 10
-19.94059340431602
 20
56.25000521540642
 30
0.0
  0
VERTEX
  5
861
  8
LAYER_1
 10
-20.12898207011242
 20
55.99646395982532
 30
0.0
  0
VERTEX
  5
862
  8
LAYER_1
 10
-20.30701325087976
 20
55.74232261843437
 30
0.0
  0
VERTEX
  5
863
  8
LAYER_1
 10
-20.47494270153243
 20
55.48698506660709
 30
0.0
  0
VERTEX
  5
864
  8
LAYER_1
 10
-20.63302617698482
 20
55.22985517971695
 30
0.0
  0
VERTEX
  5
865
  8
LAYER_1
 10
-20.78151943215132
 20
54.97033683313745
 30
0.0
  0
VERTEX
  5
866
  8
LAYER_1
 10
-20.92067822194632
 20
54.70783390224207
 30
0.0
  0
VERTEX
  5
867
  8
LAYER_1
 10
-21.05075830128422
 20
54.44175026240431
 30
0.0
  0
VERTEX
  5
868
  8
LAYER_1
 10
-21.1720154250794
 20
54.17148978899765
 30
0.0
  0
VERTEX
  5
869
  8
LAYER_1
 10
-21.28470534824626
 20
53.89645635739557
 30
0.0
  0
VERTEX
  5
86A
  8
LAYER_1
 10
-21.38908382569918
 20
53.61605384297157
 30
0.0
  0
VERTEX
  5
86B
  8
LAYER_1
 10
-21.48540661235257
 20
53.32968612109914
 30
0.0
  0
VERTEX
  5
86C
  8
LAYER_1
 10
-21.57392946312081
 20
53.03675706715177
 30
0.0
  0
VERTEX
  5
86D
  8
LAYER_1
 10
-21.65490813291828
 20
52.73667055650294
 30
0.0
  0
VERTEX
  5
86E
  8
LAYER_1
 10
-21.7285983766594
 20
52.42883046452614
 30
0.0
  0
VERTEX
  5
86F
  8
LAYER_1
 10
-21.79525594925853
 20
52.11264066659486
 30
0.0
  0
VERTEX
  5
870
  8
LAYER_1
 10
-21.85513660563009
 20
51.7875050380826
 30
0.0
  0
VERTEX
  5
871
  8
LAYER_1
 10
-21.9451987925422
 20
51.26250501722097
 30
0.0
  0
VERTEX
  5
872
  8
LAYER_1
 10
-22.11325023741452
 20
51.90000504255295
 30
0.0
  0
VERTEX
  5
873
  8
LAYER_1
 10
-22.24964305377613
 20
52.39403333217508
 30
0.0
  0
VERTEX
  5
874
  8
LAYER_1
 10
-22.3415790726546
 20
52.68659067377916
 30
0.0
  0
VERTEX
  5
875
  8
LAYER_1
 10
-22.35397366840576
 20
52.7316099935849
 30
0.0
  0
VERTEX
  5
876
  8
LAYER_1
 10
-22.35351516805497
 20
52.77832898646117
 30
0.0
  0
VERTEX
  5
877
  8
LAYER_1
 10
-22.33843402394691
 20
52.82951497926844
 30
0.0
  0
VERTEX
  5
878
  8
LAYER_1
 10
-22.30696068842629
 20
52.88793529886715
 30
0.0
  0
VERTEX
  5
879
  8
LAYER_1
 10
-22.25732561383783
 20
52.95635727211777
 30
0.0
  0
VERTEX
  5
87A
  8
LAYER_1
 10
-22.18775925252622
 20
53.03754822588075
 30
0.0
  0
VERTEX
  5
87B
  8
LAYER_1
 10
-21.98175447911239
 20
53.24930638238561
 30
0.0
  0
VERTEX
  5
87C
  8
LAYER_1
 10
-21.87165830458389
 20
53.36421308638748
 30
0.0
  0
VERTEX
  5
87D
  8
LAYER_1
 10
-21.76611275946954
 20
53.4874377034842
 30
0.0
  0
VERTEX
  5
87E
  8
LAYER_1
 10
-21.66518005681884
 20
53.61859678739275
 30
0.0
  0
VERTEX
  5
87F
  8
LAYER_1
 10
-21.56892240968126
 20
53.75730689183005
 30
0.0
  0
VERTEX
  5
880
  8
LAYER_1
 10
-21.47740203110632
 20
53.90318457051305
 30
0.0
  0
VERTEX
  5
881
  8
LAYER_1
 10
-21.39068113414348
 20
54.05584637715869
 30
0.0
  0
VERTEX
  5
882
  8
LAYER_1
 10
-21.23188663725215
 20
54.37998858920564
 30
0.0
  0
VERTEX
  5
883
  8
LAYER_1
 10
-21.09303662340319
 20
54.72666595770646
 30
0.0
  0
VERTEX
  5
884
  8
LAYER_1
 10
-20.97462879699253
 20
55.0928109123967
 30
0.0
  0
VERTEX
  5
885
  8
LAYER_1
 10
-20.87716086241613
 20
55.47535588301189
 30
0.0
  0
VERTEX
  5
886
  8
LAYER_1
 10
-20.80113052406991
 20
55.87123329928757
 30
0.0
  0
VERTEX
  5
887
  8
LAYER_1
 10
-20.74703548634981
 20
56.27737559095928
 30
0.0
  0
VERTEX
  5
888
  8
LAYER_1
 10
-20.71537345365176
 20
56.69071518776257
 30
0.0
  0
VERTEX
  5
889
  8
LAYER_1
 10
-20.7066421303717
 20
57.10818451943297
 30
0.0
  0
VERTEX
  5
88A
  8
LAYER_1
 10
-20.72133922090557
 20
57.52671601570602
 30
0.0
  0
VERTEX
  5
88B
  8
LAYER_1
 10
-20.7599624296493
 20
57.94324210631727
 30
0.0
  0
VERTEX
  5
88C
  8
LAYER_1
 10
-20.82300946099883
 20
58.35469522100226
 30
0.0
  0
VERTEX
  5
88D
  8
LAYER_1
 10
-20.91097801935009
 20
58.75800778949652
 30
0.0
  0
VERTEX
  5
88E
  8
LAYER_1
 10
-21.02436580909902
 20
59.1501122415356
 30
0.0
  0
VERTEX
  5
88F
  8
LAYER_1
 10
-21.14743309657256
 20
59.48031233415161
 30
0.0
  0
VERTEX
  5
890
  8
LAYER_1
 10
-21.29586573165375
 20
59.80212732121157
 30
0.0
  0
VERTEX
  5
891
  8
LAYER_1
 10
-21.4648718676228
 20
60.10875208149142
 30
0.0
  0
VERTEX
  5
892
  8
LAYER_1
 10
-21.64965965775992
 20
60.39338149376707
 30
0.0
  0
VERTEX
  5
893
  8
LAYER_1
 10
-21.84543725534532
 20
60.64921043681447
 30
0.0
  0
VERTEX
  5
894
  8
LAYER_1
 10
-22.04741281365921
 20
60.86943378940954
 30
0.0
  0
VERTEX
  5
895
  8
LAYER_1
 10
-22.14922737598942
 20
60.96406676890493
 30
0.0
  0
VERTEX
  5
896
  8
LAYER_1
 10
-22.25079448598182
 20
61.04724643032822
 30
0.0
  0
VERTEX
  5
897
  8
LAYER_1
 10
-22.35151516279645
 20
61.11812213352638
 30
0.0
  0
VERTEX
  5
898
  8
LAYER_1
 10
-22.45079042559334
 20
61.17584323834643
 30
0.0
  0
VERTEX
  5
899
  8
LAYER_1
 10
-22.57196815561855
 20
61.23588873948627
 30
0.0
  0
VERTEX
  5
89A
  8
LAYER_1
 10
-22.63148678496102
 20
61.25308798326793
 30
0.0
  0
VERTEX
  5
89B
  8
LAYER_1
 10
-22.64216352113482
 20
61.24502551181422
 30
0.0
  0
VERTEX
  5
89C
  8
LAYER_1
 10
-22.64227298324825
 20
61.22553777981868
 30
0.0
  0
VERTEX
  5
89D
  8
LAYER_1
 10
-22.61725342010775
 20
61.15133493926575
 30
0.0
  0
VERTEX
  5
89E
  8
LAYER_1
 10
-22.57892967037859
 20
61.03577163164119
 30
0.0
  0
VERTEX
  5
89F
  8
LAYER_1
 10
-22.55028851850003
 20
60.90842773084879
 30
0.0
  0
VERTEX
  5
8A0
  8
LAYER_1
 10
-22.53135165687429
 20
60.76917425682447
 30
0.0
  0
VERTEX
  5
8A1
  8
LAYER_1
 10
-22.52214077790357
 20
60.61788222950418
 30
0.0
  0
VERTEX
  5
8A2
  8
LAYER_1
 10
-22.52267757399007
 20
60.45442266882383
 30
0.0
  0
VERTEX
  5
8A3
  8
LAYER_1
 10
-22.532983737536
 20
60.27866659471936
 30
0.0
  0
VERTEX
  5
8A4
  8
LAYER_1
 10
-22.55308096094355
 20
60.0904850271267
 30
0.0
  0
VERTEX
  5
8A5
  8
LAYER_1
 10
-22.58299093661496
 20
59.88974898598178
 30
0.0
  0
VERTEX
  5
8A6
  8
LAYER_1
 10
-22.67233591435807
 20
59.45009756277885
 30
0.0
  0
VERTEX
  5
8A7
  8
LAYER_1
 10
-22.80119220998299
 20
58.95868048459803
 30
0.0
  0
VERTEX
  5
8A8
  8
LAYER_1
 10
-22.96973336270733
 20
58.41446591092675
 30
0.0
  0
VERTEX
  5
8A9
  8
LAYER_1
 10
-23.17813291174874
 20
57.81642200125245
 30
0.0
  0
VERTEX
  5
8AA
  8
LAYER_1
 10
-23.56016950434152
 20
56.77043921376426
 30
0.0
  0
VERTEX
  5
8AB
  8
LAYER_1
 10
-23.60285551833947
 20
56.50739614330305
 30
0.0
  0
VERTEX
  5
8AC
  8
LAYER_1
 10
-23.62603267629658
 20
56.40716066289126
 30
0.0
  0
VERTEX
  5
8AD
  8
LAYER_1
 10
-23.6574851367918
 20
56.32950678833093
 30
0.0
  0
VERTEX
  5
8AE
  8
LAYER_1
 10
-23.6931638457671
 20
56.28198458482795
 30
0.0
  0
VERTEX
  5
8AF
  8
LAYER_1
 10
-23.71132271404165
 20
56.2718822550998
 30
0.0
  0
VERTEX
  5
8B0
  8
LAYER_1
 10
-23.72901974916446
 20
56.2721441175882
 30
0.0
  0
VERTEX
  5
8B1
  8
LAYER_1
 10
-23.77952709875716
 20
56.29992272121493
 30
0.0
  0
VERTEX
  5
8B2
  8
LAYER_1
 10
-23.81255190247701
 20
56.34446128497538
 30
0.0
  0
VERTEX
  5
8B3
  8
LAYER_1
 10
-23.82797806014856
 20
56.40669932706213
 30
0.0
  0
VERTEX
  5
8B4
  8
LAYER_1
 10
-23.82568947159632
 20
56.48757636566777
 30
0.0
  0
VERTEX
  5
8B5
  8
LAYER_1
 10
-23.80557003664481
 20
56.58803191898488
 30
0.0
  0
VERTEX
  5
8B6
  8
LAYER_1
 10
-23.76750365511857
 20
56.70900550520606
 30
0.0
  0
VERTEX
  5
8B7
  8
LAYER_1
 10
-23.7113742268421
 20
56.85143664252388
 30
0.0
  0
VERTEX
  5
8B8
  8
LAYER_1
 10
-23.63706565163996
 20
57.01626484913092
 30
0.0
  0
VERTEX
  5
8B9
  8
LAYER_1
 10
-23.4870625125697
 20
57.34796372332288
 30
0.0
  0
VERTEX
  5
8BA
  8
LAYER_1
 10
-23.36319474615743
 20
57.65630991386509
 30
0.0
  0
VERTEX
  5
8BB
  8
LAYER_1
 10
-23.26369984793505
 20
57.94883064650027
 30
0.0
  0
VERTEX
  5
8BC
  8
LAYER_1
 10
-23.18681531343447
 20
58.23305314697114
 30
0.0
  0
VERTEX
  5
8BD
  8
LAYER_1
 10
-23.13077863818757
 20
58.51650464102045
 30
0.0
  0
VERTEX
  5
8BE
  8
LAYER_1
 10
-23.09382731772626
 20
58.80671235439092
 30
0.0
  0
VERTEX
  5
8BF
  8
LAYER_1
 10
-23.07419884758244
 20
59.1112035128253
 30
0.0
  0
VERTEX
  5
8C0
  8
LAYER_1
 10
-23.070130723288
 20
59.43750534206629
 30
0.0
  0
VERTEX
  5
8C1
  8
LAYER_1
 10
-23.07786348790835
 20
59.7438527262043
 30
0.0
  0
VERTEX
  5
8C2
  8
LAYER_1
 10
-23.09689174791933
 20
60.03475017456579
 30
0.0
  0
VERTEX
  5
8C3
  8
LAYER_1
 10
-23.12975097687971
 20
60.32372997288894
 30
0.0
  0
VERTEX
  5
8C4
  8
LAYER_1
 10
-23.17897664834827
 20
60.62432440691194
 30
0.0
  0
VERTEX
  5
8C5
  8
LAYER_1
 10
-23.24710423588377
 20
60.95006576237297
 30
0.0
  0
VERTEX
  5
8C6
  8
LAYER_1
 10
-23.33666921304499
 20
61.31448632501021
 30
0.0
  0
VERTEX
  5
8C7
  8
LAYER_1
 10
-23.59025323047968
 20
62.21349421476606
 30
0.0
  0
VERTEX
  5
8C8
  8
LAYER_1
 10
-23.72533638987161
 20
62.68705902536023
 30
0.0
  0
VERTEX
  5
8C9
  8
LAYER_1
 10
-23.84106012892882
 20
63.13217275034013
 30
0.0
  0
VERTEX
  5
8CA
  8
LAYER_1
 10
-23.93787947741343
 20
63.55136304347251
 30
0.0
  0
VERTEX
  5
8CB
  8
LAYER_1
 10
-24.01624946508758
 20
63.94715755852409
 30
0.0
  0
VERTEX
  5
8CC
  8
LAYER_1
 10
-24.07662512171341
 20
64.32208394926161
 30
0.0
  0
VERTEX
  5
8CD
  8
LAYER_1
 10
-24.11946147705304
 20
64.6786698694518
 30
0.0
  0
VERTEX
  5
8CE
  8
LAYER_1
 10
-24.14521356086861
 20
65.0194429728614
 30
0.0
  0
VERTEX
  5
8CF
  8
LAYER_1
 10
-24.15433640292226
 20
65.34693091325713
 30
0.0
  0
VERTEX
  5
8D0
  8
LAYER_1
 10
-24.15675168050557
 20
66.1563562817922
 30
0.0
  0
VERTEX
  5
8D1
  8
LAYER_1
 10
-24.54760671979898
 20
65.60943092368794
 30
0.0
  0
VERTEX
  5
8D2
  8
LAYER_1
 10
-24.9316456223711
 20
65.0621122211247
 30
0.0
  0
VERTEX
  5
8D3
  8
LAYER_1
 10
-25.24172782877211
 20
64.59728392130386
 30
0.0
  0
VERTEX
  5
8D4
  8
LAYER_1
 10
-25.4890784212043
 20
64.19753596224773
 30
0.0
  0
VERTEX
  5
8D5
  8
LAYER_1
 10
-25.68492248187001
 20
63.84545828197867
 30
0.0
  0
VERTEX
  5
8D6
  8
LAYER_1
 10
-25.88893800909015
 20
63.45341103115615
 30
0.0
  0
VERTEX
  5
8D7
  8
LAYER_1
 10
-25.91423706236449
 20
64.07045829091936
 30
0.0
  0
VERTEX
  5
8D8
  8
LAYER_1
 10
-25.92743253223009
 20
64.29075667941046
 30
0.0
  0
VERTEX
  5
8D9
  8
LAYER_1
 10
-25.9488844106273
 20
64.49921240153955
 30
0.0
  0
VERTEX
  5
8DA
  8
LAYER_1
 10
-25.97934755445634
 20
64.69903277837659
 30
0.0
  0
VERTEX
  5
8DB
  8
LAYER_1
 10
-26.01957682061742
 20
64.89342513099155
 30
0.0
  0
VERTEX
  5
8DC
  8
LAYER_1
 10
-26.07032706601076
 20
65.08559678045438
 30
0.0
  0
VERTEX
  5
8DD
  8
LAYER_1
 10
-26.13235314753658
 20
65.27875504783506
 30
0.0
  0
VERTEX
  5
8DE
  8
LAYER_1
 10
-26.20640992209508
 20
65.47610725420357
 30
0.0
  0
VERTEX
  5
8DF
  8
LAYER_1
 10
-26.2932522465865
 20
65.68086072062985
 30
0.0
  0
VERTEX
  5
8E0
  8
LAYER_1
 10
-26.41891878481312
 20
65.96250560134649
 30
0.0
  0
VERTEX
  5
8E1
  8
LAYER_1
 10
-28.10950095004463
 20
69.41250573843718
 30
0.0
  0
VERTEX
  5
8E2
  8
LAYER_1
 10
-28.24619400659302
 20
69.81078481311397
 30
0.0
  0
VERTEX
  5
8E3
  8
LAYER_1
 10
-28.3214902705657
 20
70.01712804080015
 30
0.0
  0
VERTEX
  5
8E4
  8
LAYER_1
 10
-28.35039059466954
 20
70.08040900349914
 30
0.0
  0
VERTEX
  5
8E5
  8
LAYER_1
 10
-28.37580077318202
 20
70.11981415755072
 30
0.0
  0
VERTEX
  5
8E6
  8
LAYER_1
 10
-28.39947710085086
 20
70.13738197204133
 30
0.0
  0
VERTEX
  5
8E7
  8
LAYER_1
 10
-28.42317587242379
 20
70.13515091605741
 30
0.0
  0
VERTEX
  5
8E8
  8
LAYER_1
 10
-28.44865338264855
 20
70.11515945868544
 30
0.0
  0
VERTEX
  5
8E9
  8
LAYER_1
 10
-28.47766592627286
 20
70.07944606901191
 30
0.0
  0
VERTEX
  5
8EA
  8
LAYER_1
 10
-28.52292711427243
 20
70.00430828951627
 30
0.0
  0
VERTEX
  5
8EB
  8
LAYER_1
 10
-28.57201895277053
 20
69.89889058915941
 30
0.0
  0
VERTEX
  5
8EC
  8
LAYER_1
 10
-28.67852004826875
 20
69.61018269287132
 30
0.0
  0
VERTEX
  5
8ED
  8
LAYER_1
 10
-28.79082014678034
 20
69.23925691416625
 30
0.0
  0
VERTEX
  5
8EE
  8
LAYER_1
 10
-28.90257018231814
 20
68.8120477870628
 30
0.0
  0
VERTEX
  5
8EF
  8
LAYER_1
 10
-29.00742108889495
 20
68.35448984557961
 30
0.0
  0
VERTEX
  5
8F0
  8
LAYER_1
 10
-29.09902380052362
 20
67.8925176237353
 30
0.0
  0
VERTEX
  5
8F1
  8
LAYER_1
 10
-29.17102925121696
 20
67.4520656555485
 30
0.0
  0
VERTEX
  5
8F2
  8
LAYER_1
 10
-29.21708837498779
 20
67.05906847503778
 30
0.0
  0
VERTEX
  5
8F3
  8
LAYER_1
 10
-29.27105705383672
 20
66.43063128018369
 30
0.0
  0
VERTEX
  5
8F4
  8
LAYER_1
 10
-29.45627601914283
 20
66.8715684675872
 30
0.0
  0
VERTEX
  5
8F5
  8
LAYER_1
 10
-29.52892923324428
 20
67.03248376692474
 30
0.0
  0
VERTEX
  5
8F6
  8
LAYER_1
 10
-29.61141520274958
 20
67.19325020973923
 30
0.0
  0
VERTEX
  5
8F7
  8
LAYER_1
 10
-29.70311399564573
 20
67.35319112119024
 30
0.0
  0
VERTEX
  5
8F8
  8
LAYER_1
 10
-29.80340567991973
 20
67.51162982643734
 30
0.0
  0
VERTEX
  5
8F9
  8
LAYER_1
 10
-29.91167032355862
 20
67.66788965064015
 30
0.0
  0
VERTEX
  5
8FA
  8
LAYER_1
 10
-30.02728799454938
 20
67.82129391895825
 30
0.0
  0
VERTEX
  5
8FB
  8
LAYER_1
 10
-30.2781026905346
 20
68.11682908857871
 30
0.0
  0
VERTEX
  5
8FC
  8
LAYER_1
 10
-30.55089031177149
 20
68.39282193657553
 30
0.0
  0
VERTEX
  5
8FD
  8
LAYER_1
 10
-30.69397413932683
 20
68.52179830286406
 30
0.0
  0
VERTEX
  5
8FE
  8
LAYER_1
 10
-30.84069140215611
 20
68.64385906422545
 30
0.0
  0
VERTEX
  5
8FF
  8
LAYER_1
 10
-30.99042216824636
 20
68.75832754581933
 30
0.0
  0
VERTEX
  5
900
  8
LAYER_1
 10
-31.14254650558457
 20
68.86452707280527
 30
0.0
  0
VERTEX
  5
901
  8
LAYER_1
 10
-31.29644448215776
 20
68.96178097034289
 30
0.0
  0
VERTEX
  5
902
  8
LAYER_1
 10
-31.45149616595294
 20
69.04941256359174
 30
0.0
  0
VERTEX
  5
903
  8
LAYER_1
 10
-31.76755686047829
 20
69.20907598483213
 30
0.0
  0
VERTEX
  5
904
  8
LAYER_1
 10
-31.89321894537847
 20
69.25956098019525
 30
0.0
  0
VERTEX
  5
905
  8
LAYER_1
 10
-32.01456816842283
 20
69.2943935810606
 30
0.0
  0
VERTEX
  5
906
  8
LAYER_1
 10
-32.14455401440076
 20
69.31650784918344
 30
0.0
  0
VERTEX
  5
907
  8
LAYER_1
 10
-32.29612596810163
 20
69.32883784631896
 30
0.0
  0
VERTEX
  5
908
  8
LAYER_1
 10
-32.71582613782976
 20
69.33588127464904
 30
0.0
  0
VERTEX
  5
909
  8
LAYER_1
 10
-33.44415398482269
 20
69.33750573545694
 30
0.0
  0
VERTEX
  5
90A
  8
LAYER_1
 10
-33.19456774070483
 20
69.07185282298968
 30
0.0
  0
VERTEX
  5
90B
  8
LAYER_1
 10
-33.04040522978983
 20
68.88908554376394
 30
0.0
  0
VERTEX
  5
90C
  8
LAYER_1
 10
-32.90261420315474
 20
68.68458315029616
 30
0.0
  0
VERTEX
  5
90D
  8
LAYER_1
 10
-32.77951652775128
 20
68.45386125405481
 30
0.0
  0
VERTEX
  5
90E
  8
LAYER_1
 10
-32.6694340705312
 20
68.19243546650827
 30
0.0
  0
VERTEX
  5
90F
  8
LAYER_1
 10
-32.57068869844621
 20
67.89582139912498
 30
0.0
  0
VERTEX
  5
910
  8
LAYER_1
 10
-32.48160227844805
 20
67.5595346633734
 30
0.0
  0
VERTEX
  5
911
  8
LAYER_1
 10
-32.40049667748846
 20
67.1790908707219
 30
0.0
  0
VERTEX
  5
912
  8
LAYER_1
 10
-32.32569376251915
 20
66.75000563263893
 30
0.0
  0
VERTEX
  5
913
  8
LAYER_1
 10
-32.23158181796406
 20
66.2583372445457
 30
0.0
  0
VERTEX
  5
914
  8
LAYER_1
 10
-32.17878818271267
 20
66.03530167783111
 30
0.0
  0
VERTEX
  5
915
  8
LAYER_1
 10
-32.13070039848841
 20
65.86613455562397
 30
0.0
  0
VERTEX
  5
916
  8
LAYER_1
 10
-32.05604828601187
 20
65.62942964584327
 30
0.0
  0
VERTEX
  5
917
  8
LAYER_1
 10
-32.02499829232693
 20
65.51161762036563
 30
0.0
  0
VERTEX
  5
918
  8
LAYER_1
 10
-32.02499829232693
 20
65.4784717397705
 30
0.0
  0
VERTEX
  5
919
  8
LAYER_1
 10
-32.71874831989408
 20
65.84741990951082
 30
0.0
  0
VERTEX
  5
91A
  8
LAYER_1
 10
-33.06435271894183
 20
66.04108632729523
 30
0.0
  0
VERTEX
  5
91B
  8
LAYER_1
 10
-33.19950595602346
 20
66.126476909236
 30
0.0
  0
VERTEX
  5
91C
  8
LAYER_1
 10
-33.31418374612335
 20
66.20774584344585
 30
0.0
  0
VERTEX
  5
91D
  8
LAYER_1
 10
-33.41185398522633
 20
66.2875232076023
 30
0.0
  0
VERTEX
  5
91E
  8
LAYER_1
 10
-33.4959845693172
 20
66.36843907938291
 30
0.0
  0
VERTEX
  5
91F
  8
LAYER_1
 10
-33.5700433943808
 20
66.45312353646518
 30
0.0
  0
VERTEX
  5
920
  8
LAYER_1
 10
-33.63749835640192
 20
66.54420665652668
 30
0.0
  0
VERTEX
  5
921
  8
LAYER_1
 10
-33.78246273039242
 20
66.7469563672306
 30
0.0
  0
VERTEX
  5
922
  8
LAYER_1
 10
-33.93383734199659
 20
66.94215459502368
 30
0.0
  0
VERTEX
  5
923
  8
LAYER_1
 10
-34.09150937923988
 20
67.12971595209119
 30
0.0
  0
VERTEX
  5
924
  8
LAYER_1
 10
-34.25536603014771
 20
67.30955505061841
 30
0.0
  0
VERTEX
  5
925
  8
LAYER_1
 10
-34.42529448274551
 20
67.48158650279062
 30
0.0
  0
VERTEX
  5
926
  8
LAYER_1
 10
-34.60118192505873
 20
67.64572492079306
 30
0.0
  0
VERTEX
  5
927
  8
LAYER_1
 10
-34.78291554511278
 20
67.80188491681102
 30
0.0
  0
VERTEX
  5
928
  8
LAYER_1
 10
-34.9703825309331
 20
67.94998110302974
 30
0.0
  0
VERTEX
  5
929
  8
LAYER_1
 10
-35.16347007054513
 20
68.08992809163453
 30
0.0
  0
VERTEX
  5
92A
  8
LAYER_1
 10
-35.36206535197431
 20
68.22164049481066
 30
0.0
  0
VERTEX
  5
92B
  8
LAYER_1
 10
-35.56605556324606
 20
68.34503292474336
 30
0.0
  0
VERTEX
  5
92C
  8
LAYER_1
 10
-35.77532789238582
 20
68.46001999361795
 30
0.0
  0
VERTEX
  5
92D
  8
LAYER_1
 10
-35.98976952741902
 20
68.56651631361964
 30
0.0
  0
VERTEX
  5
92E
  8
LAYER_1
 10
-36.2092676563711
 20
68.66443649693376
 30
0.0
  0
VERTEX
  5
92F
  8
LAYER_1
 10
-36.43370946726747
 20
68.75369515574555
 30
0.0
  0
VERTEX
  5
930
  8
LAYER_1
 10
-36.66298214813359
 20
68.83420690224028
 30
0.0
  0
VERTEX
  5
931
  8
LAYER_1
 10
-36.8171744461379
 20
68.87980430005146
 30
0.0
  0
VERTEX
  5
932
  8
LAYER_1
 10
-36.98374934197262
 20
68.91970614242153
 30
0.0
  0
VERTEX
  5
933
  8
LAYER_1
 10
-37.34718439712825
 20
68.98234314397111
 30
0.0
  0
VERTEX
  5
934
  8
LAYER_1
 10
-37.73956225359032
 20
69.02195787315438
 30
0.0
  0
VERTEX
  5
935
  8
LAYER_1
 10
-38.14715785134867
 20
69.03839029623668
 30
0.0
  0
VERTEX
  5
936
  8
LAYER_1
 10
-38.55624613039312
 20
69.03148037948344
 30
0.0
  0
VERTEX
  5
937
  8
LAYER_1
 10
-38.95310203071353
 20
69.00106808916001
 30
0.0
  0
VERTEX
  5
938
  8
LAYER_1
 10
-39.32400049229972
 20
68.94699339153175
 30
0.0
  0
VERTEX
  5
939
  8
LAYER_1
 10
-39.49542660231431
 20
68.91103262943622
 30
0.0
  0
VERTEX
  5
93A
  8
LAYER_1
 10
-39.65521645514154
 20
68.86909625286404
 30
0.0
  0
VERTEX
  5
93B
  8
LAYER_1
 10
-40.06222006032424
 20
68.74217617024642
 30
0.0
  0
VERTEX
  5
93C
  8
LAYER_1
 10
-40.27864617154955
 20
68.66025139789573
 30
0.0
  0
VERTEX
  5
93D
  8
LAYER_1
 10
-40.3593580067749
 20
68.61036874043211
 30
0.0
  0
VERTEX
  5
93E
  8
LAYER_1
 10
-39.773428291857
 20
68.26946085944326
 30
0.0
  0
VERTEX
  5
93F
  8
LAYER_1
 10
-39.48082511089979
 20
68.08564933637369
 30
0.0
  0
VERTEX
  5
940
  8
LAYER_1
 10
-39.11727167106636
 20
67.83718266132615
 30
0.0
  0
VERTEX
  5
941
  8
LAYER_1
 10
-38.72906410470314
 20
67.55663917281869
 30
0.0
  0
VERTEX
  5
942
  8
LAYER_1
 10
-38.36249854415655
 20
67.27659720936933
 30
0.0
  0
VERTEX
  5
943
  8
LAYER_1
 10
-37.55201705954833
 20
66.64529018780132
 30
0.0
  0
VERTEX
  5
944
  8
LAYER_1
 10
-37.24112082339364
 20
66.41309646652668
 30
0.0
  0
VERTEX
  5
945
  8
LAYER_1
 10
-36.97573781170961
 20
66.22460338496516
 30
0.0
  0
VERTEX
  5
946
  8
LAYER_1
 10
-36.74283068977448
 20
66.0708565281469
 30
0.0
  0
VERTEX
  5
947
  8
LAYER_1
 10
-36.52936212286653
 20
65.94290148110211
 30
0.0
  0
VERTEX
  5
948
  8
LAYER_1
 10
-36.32229477626402
 20
65.83178382886092
 30
0.0
  0
VERTEX
  5
949
  8
LAYER_1
 10
-36.10859131524523
 20
65.72854915645351
 30
0.0
  0
VERTEX
  5
94A
  8
LAYER_1
 10
-35.83238474745674
 20
65.60888551855855
 30
0.0
  0
VERTEX
  5
94B
  8
LAYER_1
 10
-35.55965323369031
 20
65.50653128807254
 30
0.0
  0
VERTEX
  5
94C
  8
LAYER_1
 10
-35.29165249873977
 20
65.42176743767021
 30
0.0
  0
VERTEX
  5
94D
  8
LAYER_1
 10
-35.02963826739894
 20
65.3548749400263
 30
0.0
  0
VERTEX
  5
94E
  8
LAYER_1
 10
-34.77486626446162
 20
65.30613476781556
 30
0.0
  0
VERTEX
  5
94F
  8
LAYER_1
 10
-34.52859221472164
 20
65.27582789371272
 30
0.0
  0
VERTEX
  5
950
  8
LAYER_1
 10
-34.29207184297281
 20
65.26423529039249
 30
0.0
  0
VERTEX
  5
951
  8
LAYER_1
 10
-34.06656087400894
 20
65.27163793052964
 30
0.0
  0
VERTEX
  5
952
  8
LAYER_1
 10
-33.59562335585317
 20
65.30808384487526
 30
0.0
  0
VERTEX
  5
953
  8
LAYER_1
 10
-32.43868538549789
 20
64.46250554174185
 30
0.0
  0
VERTEX
  5
954
  8
LAYER_1
 10
-33.49846979965049
 20
64.59589148130695
 30
0.0
  0
VERTEX
  5
955
  8
LAYER_1
 10
-34.65548412123957
 20
64.55358306451743
 30
0.0
  0
VERTEX
  5
956
  8
LAYER_1
 10
-35.23242691451762
 20
64.52350456606922
 30
0.0
  0
VERTEX
  5
957
  8
LAYER_1
 10
-35.75210992457973
 20
64.47636919638452
 30
0.0
  0
VERTEX
  5
958
  8
LAYER_1
 10
-36.23773362230973
 20
64.40954704345245
 30
0.0
  0
VERTEX
  5
959
  8
LAYER_1
 10
-36.71249847859144
 20
64.32040819526208
 30
0.0
  0
VERTEX
  5
95A
  8
LAYER_1
 10
-37.37142467094321
 20
64.17500676203176
 30
0.0
  0
VERTEX
  5
95B
  8
LAYER_1
 10
-37.91105004404035
 20
64.04491380731761
 30
0.0
  0
VERTEX
  5
95C
  8
LAYER_1
 10
-38.28504405652034
 20
63.94194797251254
 30
0.0
  0
VERTEX
  5
95D
  8
LAYER_1
 10
-38.39545100835312
 20
63.90433105051115
 30
0.0
  0
VERTEX
  5
95E
  8
LAYER_1
 10
-38.44707616702068
 20
63.87792789900936
 30
0.0
  0
VERTEX
  5
95F
  8
LAYER_1
 10
-38.44534254666863
 20
63.87075359152254
 30
0.0
  0
VERTEX
  5
960
  8
LAYER_1
 10
-38.42811795162822
 20
63.86244780964621
 30
0.0
  0
VERTEX
  5
961
  8
LAYER_1
 10
-38.35316784595494
 20
63.84363025385512
 30
0.0
  0
VERTEX
  5
962
  8
LAYER_1
 10
-38.08306803154689
 20
63.80549019203022
 30
0.0
  0
VERTEX
  5
963
  8
LAYER_1
 10
-37.87083479089141
 20
63.77555060569777
 30
0.0
  0
VERTEX
  5
964
  8
LAYER_1
 10
-37.65173454131123
 20
63.72864112080309
 30
0.0
  0
VERTEX
  5
965
  8
LAYER_1
 10
-37.42443783673848
 20
63.66425906598487
 30
0.0
  0
VERTEX
  5
966
  8
LAYER_1
 10
-37.18761523110526
 20
63.5819017698818
 30
0.0
  0
VERTEX
  5
967
  8
LAYER_1
 10
-36.93993727834366
 20
63.48106656113258
 30
0.0
  0
VERTEX
  5
968
  8
LAYER_1
 10
-36.68007453238583
 20
63.3612507683759
 30
0.0
  0
VERTEX
  5
969
  8
LAYER_1
 10
-36.40669754716384
 20
63.22195172025045
 30
0.0
  0
VERTEX
  5
96A
  8
LAYER_1
 10
-36.11847687660984
 20
63.06266674539492
 30
0.0
  0
VERTEX
  5
96B
  8
LAYER_1
 10
-35.40640756539483
 20
62.65853280653973
 30
0.0
  0
VERTEX
  5
96C
  8
LAYER_1
 10
-34.83945918160679
 20
62.34854148137749
 30
0.0
  0
VERTEX
  5
96D
  8
LAYER_1
 10
-34.38609037552148
 20
62.12116140857741
 30
0.0
  0
VERTEX
  5
96E
  8
LAYER_1
 10
-34.19214164232852
 20
62.03484704139733
 30
0.0
  0
VERTEX
  5
96F
  8
LAYER_1
 10
-34.01475979741465
 20
61.96486122680874
 30
0.0
  0
VERTEX
  5
970
  8
LAYER_1
 10
-33.85000217206434
 20
61.90976254464531
 30
0.0
  0
VERTEX
  5
971
  8
LAYER_1
 10
-33.69392609756207
 20
61.86810957474069
 30
0.0
  0
VERTEX
  5
972
  8
LAYER_1
 10
-33.54258890519229
 20
61.83846089692853
 30
0.0
  0
VERTEX
  5
973
  8
LAYER_1
 10
-33.39204792623949
 20
61.81937509104249
 30
0.0
  0
VERTEX
  5
974
  8
LAYER_1
 10
-33.23836049198813
 20
61.80941073691621
 30
0.0
  0
VERTEX
  5
975
  8
LAYER_1
 10
-33.07758393372267
 20
61.80712641438335
 30
0.0
  0
VERTEX
  5
976
  8
LAYER_1
 10
-32.71899277028738
 20
61.81983218343251
 30
0.0
  0
VERTEX
  5
977
  8
LAYER_1
 10
-32.44680523735236
 20
61.84001566863671
 30
0.0
  0
VERTEX
  5
978
  8
LAYER_1
 10
-32.19282789424648
 20
61.87067281583315
 30
0.0
  0
VERTEX
  5
979
  8
LAYER_1
 10
-31.95157939329788
 20
61.9132982959094
 30
0.0
  0
VERTEX
  5
97A
  8
LAYER_1
 10
-31.71757838683473
 20
61.96938677975299
 30
0.0
  0
VERTEX
  5
97B
  8
LAYER_1
 10
-31.48534352718517
 20
62.0404329382515
 30
0.0
  0
VERTEX
  5
97C
  8
LAYER_1
 10
-31.24939346667736
 20
62.12793144229248
 30
0.0
  0
VERTEX
  5
97D
  8
LAYER_1
 10
-31.00424685763944
 20
62.23337696276347
 30
0.0
  0
VERTEX
  5
97E
  8
LAYER_1
 10
-30.74442235239957
 20
62.35826417055205
 30
0.0
  0
VERTEX
  5
97F
  8
LAYER_1
 10
-30.44683430477711
 20
62.49368146028273
 30
0.0
  0
VERTEX
  5
980
  8
LAYER_1
 10
-30.33453307314574
 20
62.53487587917203
 30
0.0
  0
VERTEX
  5
981
  8
LAYER_1
 10
-30.26742883597775
 20
62.55000546574593
 30
0.0
  0
VERTEX
  5
982
  8
LAYER_1
 10
-30.1721836884615
 20
62.55000546574593
 30
0.0
  0
VERTEX
  5
983
  8
LAYER_1
 10
-29.5798409300445
 20
61.92728773871551
 30
0.0
  0
VERTEX
  5
984
  8
LAYER_1
 10
-28.8742122033162
 20
61.17729110851234
 30
0.0
  0
VERTEX
  5
985
  8
LAYER_1
 10
-28.65379825206121
 20
60.93319120854741
 30
0.0
  0
VERTEX
  5
986
  8
LAYER_1
 10
-28.51350176023212
 20
60.76587519654655
 30
0.0
  0
VERTEX
  5
987
  8
LAYER_1
 10
-28.44721061634377
 20
60.6674817809145
 30
0.0
  0
VERTEX
  5
988
  8
LAYER_1
 10
-28.43990701503824
 20
60.64167439311326
 30
0.0
  0
VERTEX
  5
989
  8
LAYER_1
 10
-28.44881270891097
 20
60.63014967005599
 30
0.0
  0
VERTEX
  5
98A
  8
LAYER_1
 10
-28.4731636840263
 20
60.63192495029328
 30
0.0
  0
VERTEX
  5
98B
  8
LAYER_1
 10
-28.51219592644858
 20
60.64601757237575
 30
0.0
  0
VERTEX
  5
98C
  8
LAYER_1
 10
-28.63124815747142
 20
60.7072241962785
 30
0.0
  0
VERTEX
  5
98D
  8
LAYER_1
 10
-28.79146172466254
 20
60.78951263518409
 30
0.0
  0
VERTEX
  5
98E
  8
LAYER_1
 10
-28.97570961960049
 20
60.87077199230933
 30
0.0
  0
VERTEX
  5
98F
  8
LAYER_1
 10
-29.1810953450102
 20
60.95036787374485
 30
0.0
  0
VERTEX
  5
990
  8
LAYER_1
 10
-29.40472240361655
 20
61.02766588558124
 30
0.0
  0
VERTEX
  5
991
  8
LAYER_1
 10
-29.8951145313188
 20
61.17283072481916
 30
0.0
  0
VERTEX
  5
992
  8
LAYER_1
 10
-30.42371402450649
 20
61.30119135874802
 30
0.0
  0
VERTEX
  5
993
  8
LAYER_1
 10
-30.96734890497885
 20
61.40767263609274
 30
0.0
  0
VERTEX
  5
994
  8
LAYER_1
 10
-31.50284719453511
 20
61.48719940557825
 30
0.0
  0
VERTEX
  5
995
  8
LAYER_1
 10
-31.76030387453195
 20
61.51526886510033
 30
0.0
  0
VERTEX
  5
996
  8
LAYER_1
 10
-32.00703691497449
 20
61.53469651592947
 30
0.0
  0
VERTEX
  5
997
  8
LAYER_1
 10
-32.24014981858762
 20
61.54484796415626
 30
0.0
  0
VERTEX
  5
998
  8
LAYER_1
 10
-32.45674608809623
 20
61.54508881587134
 30
0.0
  0
VERTEX
  5
999
  8
LAYER_1
 10
-32.7759938793952
 20
61.53750542551279
 30
0.0
  0
VERTEX
  5
99A
  8
LAYER_1
 10
-32.43514760030791
 20
61.16250541061163
 30
0.0
  0
VERTEX
  5
99B
  8
LAYER_1
 10
-31.88328028107805
 20
60.52500538527966
 30
0.0
  0
VERTEX
  5
99C
  8
LAYER_1
 10
-31.08943957075815
 20
59.61406822245026
 30
0.0
  0
VERTEX
  5
99D
  8
LAYER_1
 10
-30.53498080316743
 20
58.99707711857999
 30
0.0
  0
VERTEX
  5
99E
  8
LAYER_1
 10
-30.11354624386737
 20
58.55905102408042
 30
0.0
  0
VERTEX
  5
99F
  8
LAYER_1
 10
-29.71877815841948
 20
58.18500888936308
 30
0.0
  0
VERTEX
  5
9A0
  8
LAYER_1
 10
-29.52738143912103
 20
58.01971174377099
 30
0.0
  0
VERTEX
  5
9A1
  8
LAYER_1
 10
-29.32725966383992
 20
57.86467543470005
 30
0.0
  0
VERTEX
  5
9A2
  8
LAYER_1
 10
-29.119608203141
 20
57.72031112194563
 30
0.0
  0
VERTEX
  5
9A3
  8
LAYER_1
 10
-28.90562242758914
 20
57.58702996530307
 30
0.0
  0
VERTEX
  5
9A4
  8
LAYER_1
 10
-28.6864977077492
 20
57.46524312456778
 30
0.0
  0
VERTEX
  5
9A5
  8
LAYER_1
 10
-28.46342941418605
 20
57.35536175953511
 30
0.0
  0
VERTEX
  5
9A6
  8
LAYER_1
 10
-28.23761291746453
 20
57.25779703000043
 30
0.0
  0
VERTEX
  5
9A7
  8
LAYER_1
 10
-28.01024358814952
 20
57.17296009575913
 30
0.0
  0
VERTEX
  5
9A8
  8
LAYER_1
 10
-27.78251679680588
 20
57.10126211660656
 30
0.0
  0
VERTEX
  5
9A9
  8
LAYER_1
 10
-27.55562791399846
 20
57.0431142523381
 30
0.0
  0
VERTEX
  5
9AA
  8
LAYER_1
 10
-27.33077231029213
 20
56.99892766274911
 30
0.0
  0
VERTEX
  5
9AB
  8
LAYER_1
 10
-27.10914535625175
 20
56.96911350763498
 30
0.0
  0
VERTEX
  5
9AC
  8
LAYER_1
 10
-26.89194242244218
 20
56.95408294679107
 30
0.0
  0
VERTEX
  5
9AD
  8
LAYER_1
 10
-26.68035887942828
 20
56.95424714001275
 30
0.0
  0
VERTEX
  5
9AE
  8
LAYER_1
 10
-26.47559009777491
 20
56.9700172470954
 30
0.0
  0
VERTEX
  5
9AF
  8
LAYER_1
 10
-26.27883144804694
 20
57.00180442783437
 30
0.0
  0
VERTEX
  5
9B0
  8
LAYER_1
 10
-26.06429584189986
 20
57.04121368007628
 30
0.0
  0
VERTEX
  5
9B1
  8
LAYER_1
 10
-25.91992492554083
 20
57.05248385202724
 30
0.0
  0
VERTEX
  5
9B2
  8
LAYER_1
 10
-25.86738497472825
 20
57.04739603043863
 30
0.0
  0
VERTEX
  5
9B3
  8
LAYER_1
 10
-25.82438669479837
 20
57.03506853583136
 30
0.0
  0
VERTEX
  5
9B4
  8
LAYER_1
 10
-25.78826358522974
 20
57.01543306722341
 30
0.0
  0
VERTEX
  5
9B5
  8
LAYER_1
 10
-25.75634914550095
 20
56.98842132363282
 30
0.0
  0
VERTEX
  5
9B6
  8
LAYER_1
 10
-25.65551094313587
 20
56.88750524073839
 30
0.0
  0
VERTEX
  5
9B7
  8
LAYER_1
 10
-24.59999799728394
 20
54.82500515878201
 30
0.0
  0
VERTEX
  5
9B8
  8
LAYER_1
 10
-24.67499800026417
 20
54.82500515878201
 30
0.0
  0
VERTEX
  5
9B9
  8
LAYER_1
 10
-25.14374801889062
 20
55.24821193287519
 30
0.0
  0
VERTEX
  5
9BA
  8
LAYER_1
 10
-25.42546287609006
 20
55.48910428660921
 30
0.0
  0
VERTEX
  5
9BB
  8
LAYER_1
 10
-25.73149383792072
 20
55.72514601932662
 30
0.0
  0
VERTEX
  5
9BC
  8
LAYER_1
 10
-26.06133519595787
 20
55.95602843625784
 30
0.0
  0
VERTEX
  5
9BD
  8
LAYER_1
 10
-26.41448124177674
 20
56.18144284263327
 30
0.0
  0
VERTEX
  5
9BE
  8
LAYER_1
 10
-26.7904262669526
 20
56.40108054368329
 30
0.0
  0
VERTEX
  5
9BF
  8
LAYER_1
 10
-27.1886645630607
 20
56.61463284463834
 30
0.0
  0
VERTEX
  5
9C0
  8
LAYER_1
 10
-27.60869042167629
 20
56.82179105072879
 30
0.0
  0
VERTEX
  5
9C1
  8
LAYER_1
 10
-28.04999813437462
 20
57.02224646718506
 30
0.0
  0
VERTEX
  5
9C2
  8
LAYER_1
 10
-28.2935231197978
 20
57.11785441344844
 30
0.0
  0
VERTEX
  5
9C3
  8
LAYER_1
 10
-28.60982459212532
 20
57.22638072019097
 30
0.0
  0
VERTEX
  5
9C4
  8
LAYER_1
 10
-28.97593931190327
 20
57.34133510838007
 30
0.0
  0
VERTEX
  5
9C5
  8
LAYER_1
 10
-29.36890403967774
 20
57.4562272989832
 30
0.0
  0
VERTEX
  5
9C6
  8
LAYER_1
 10
-29.76575553599485
 20
57.56456701296779
 30
0.0
  0
VERTEX
  5
9C7
  8
LAYER_1
 10
-30.14353056140069
 20
57.65986397130128
 30
0.0
  0
VERTEX
  5
9C8
  8
LAYER_1
 10
-30.47926587644137
 20
57.73562789495112
 30
0.0
  0
VERTEX
  5
9C9
  8
LAYER_1
 10
-30.74999824166298
 20
57.78536850488473
 30
0.0
  0
VERTEX
  5
9CA
  8
LAYER_1
 10
-31.02517513591489
 20
57.83144026826665
 30
0.0
  0
VERTEX
  5
9CB
  8
LAYER_1
 10
-31.21283445858162
 20
57.87116117295793
 30
0.0
  0
VERTEX
  5
9CC
  8
LAYER_1
 10
-31.33817066208921
 20
57.9063594964604
 30
0.0
  0
VERTEX
  5
9CD
  8
LAYER_1
 10
-30.75865916108165
 20
57.32193236561918
 30
0.0
  0
VERTEX
  5
9CE
  8
LAYER_1
 10
-30.48245770597219
 20
57.0201065528577
 30
0.0
  0
VERTEX
  5
9CF
  8
LAYER_1
 10
-30.16907196349535
 20
56.63990194509211
 30
0.0
  0
VERTEX
  5
9D0
  8
LAYER_1
 10
-29.85195825831768
 20
56.22358455638055
 30
0.0
  0
VERTEX
  5
9D1
  8
LAYER_1
 10
-29.56457291510576
 20
55.81342040078113
 30
0.0
  0
VERTEX
  5
9D2
  8
LAYER_1
 10
-28.94999817013741
 20
54.88933556678433
 30
0.0
  0
VERTEX
  5
9D3
  8
LAYER_1
 10
-28.94999817013741
 20
54.84417053343407
 30
0.0
  0
VERTEX
  5
9D4
  8
LAYER_1
 10
-28.53162599745648
 20
54.14688488224675
 30
0.0
  0
VERTEX
  5
9D5
  8
LAYER_1
 10
-28.17728965650319
 20
53.5755609787269
 30
0.0
  0
VERTEX
  5
9D6
  8
LAYER_1
 10
-27.91287597286956
 20
53.18111952937838
 30
0.0
  0
VERTEX
  5
9D7
  8
LAYER_1
 10
-27.63749811798334
 20
52.81151379606732
 30
0.0
  0
VERTEX
  5
9D8
  8
LAYER_1
 10
-27.56249811500311
 20
52.7103877644373
 30
0.0
  0
VERTEX
  5
9D9
  8
LAYER_1
 10
-27.09482768063388
 20
52.23227145327216
 30
0.0
  0
VERTEX
  5
9DA
  8
LAYER_1
 10
-26.8909624501493
 20
52.03529310953162
 30
0.0
  0
VERTEX
  5
9DB
  8
LAYER_1
 10
-26.68160111770213
 20
51.85240513481596
 30
0.0
  0
VERTEX
  5
9DC
  8
LAYER_1
 10
-26.49135305927025
 20
51.70400917881726
 30
0.0
  0
VERTEX
  5
9DD
  8
LAYER_1
 10
-26.34482765083155
 20
51.61050689122762
 30
0.0
  0
VERTEX
  5
9DE
  8
LAYER_1
 10
-26.1509539155344
 20
51.52144085746897
 30
0.0
  0
VERTEX
  5
9DF
  8
LAYER_1
 10
-25.92844557422283
 20
51.43626797391952
 30
0.0
  0
VERTEX
  5
9E0
  8
LAYER_1
 10
-25.68140565498508
 20
51.35604073253968
 30
0.0
  0
VERTEX
  5
9E1
  8
LAYER_1
 10
-25.41393718590938
 20
51.28181162528988
 30
0.0
  0
VERTEX
  5
9E2
  8
LAYER_1
 10
-25.13014319508399
 20
51.21463314413054
 30
0.0
  0
VERTEX
  5
9E3
  8
LAYER_1
 10
-24.83412671059713
 20
51.15555778102212
 30
0.0
  0
VERTEX
  5
9E4
  8
LAYER_1
 10
-24.52999076053705
 20
51.10563802792502
 30
0.0
  0
VERTEX
  5
9E5
  8
LAYER_1
 10
-24.221838372992
 20
51.06592637679969
 30
0.0
  0
VERTEX
  5
9E6
  8
LAYER_1
 10
-23.43749795109034
 20
50.9789134746288
 30
0.0
  0
VERTEX
  5
9E7
  8
LAYER_1
 10
-23.39698461900667
 20
50.94699167420735
 30
0.0
  0
VERTEX
  5
9E8
  8
LAYER_1
 10
-23.25005193085289
 20
49.94224829952057
 30
0.0
  0
VERTEX
  5
9E9
  8
LAYER_1
 10
-23.19306937748989
 20
49.51069950317185
 30
0.0
  0
VERTEX
  5
9EA
  8
LAYER_1
 10
-23.14653630476176
 20
49.07842953501992
 30
0.0
  0
VERTEX
  5
9EB
  8
LAYER_1
 10
-23.11524539211945
 20
48.69563310023121
 30
0.0
  0
VERTEX
  5
9EC
  8
LAYER_1
 10
-23.10398931901393
 20
48.41250490397215
 30
0.0
  0
VERTEX
  5
9ED
  8
LAYER_1
 10
-23.10485939532875
 20
47.88750488311052
 30
0.0
  0
VERTEX
  5
9EE
  8
LAYER_1
 10
-23.34980803355675
 20
48.37500490248203
 30
0.0
  0
VERTEX
  5
9EF
  8
LAYER_1
 10
-23.54464211841407
 20
48.733424298556
 30
0.0
  0
VERTEX
  5
9F0
  8
LAYER_1
 10
-23.76224934478721
 20
49.07679908816879
 30
0.0
  0
VERTEX
  5
9F1
  8
LAYER_1
 10
-24.00551178614199
 20
49.40833912037682
 30
0.0
  0
VERTEX
  5
9F2
  8
LAYER_1
 10
-24.27731151594419
 20
49.7312542442365
 30
0.0
  0
VERTEX
  5
9F3
  8
LAYER_1
 10
-24.58053060765965
 20
50.04875430880424
 30
0.0
  0
VERTEX
  5
9F4
  8
LAYER_1
 10
-24.91805113475417
 20
50.36404916313647
 30
0.0
  0
VERTEX
  5
9F5
  8
LAYER_1
 10
-25.29275517069357
 20
50.6803486562896
 30
0.0
  0
VERTEX
  5
9F6
  8
LAYER_1
 10
-25.70752478894364
 20
51.00086263732003
 30
0.0
  0
VERTEX
  5
9F7
  8
LAYER_1
 10
-26.47755156719232
 20
51.57284973775617
 30
0.0
  0
VERTEX
  5
9F8
  8
LAYER_1
 10
-26.79502483215701
 20
51.73407821314808
 30
0.0
  0
VERTEX
  5
9F9
  8
LAYER_1
 10
-26.91797074758207
 20
51.79242709511814
 30
0.0
  0
VERTEX
  5
9FA
  8
LAYER_1
 10
-27.01803786734903
 20
51.83211245648268
 30
0.0
  0
VERTEX
  5
9FB
  8
LAYER_1
 10
-27.08494341708942
 20
51.84961260872072
 30
0.0
  0
VERTEX
  5
9FC
  8
LAYER_1
 10
-27.10274723620949
 20
51.8489427037545
 30
0.0
  0
VERTEX
  5
9FD
  8
LAYER_1
 10
-27.10840462243474
 20
51.84140586331128
 30
0.0
  0
VERTEX
  5
9FE
  8
LAYER_1
 10
-27.055796340022
 20
51.69371540989326
 30
0.0
  0
VERTEX
  5
9FF
  8
LAYER_1
 10
-26.93506088080285
 20
51.41432037220932
 30
0.0
  0
VERTEX
  5
A00
  8
LAYER_1
 10
-26.86054530537405
 20
51.22785073838286
 30
0.0
  0
VERTEX
  5
A01
  8
LAYER_1
 10
-26.78277168965973
 20
50.99600668703127
 30
0.0
  0
VERTEX
  5
A02
  8
LAYER_1
 10
-26.7109524941737
 20
50.74831946932801
 30
0.0
  0
VERTEX
  5
A03
  8
LAYER_1
 10
-26.65430017942976
 20
50.51432033644653
 30
0.0
  0
VERTEX
  5
A04
  8
LAYER_1
 10
-26.54278974500158
 20
49.98750496655703
 30
0.0
  0
VERTEX
  5
A05
  8
LAYER_1
 10
-26.25806743489934
 20
47.5083014339243
 30
0.0
  0
VERTEX
  5
A06
  8
LAYER_1
 10
-26.20381535132853
 20
47.36040314510637
 30
0.0
  0
VERTEX
  5
A07
  8
LAYER_1
 10
-26.1771671606393
 20
47.28139650990236
 30
0.0
  0
VERTEX
  5
A08
  8
LAYER_1
 10
-26.17393489778071
 20
47.26072139894619
 30
0.0
  0
VERTEX
  5
A09
  8
LAYER_1
 10
-26.17859181526883
 20
47.25228575377031
 30
0.0
  0
VERTEX
  5
A0A
  8
LAYER_1
 10
-26.21505706735325
 20
47.27119484480848
 30
0.0
  0
VERTEX
  5
A0B
  8
LAYER_1
 10
-26.29353066902867
 20
47.3362477511151
 30
0.0
  0
VERTEX
  5
A0C
  8
LAYER_1
 10
-26.41631885607961
 20
47.43195176585506
 30
0.0
  0
VERTEX
  5
A0D
  8
LAYER_1
 10
-26.56686379036505
 20
47.53298438089122
 30
0.0
  0
VERTEX
  5
A0E
  8
LAYER_1
 10
-26.74012564350627
 20
47.63672518385194
 30
0.0
  0
VERTEX
  5
A0F
  8
LAYER_1
 10
-26.93106458712455
 20
47.74055376236558
 30
0.0
  0
VERTEX
  5
A10
  8
LAYER_1
 10
-27.13464079284115
 20
47.84184970406049
 30
0.0
  0
VERTEX
  5
A11
  8
LAYER_1
 10
-27.34581443227737
 20
47.93799259656502
 30
0.0
  0
VERTEX
  5
A12
  8
LAYER_1
 10
-27.55954567705448
 20
48.02636202750752
 30
0.0
  0
VERTEX
  5
A13
  8
LAYER_1
 10
-27.77079469879376
 20
48.10433758451636
 30
0.0
  0
VERTEX
  5
A14
  8
LAYER_1
 10
-28.17079048854615
 20
48.23617021965819
 30
0.0
  0
VERTEX
  5
A15
  8
LAYER_1
 10
-28.30217432242426
 20
48.2727587787286
 30
0.0
  0
VERTEX
  5
A16
  8
LAYER_1
 10
-28.3915915297273
 20
48.29023229135111
 30
0.0
  0
VERTEX
  5
A17
  8
LAYER_1
 10
-28.44187417102297
 20
48.28891835194005
 30
0.0
  0
VERTEX
  5
A18
  8
LAYER_1
 10
-28.45322504834545
 20
48.28131846097641
 30
0.0
  0
VERTEX
  5
A19
  8
LAYER_1
 10
-28.45585430687899
 20
48.26914455490974
 30
0.0
  0
VERTEX
  5
A1A
  8
LAYER_1
 10
-28.43636399786308
 20
48.23123849467451
 30
0.0
  0
VERTEX
  5
A1B
  8
LAYER_1
 10
-28.38623530454295
 20
48.17552776564871
 30
0.0
  0
VERTEX
  5
A1C
  8
LAYER_1
 10
-28.29076734531136
 20
48.06972064987309
 30
0.0
  0
VERTEX
  5
A1D
  8
LAYER_1
 10
-28.19879463213053
 20
47.94752241942767
 30
0.0
  0
VERTEX
  5
A1E
  8
LAYER_1
 10
-28.11155403015289
 20
47.81135786801613
 30
0.0
  0
VERTEX
  5
A1F
  8
LAYER_1
 10
-28.03028240453088
 20
47.66365178934215
 30
0.0
  0
VERTEX
  5
A20
  8
LAYER_1
 10
-27.95621662041695
 20
47.50682897710942
 30
0.0
  0
VERTEX
  5
A21
  8
LAYER_1
 10
-27.89059354296354
 20
47.34331422502161
 30
0.0
  0
VERTEX
  5
A22
  8
LAYER_1
 10
-27.83465003732309
 20
47.1755323267824
 30
0.0
  0
VERTEX
  5
A23
  8
LAYER_1
 10
-27.78962296864803
 20
47.00590807609549
 30
0.0
  0
VERTEX
  5
A24
  8
LAYER_1
 10
-27.68156731115597
 20
46.53750482946634
 30
0.0
  0
VERTEX
  5
A25
  8
LAYER_1
 10
-27.52315200379109
 20
44.06250473111868
 30
0.0
  0
VERTEX
  5
A26
  8
LAYER_1
 10
-27.41585800175992
 20
43.55800303755082
 30
0.0
  0
VERTEX
  5
A27
  8
LAYER_1
 10
-27.36857513957239
 20
43.35960223315108
 30
0.0
  0
VERTEX
  5
A28
  8
LAYER_1
 10
-27.31159689708382
 20
43.1623210700229
 30
0.0
  0
VERTEX
  5
A29
  8
LAYER_1
 10
-27.24547317187605
 20
42.96703024830832
 30
0.0
  0
VERTEX
  5
A2A
  8
LAYER_1
 10
-27.17075386153086
 20
42.77460046814936
 30
0.0
  0
VERTEX
  5
A2B
  8
LAYER_1
 10
-27.08798886363008
 20
42.58590242968804
 30
0.0
  0
VERTEX
  5
A2C
  8
LAYER_1
 10
-26.99772807575552
 20
42.4018068330664
 30
0.0
  0
VERTEX
  5
A2D
  8
LAYER_1
 10
-26.90052139548897
 20
42.22318437842647
 30
0.0
  0
VERTEX
  5
A2E
  8
LAYER_1
 10
-26.79691872041226
 20
42.05090576591027
 30
0.0
  0
VERTEX
  5
A2F
  8
LAYER_1
 10
-26.6874699481072
 20
41.88584169565983
 30
0.0
  0
VERTEX
  5
A30
  8
LAYER_1
 10
-26.57272497615559
 20
41.72886286781718
 30
0.0
  0
VERTEX
  5
A31
  8
LAYER_1
 10
-26.45323370213924
 20
41.58083998252435
 30
0.0
  0
VERTEX
  5
A32
  8
LAYER_1
 10
-26.32954602363997
 20
41.44264373992337
 30
0.0
  0
VERTEX
  5
A33
  8
LAYER_1
 10
-26.20221183823958
 20
41.31514484015626
 30
0.0
  0
VERTEX
  5
A34
  8
LAYER_1
 10
-26.07178104351989
 20
41.19921398336507
 30
0.0
  0
VERTEX
  5
A35
  8
LAYER_1
 10
-25.9388035370627
 20
41.09572186969181
 30
0.0
  0
VERTEX
  5
A36
  8
LAYER_1
 10
-25.80382921644983
 20
41.0055391992785
 30
0.0
  0
VERTEX
  5
A37
  8
LAYER_1
 10
-25.60666507567984
 20
40.88363668514173
 30
0.0
  0
VERTEX
  5
A38
  8
LAYER_1
 10
-25.46420773212241
 20
40.78527048326019
 30
0.0
  0
VERTEX
  5
A39
  8
LAYER_1
 10
-25.41290840382594
 20
40.74084516383228
 30
0.0
  0
VERTEX
  5
A3A
  8
LAYER_1
 10
-25.37458292826566
 20
40.69742191976874
 30
0.0
  0
VERTEX
  5
A3B
  8
LAYER_1
 10
-25.34899702325258
 20
40.65337341683644
 30
0.0
  0
VERTEX
  5
A3C
  8
LAYER_1
 10
-25.3359164065977
 20
40.60707232080225
 30
0.0
  0
VERTEX
  5
A3D
  8
LAYER_1
 10
-25.33510679611205
 20
40.55689129743302
 30
0.0
  0
VERTEX
  5
A3E
  8
LAYER_1
 10
-25.34633390960663
 20
40.50120301249558
 30
0.0
  0
VERTEX
  5
A3F
  8
LAYER_1
 10
-25.40396117978055
 20
40.36679532098358
 30
0.0
  0
VERTEX
  5
A40
  8
LAYER_1
 10
-25.65334799157581
 20
39.9602900928831
 30
0.0
  0
VERTEX
  5
A41
  8
LAYER_1
 10
-25.94537647957581
 20
39.51471556939754
 30
0.0
  0
VERTEX
  5
A42
  8
LAYER_1
 10
-26.24367256486756
 20
39.082023758112
 30
0.0
  0
VERTEX
  5
A43
  8
LAYER_1
 10
-26.54744791114617
 20
38.66322023866238
 30
0.0
  0
VERTEX
  5
A44
  8
LAYER_1
 10
-26.85591418210674
 20
38.25931059068456
 30
0.0
  0
VERTEX
  5
A45
  8
LAYER_1
 10
-27.16828304144435
 20
37.87130039381442
 30
0.0
  0
VERTEX
  5
A46
  8
LAYER_1
 10
-27.48376615285412
 20
37.50019522768784
 30
0.0
  0
VERTEX
  5
A47
  8
LAYER_1
 10
-27.80157518003112
 20
37.14700067194071
 30
0.0
  0
VERTEX
  5
A48
  8
LAYER_1
 10
-28.12092178667044
 20
36.81272230620891
 30
0.0
  0
VERTEX
  5
A49
  8
LAYER_1
 10
-28.68749815970659
 20
36.23794014653983
 30
0.0
  0
VERTEX
  5
A4A
  8
LAYER_1
 10
-28.57436380985601
 20
36.41250442713499
 30
0.0
  0
VERTEX
  5
A4B
  8
LAYER_1
 10
-28.15762395144552
 20
37.10811641562832
 30
0.0
  0
VERTEX
  5
A4C
  8
LAYER_1
 10
-27.85334986551378
 20
37.62805579329441
 30
0.0
  0
VERTEX
  5
A4D
  8
LAYER_1
 10
-27.60827315325906
 20
38.0783767844451
 30
0.0
  0
VERTEX
  5
A4E
  8
LAYER_1
 10
-27.41590796053811
 20
38.47753652763646
 30
0.0
  0
VERTEX
  5
A4F
  8
LAYER_1
 10
-27.33746535458305
 20
38.66369878704617
 30
0.0
  0
VERTEX
  5
A50
  8
LAYER_1
 10
-27.26976843320772
 20
38.84399216142459
 30
0.0
  0
VERTEX
  5
A51
  8
LAYER_1
 10
-27.21200646464422
 20
39.02072379309121
 30
0.0
  0
VERTEX
  5
A52
  8
LAYER_1
 10
-27.16336871712465
 20
39.19620082436556
 30
0.0
  0
VERTEX
  5
A53
  8
LAYER_1
 10
-27.1230444588811
 20
39.37273039756714
 30
0.0
  0
VERTEX
  5
A54
  8
LAYER_1
 10
-27.09022295814567
 20
39.55261965501548
 30
0.0
  0
VERTEX
  5
A55
  8
LAYER_1
 10
-27.04384530212756
 20
39.93170579193041
 30
0.0
  0
VERTEX
  5
A56
  8
LAYER_1
 10
-27.01774989492708
 20
40.35191637366646
 30
0.0
  0
VERTEX
  5
A57
  8
LAYER_1
 10
-27.00587372047814
 20
40.81827648971456
 30
0.0
  0
VERTEX
  5
A58
  8
LAYER_1
 10
-27.00898244666776
 20
41.00299937511226
 30
0.0
  0
VERTEX
  5
A59
  8
LAYER_1
 10
-27.01922963300293
 20
41.16782995729052
 30
0.0
  0
VERTEX
  5
A5A
  8
LAYER_1
 10
-27.03744571788576
 20
41.32207759514793
 30
0.0
  0
VERTEX
  5
A5B
  8
LAYER_1
 10
-27.06446113971837
 20
41.47505164758309
 30
0.0
  0
VERTEX
  5
A5C
  8
LAYER_1
 10
-27.14821174784139
 20
41.81441643178098
 30
0.0
  0
VERTEX
  5
A5D
  8
LAYER_1
 10
-27.21740428641047
 20
42.03923755272299
 30
0.0
  0
VERTEX
  5
A5E
  8
LAYER_1
 10
-27.30205390890168
 20
42.27285448701329
 30
0.0
  0
VERTEX
  5
A5F
  8
LAYER_1
 10
-27.3988588201308
 20
42.50842203845629
 30
0.0
  0
VERTEX
  5
A60
  8
LAYER_1
 10
-27.50451722491363
 20
42.73909501085645
 30
0.0
  0
VERTEX
  5
A61
  8
LAYER_1
 10
-27.61572732806592
 20
42.95802820801819
 30
0.0
  0
VERTEX
  5
A62
  8
LAYER_1
 10
-27.72918733440348
 20
43.15837643374599
 30
0.0
  0
VERTEX
  5
A63
  8
LAYER_1
 10
-27.84159544874208
 20
43.33329449184425
 30
0.0
  0
VERTEX
  5
A64
  8
LAYER_1
 10
-27.9496498758975
 20
43.47593718611743
 30
0.0
  0
VERTEX
  5
A65
  8
LAYER_1
 10
-28.31249814480543
 20
43.92593720399883
 30
0.0
  0
VERTEX
  5
A66
  8
LAYER_1
 10
-28.53749815374613
 20
44.21250473707914
 30
0.0
  0
VERTEX
  5
A67
  8
LAYER_1
 10
-28.58290716367502
 20
43.50000470876694
 30
0.0
  0
VERTEX
  5
A68
  8
LAYER_1
 10
-28.61479624943868
 20
43.12790795391016
 30
0.0
  0
VERTEX
  5
A69
  8
LAYER_1
 10
-28.6360390640389
 20
42.97611421691902
 30
0.0
  0
VERTEX
  5
A6A
  8
LAYER_1
 10
-28.66248643711412
 20
42.83975066442728
 30
0.0
  0
VERTEX
  5
A6B
  8
LAYER_1
 10
-28.69539265166138
 20
42.71326261459091
 30
0.0
  0
VERTEX
  5
A6C
  8
LAYER_1
 10
-28.73601199067771
 20
42.59109538556584
 30
0.0
  0
VERTEX
  5
A6D
  8
LAYER_1
 10
-28.84540717410583
 20
42.33750466257334
 30
0.0
  0
VERTEX
  5
A6E
  8
LAYER_1
 10
-29.06249817460775
 20
41.88750464469194
 30
0.0
  0
VERTEX
  5
A6F
  8
LAYER_1
 10
-30.51447799318895
 20
39.33750454336405
 30
0.0
  0
VERTEX
  5
A70
  8
LAYER_1
 10
-30.71749823714175
 20
38.67669748103624
 30
0.0
  0
VERTEX
  5
A71
  8
LAYER_1
 10
-30.82617230028214
 20
38.29574713588182
 30
0.0
  0
VERTEX
  5
A72
  8
LAYER_1
 10
-30.85999630484964
 20
38.13906747795046
 30
0.0
  0
VERTEX
  5
A73
  8
LAYER_1
 10
-30.88201143229692
 20
37.98768726600564
 30
0.0
  0
VERTEX
  5
A74
  8
LAYER_1
 10
-30.89361753828513
 20
37.82868332721436
 30
0.0
  0
VERTEX
  5
A75
  8
LAYER_1
 10
-30.89621447847547
 20
37.6491324887436
 30
0.0
  0
VERTEX
  5
A76
  8
LAYER_1
 10
-30.87998028410716
 20
37.1766974214316
 30
0.0
  0
VERTEX
  5
A77
  8
LAYER_1
 10
-30.86311285790003
 20
36.88493401353502
 30
0.0
  0
VERTEX
  5
A78
  8
LAYER_1
 10
-30.84100987565737
 20
36.6355720672311
 30
0.0
  0
VERTEX
  5
A79
  8
LAYER_1
 10
-30.81042770273178
 20
36.41539824963472
 30
0.0
  0
VERTEX
  5
A7A
  8
LAYER_1
 10
-30.76812270447587
 20
36.21119922786073
 30
0.0
  0
VERTEX
  5
A7B
  8
LAYER_1
 10
-30.71085124624225
 20
36.00976166902398
 30
0.0
  0
VERTEX
  5
A7C
  8
LAYER_1
 10
-30.63536969338352
 20
35.79787224023933
 30
0.0
  0
VERTEX
  5
A7D
  8
LAYER_1
 10
-30.41680176520115
 20
35.28988444128575
 30
0.0
  0
VERTEX
  5
A7E
  8
LAYER_1
 10
-30.32044013376003
 20
35.06713970831139
 30
0.0
  0
VERTEX
  5
A7F
  8
LAYER_1
 10
-30.27553881063837
 20
34.9229817875117
 30
0.0
  0
VERTEX
  5
A80
  8
LAYER_1
 10
-30.27099200561491
 20
34.87274914886817
 30
0.0
  0
VERTEX
  5
A81
  8
LAYER_1
 10
-30.27763776677239
 20
34.83301473389727
 30
0.0
  0
VERTEX
  5
A82
  8
LAYER_1
 10
-30.29491859047783
 20
34.80072904947533
 30
0.0
  0
VERTEX
  5
A83
  8
LAYER_1
 10
-30.32227697309828
 20
34.77284260247868
 30
0.0
  0
VERTEX
  5
A84
  8
LAYER_1
 10
-30.42521763771387
 20
34.68750435858965
 30
0.0
  0
VERTEX
  5
A85
  8
LAYER_1
 10
-32.18805319669452
 20
33.36305920385011
 30
0.0
  0
VERTEX
  5
A86
  8
LAYER_1
 10
-32.23865698172096
 20
33.41366298887543
 30
0.0
  0
VERTEX
  5
A87
  8
LAYER_1
 10
-31.91820120959795
 20
33.98160487033893
 30
0.0
  0
VERTEX
  5
A88
  8
LAYER_1
 10
-31.76164741345093
 20
34.27544986445186
 30
0.0
  0
VERTEX
  5
A89
  8
LAYER_1
 10
-31.62126384010592
 20
34.57314340707854
 30
0.0
  0
VERTEX
  5
A8A
  8
LAYER_1
 10
-31.49710424227581
 20
34.87419377759351
 30
0.0
  0
VERTEX
  5
A8B
  8
LAYER_1
 10
-31.38922237267352
 20
35.17810925537132
 30
0.0
  0
VERTEX
  5
A8C
  8
LAYER_1
 10
-31.29767198401196
 20
35.48439811978651
 30
0.0
  0
VERTEX
  5
A8D
  8
LAYER_1
 10
-31.22250682900404
 20
35.79256865021364
 30
0.0
  0
VERTEX
  5
A8E
  8
LAYER_1
 10
-31.16378066036267
 20
36.10212912602724
 30
0.0
  0
VERTEX
  5
A8F
  8
LAYER_1
 10
-31.12154723080076
 20
36.41258782660185
 30
0.0
  0
VERTEX
  5
A90
  8
LAYER_1
 10
-31.09586029303122
 20
36.72345303131203
 30
0.0
  0
VERTEX
  5
A91
  8
LAYER_1
 10
-31.08677359976696
 20
37.03423301953234
 30
0.0
  0
VERTEX
  5
A92
  8
LAYER_1
 10
-31.0943409037209
 20
37.3444360706373
 30
0.0
  0
VERTEX
  5
A93
  8
LAYER_1
 10
-31.11861595760594
 20
37.65357046400147
 30
0.0
  0
VERTEX
  5
A94
  8
LAYER_1
 10
-31.15965251413499
 20
37.96114447899939
 30
0.0
  0
VERTEX
  5
A95
  8
LAYER_1
 10
-31.21750432602096
 20
38.2666663950056
 30
0.0
  0
VERTEX
  5
A96
  8
LAYER_1
 10
-31.29222514597678
 20
38.56964449139466
 30
0.0
  0
VERTEX
  5
A97
  8
LAYER_1
 10
-31.38386872671534
 20
38.86958704754112
 30
0.0
  0
VERTEX
  5
A98
  8
LAYER_1
 10
-31.45931665554846
 20
39.07920244052002
 30
0.0
  0
VERTEX
  5
A99
  8
LAYER_1
 10
-31.54525516225901
 20
39.29109885526512
 30
0.0
  0
VERTEX
  5
A9A
  8
LAYER_1
 10
-31.63979248743021
 20
39.50160629599037
 30
0.0
  0
VERTEX
  5
A9B
  8
LAYER_1
 10
-31.74103687164525
 20
39.70705476690975
 30
0.0
  0
VERTEX
  5
A9C
  8
LAYER_1
 10
-31.84709655548735
 20
39.90377427223723
 30
0.0
  0
VERTEX
  5
A9D
  8
LAYER_1
 10
-31.95607977953972
 20
40.08809481618677
 30
0.0
  0
VERTEX
  5
A9E
  8
LAYER_1
 10
-32.06609478438556
 20
40.25634640297233
 30
0.0
  0
VERTEX
  5
A9F
  8
LAYER_1
 10
-32.17524981060807
 20
40.40485903680789
 30
0.0
  0
VERTEX
  5
AA0
  8
LAYER_1
 10
-32.30845519146188
 20
40.57420223721499
 30
0.0
  0
VERTEX
  5
AA1
  8
LAYER_1
 10
-32.35913210267316
 20
40.29335340370056
 30
0.0
  0
VERTEX
  5
AA2
  8
LAYER_1
 10
-32.41983120997334
 20
39.99197642359547
 30
0.0
  0
VERTEX
  5
AA3
  8
LAYER_1
 10
-32.49258691011818
 20
39.70803806551693
 30
0.0
  0
VERTEX
  5
AA4
  8
LAYER_1
 10
-32.58405518360765
 20
39.42599164179968
 30
0.0
  0
VERTEX
  5
AA5
  8
LAYER_1
 10
-32.70089201094174
 20
39.13029046477845
 30
0.0
  0
VERTEX
  5
AA6
  8
LAYER_1
 10
-32.8497533726204
 20
38.80538784678798
 30
0.0
  0
VERTEX
  5
AA7
  8
LAYER_1
 10
-33.03729524914363
 20
38.43573710016299
 30
0.0
  0
VERTEX
  5
AA8
  8
LAYER_1
 10
-33.27017362101141
 20
38.0057915372382
 30
0.0
  0
VERTEX
  5
AA9
  8
LAYER_1
 10
-33.55504446872369
 20
37.50000447034836
 30
0.0
  0
VERTEX
  5
AAA
  8
LAYER_1
 10
-33.74953881337596
 20
37.15037138830158
 30
0.0
  0
VERTEX
  5
AAB
  8
LAYER_1
 10
-33.92863209941707
 20
36.81143819194288
 30
0.0
  0
VERTEX
  5
AAC
  8
LAYER_1
 10
-34.08909777518801
 20
36.49036948437603
 30
0.0
  0
VERTEX
  5
AAD
  8
LAYER_1
 10
-34.22770928902972
 20
36.19432986870478
 30
0.0
  0
VERTEX
  5
AAE
  8
LAYER_1
 10
-34.3412400892832
 20
35.93048394803289
 30
0.0
  0
VERTEX
  5
AAF
  8
LAYER_1
 10
-34.4264636242894
 20
35.7059963254641
 30
0.0
  0
VERTEX
  5
AB0
  8
LAYER_1
 10
-34.4801533423893
 20
35.52803160410217
 30
0.0
  0
VERTEX
  5
AB1
  8
LAYER_1
 10
-34.49908269192387
 20
35.40375438705088
 30
0.0
  0
VERTEX
  5
AB2
  8
LAYER_1
 10
-34.50401925792973
 20
35.32875422083453
 30
0.0
  0
VERTEX
  5
AB3
  8
LAYER_1
 10
-34.51769137406414
 20
35.28739699967851
 30
0.0
  0
VERTEX
  5
AB4
  8
LAYER_1
 10
-34.52769962813243
 20
35.27920973146152
 30
0.0
  0
VERTEX
  5
AB5
  8
LAYER_1
 10
-34.53976740737632
 20
35.2792834850657
 30
0.0
  0
VERTEX
  5
AB6
  8
LAYER_1
 10
-34.56991572491548
 20
35.30401443847897
 30
0.0
  0
VERTEX
  5
AB7
  8
LAYER_1
 10
-34.60780469373084
 20
35.36119062140119
 30
0.0
  0
VERTEX
  5
AB8
  8
LAYER_1
 10
-34.65310268087161
 20
35.45041279531525
 30
0.0
  0
VERTEX
  5
AB9
  8
LAYER_1
 10
-34.76459917832625
 20
35.72339816205039
 30
0.0
  0
VERTEX
  5
ABA
  8
LAYER_1
 10
-34.83589799622425
 20
35.88989423959504
 30
0.0
  0
VERTEX
  5
ABB
  8
LAYER_1
 10
-34.93142278235008
 20
36.07539719818752
 30
0.0
  0
VERTEX
  5
ABC
  8
LAYER_1
 10
-35.04608915832666
 20
36.27231677006336
 30
0.0
  0
VERTEX
  5
ABD
  8
LAYER_1
 10
-35.17481274577689
 20
36.4730626874581
 30
0.0
  0
VERTEX
  5
ABE
  8
LAYER_1
 10
-35.31250916632368
 20
36.67004468260733
 30
0.0
  0
VERTEX
  5
ABF
  8
LAYER_1
 10
-35.45409404158994
 20
36.85567248774657
 30
0.0
  0
VERTEX
  5
AC0
  8
LAYER_1
 10
-35.59448299319857
 20
37.02235583511138
 30
0.0
  0
VERTEX
  5
AC1
  8
LAYER_1
 10
-35.72859164277249
 20
37.16250445693731
 30
0.0
  0
VERTEX
  5
AC2
  8
LAYER_1
 10
-35.96249844878912
 20
37.38750446587801
 30
0.0
  0
VERTEX
  5
AC3
  8
LAYER_1
 10
-36.00867036105188
 20
36.86250444501638
 30
0.0
  0
VERTEX
  5
AC4
  8
LAYER_1
 10
-36.03052983519898
 20
36.64063423935378
 30
0.0
  0
VERTEX
  5
AC5
  8
LAYER_1
 10
-36.06203872440035
 20
36.45025133962228
 30
0.0
  0
VERTEX
  5
AC6
  8
LAYER_1
 10
-36.11726863833998
 20
36.26311140619479
 30
0.0
  0
VERTEX
  5
AC7
  8
LAYER_1
 10
-36.21029118670181
 20
36.0509700994442
 30
0.0
  0
VERTEX
  5
AC8
  8
LAYER_1
 10
-36.35517797916982
 20
35.7855830797434
 30
0.0
  0
VERTEX
  5
AC9
  8
LAYER_1
 10
-36.56600062542795
 20
35.4387060074653
 30
0.0
  0
VERTEX
  5
ACA
  8
LAYER_1
 10
-37.24173991805043
 20
34.38750434666872
 30
0.0
  0
VERTEX
  5
ACB
  8
LAYER_1
 10
-37.40991339200054
 20
34.11310980451526
 30
0.0
  0
VERTEX
  5
ACC
  8
LAYER_1
 10
-37.58004261091511
 20
33.80953557370231
 30
0.0
  0
VERTEX
  5
ACD
  8
LAYER_1
 10
-37.73227537081993
 20
33.51369571819669
 30
0.0
  0
VERTEX
  5
ACE
  8
LAYER_1
 10
-37.84675946774078
 20
33.26250430196524
 30
0.0
  0
VERTEX
  5
ACF
  8
LAYER_1
 10
-37.96088694400764
 20
32.9595774512409
 30
0.0
  0
VERTEX
  5
AD0
  8
LAYER_1
 10
-37.99878966386562
 20
32.82683593284352
 30
0.0
  0
VERTEX
  5
AD1
  8
LAYER_1
 10
-38.02611188660113
 20
32.69323091373288
 30
0.0
  0
VERTEX
  5
AD2
  8
LAYER_1
 10
-38.04449874851002
 20
32.54875381489165
 30
0.0
  0
VERTEX
  5
AD3
  8
LAYER_1
 10
-38.05559538588815
 20
32.38339605730252
 30
0.0
  0
VERTEX
  5
AD4
  8
LAYER_1
 10
-38.06249853223562
 20
31.95000424981117
 30
0.0
  0
VERTEX
  5
AD5
  8
LAYER_1
 10
-38.05620990817346
 20
31.52882302830857
 30
0.0
  0
VERTEX
  5
AD6
  8
LAYER_1
 10
-38.04655106195598
 20
31.3711929716472
 30
0.0
  0
VERTEX
  5
AD7
  8
LAYER_1
 10
-38.03095091193442
 20
31.23852633243065
 30
0.0
  0
VERTEX
  5
AD8
  8
LAYER_1
 10
-38.00821074734893
 20
31.1230653966976
 30
0.0
  0
VERTEX
  5
AD9
  8
LAYER_1
 10
-37.97713185743963
 20
31.01705245048671
 30
0.0
  0
VERTEX
  5
ADA
  8
LAYER_1
 10
-37.88516305861024
 20
30.80233967078601
 30
0.0
  0
VERTEX
  5
ADB
  8
LAYER_1
 10
-37.76794967398889
 20
30.54034853086675
 30
0.0
  0
VERTEX
  5
ADC
  8
LAYER_1
 10
-37.73854208031126
 20
30.45471584974621
 30
0.0
  0
VERTEX
  5
ADD
  8
LAYER_1
 10
-37.73516305264977
 20
30.41621792106852
 30
0.0
  0
VERTEX
  5
ADE
  8
LAYER_1
 10
-37.76249852031469
 20
30.39026071908376
 30
0.0
  0
VERTEX
  5
ADF
  8
LAYER_1
 10
-38.84261634176357
 20
29.96721647095259
 30
0.0
  0
VERTEX
  5
AE0
  8
LAYER_1
 10
-39.37991517784337
 20
29.764069254349
 30
0.0
  0
VERTEX
  5
AE1
  8
LAYER_1
 10
-40.04439916871481
 20
29.52367377524111
 30
0.0
  0
VERTEX
  5
AE2
  8
LAYER_1
 10
-40.75159534236899
 20
29.27608203262098
 30
0.0
  0
VERTEX
  5
AE3
  8
LAYER_1
 10
-41.417030726797
 20
29.05134602548065
 30
0.0
  0
VERTEX
  5
AE4
  8
LAYER_1
 10
-42.91132729038155
 20
28.55851982813985
 30
0.0
  0
VERTEX
  5
AE5
  8
LAYER_1
 10
-43.14413242210961
 20
28.60508085448545
 30
0.0
  0
VERTEX
  5
AE6
  8
LAYER_1
 10
-43.2911636669714
 20
28.6435772399156
 30
0.0
  0
VERTEX
  5
AE7
  8
LAYER_1
 10
-43.51939910448969
 20
28.71397469896273
 30
0.0
  0
VERTEX
  5
AE8
  8
LAYER_1
 10
-44.09471817714709
 20
28.91039973485891
 30
0.0
  0
VERTEX
  5
AE9
  8
LAYER_1
 10
-45.59999883174896
 20
29.44315563523129
 30
0.0
  0
VERTEX
  5
AEA
  8
LAYER_1
 10
-46.24859482203566
 20
29.67821042129092
 30
0.0
  0
VERTEX
  5
AEB
  8
LAYER_1
 10
-46.70213407388876
 20
29.85857892695047
 30
0.0
  0
VERTEX
  5
AEC
  8
LAYER_1
 10
-46.93451584850017
 20
29.95846050649633
 30
0.0
  0
VERTEX
  5
AED
  8
LAYER_1
 10
-47.05139279775898
 20
30.00000417232513
 30
0.0
  0
VERTEX
  5
AEE
  8
LAYER_1
 10
-47.21982521793802
 20
30.064603429039
 30
0.0
  0
VERTEX
  5
AEF
  8
LAYER_1
 10
-47.57615950774066
 20
30.21991653560639
 30
0.0
  0
VERTEX
  5
AF0
  8
LAYER_1
 10
-48.06630270469949
 20
30.43982889888765
 30
0.0
  0
VERTEX
  5
AF1
  8
LAYER_1
 10
-47.93043310075153
 20
30.72616655572295
 30
0.0
  0
VERTEX
  5
AF2
  8
LAYER_1
 10
-47.87006060857091
 20
30.87649406308116
 30
0.0
  0
VERTEX
  5
AF3
  8
LAYER_1
 10
-47.80611931109659
 20
31.07413148110138
 30
0.0
  0
VERTEX
  5
AF4
  8
LAYER_1
 10
-47.74623484204431
 20
31.29340400403566
 30
0.0
  0
VERTEX
  5
AF5
  8
LAYER_1
 10
-47.69803283512975
 20
31.50863682613607
 30
0.0
  0
VERTEX
  5
AF6
  8
LAYER_1
 10
-47.66493047173988
 20
31.72963133962861
 30
0.0
  0
VERTEX
  5
AF7
  8
LAYER_1
 10
-47.65100259296383
 20
31.95370576595465
 30
0.0
  0
VERTEX
  5
AF8
  8
LAYER_1
 10
-47.65623779174
 20
32.18078236350021
 30
0.0
  0
VERTEX
  5
AF9
  8
LAYER_1
 10
-47.68062466100675
 20
32.4107833906513
 30
0.0
  0
VERTEX
  5
AFA
  8
LAYER_1
 10
-47.72415179370244
 20
32.64363110579392
 30
0.0
  0
VERTEX
  5
AFB
  8
LAYER_1
 10
-47.78680778276547
 20
32.87924776731406
 30
0.0
  0
VERTEX
  5
AFC
  8
LAYER_1
 10
-47.86858122113421
 20
33.11755563359772
 30
0.0
  0
VERTEX
  5
AFD
  8
LAYER_1
 10
-47.96946070174704
 20
33.35847696303092
 30
0.0
  0
VERTEX
  5
AFE
  8
LAYER_1
 10
-48.09696582762372
 20
33.64983657969292
 30
0.0
  0
VERTEX
  5
AFF
  8
LAYER_1
 10
-48.14999893307686
 20
33.79429275555863
 30
0.0
  0
VERTEX
  5
B00
  8
LAYER_1
 10
-48.14999893307686
 20
33.83413587509973
 30
0.0
  0
VERTEX
  5
B01
  8
LAYER_1
 10
-48.65027239631637
 20
34.59832013025573
 30
0.0
  0
VERTEX
  5
B02
  8
LAYER_1
 10
-48.93469668718893
 20
35.03837026654005
 30
0.0
  0
VERTEX
  5
B03
  8
LAYER_1
 10
-49.16416930072555
 20
35.40791859267106
 30
0.0
  0
VERTEX
  5
B04
  8
LAYER_1
 10
-49.34465877551361
 20
35.71949240436653
 30
0.0
  0
VERTEX
  5
B05
  8
LAYER_1
 10
-49.48213365014053
 20
35.98561899734426
 30
0.0
  0
VERTEX
  5
B06
  8
LAYER_1
 10
-49.58256246319367
 20
36.21882566732202
 30
0.0
  0
VERTEX
  5
B07
  8
LAYER_1
 10
-49.65191375326045
 20
36.43163971001761
 30
0.0
  0
VERTEX
  5
B08
  8
LAYER_1
 10
-49.69615605892827
 20
36.63658842114878
 30
0.0
  0
VERTEX
  5
B09
  8
LAYER_1
 10
-49.72125791878449
 20
36.84619909643335
 30
0.0
  0
VERTEX
  5
B0A
  8
LAYER_1
 10
-49.76249899715185
 20
37.35489376871195
 30
0.0
  0
VERTEX
  5
B0B
  8
LAYER_1
 10
-49.99704733189741
 20
37.14008135435034
 30
0.0
  0
VERTEX
  5
B0C
  8
LAYER_1
 10
-50.13430884310419
 20
37.00071413459555
 30
0.0
  0
VERTEX
  5
B0D
  8
LAYER_1
 10
-50.27683857744089
 20
36.83122726170966
 30
0.0
  0
VERTEX
  5
B0E
  8
LAYER_1
 10
-50.42002833098479
 20
36.63886557650895
 30
0.0
  0
VERTEX
  5
B0F
  8
LAYER_1
 10
-50.55926989981316
 20
36.43087391980968
 30
0.0
  0
VERTEX
  5
B10
  8
LAYER_1
 10
-50.68995508000328
 20
36.21449713242813
 30
0.0
  0
VERTEX
  5
B11
  8
LAYER_1
 10
-50.80747566763243
 20
35.99698005518056
 30
0.0
  0
VERTEX
  5
B12
  8
LAYER_1
 10
-50.90722345877791
 20
35.78556752888323
 30
0.0
  0
VERTEX
  5
B13
  8
LAYER_1
 10
-50.98459024951697
 20
35.58750439435244
 30
0.0
  0
VERTEX
  5
B14
  8
LAYER_1
 10
-51.13851713653989
 20
35.13750437647104
 30
0.0
  0
VERTEX
  5
B15
  8
LAYER_1
 10
-51.17106096687505
 20
35.25000438094139
 30
0.0
  0
VERTEX
  5
B16
  8
LAYER_1
 10
-51.31876163827264
 20
35.72354984937419
 30
0.0
  0
VERTEX
  5
B17
  8
LAYER_1
 10
-51.47438328969186
 20
36.13737251687353
 30
0.0
  0
VERTEX
  5
B18
  8
LAYER_1
 10
-51.65652485699019
 20
36.53622219637772
 30
0.0
  0
VERTEX
  5
B19
  8
LAYER_1
 10
-51.88378527602507
 20
36.9648487008251
 30
0.0
  0
VERTEX
  5
B1A
  8
LAYER_1
 10
-52.47857055389255
 20
38.04840032204814
 30
0.0
  0
VERTEX
  5
B1B
  8
LAYER_1
 10
-52.69421199001174
 20
38.46141824157637
 30
0.0
  0
VERTEX
  5
B1C
  8
LAYER_1
 10
-52.86533904142092
 20
38.80979955585511
 30
0.0
  0
VERTEX
  5
B1D
  8
LAYER_1
 10
-52.99944152099481
 20
39.10944575648889
 30
0.0
  0
VERTEX
  5
B1E
  8
LAYER_1
 10
-53.10400924160815
 20
39.37625833508224
 30
0.0
  0
VERTEX
  5
B1F
  8
LAYER_1
 10
-53.18653201613571
 20
39.6261387832397
 30
0.0
  0
VERTEX
  5
B20
  8
LAYER_1
 10
-53.25449965745222
 20
39.87498859256578
 30
0.0
  0
VERTEX
  5
B21
  8
LAYER_1
 10
-53.35451540168656
 20
40.26398069262167
 30
0.0
  0
VERTEX
  5
B22
  8
LAYER_1
 10
-53.38999279252573
 20
40.37946728081054
 30
0.0
  0
VERTEX
  5
B23
  8
LAYER_1
 10
-53.42021291714334
 20
40.4499948487576
 30
0.0
  0
VERTEX
  5
B24
  8
LAYER_1
 10
-53.44849806651221
 20
40.48134886220099
 30
0.0
  0
VERTEX
  5
B25
  8
LAYER_1
 10
-53.47817053160517
 20
40.47931478687888
 30
0.0
  0
VERTEX
  5
B26
  8
LAYER_1
 10
-53.55496657285466
 20
40.39822423289084
 30
0.0
  0
VERTEX
  5
B27
  8
LAYER_1
 10
-53.65500011920764
 20
40.25777596510628
 30
0.0
  0
VERTEX
  5
B28
  8
LAYER_1
 10
-53.76603307642155
 20
40.07919598673386
 30
0.0
  0
VERTEX
  5
B29
  8
LAYER_1
 10
-53.88295690567023
 20
39.87258507789305
 30
0.0
  0
VERTEX
  5
B2A
  8
LAYER_1
 10
-54.0006630681275
 20
39.64804401870332
 30
0.0
  0
VERTEX
  5
B2B
  8
LAYER_1
 10
-54.11404302496721
 20
39.41567358928411
 30
0.0
  0
VERTEX
  5
B2C
  8
LAYER_1
 10
-54.21798823736319
 20
39.18557456975492
 30
0.0
  0
VERTEX
  5
B2D
  8
LAYER_1
 10
-54.30739016648927
 20
38.96784774023519
 30
0.0
  0
VERTEX
  5
B2E
  8
LAYER_1
 10
-54.37714027351929
 20
38.77259388084438
 30
0.0
  0
VERTEX
  5
B2F
  8
LAYER_1
 10
-54.46133443871555
 20
38.4849365167611
 30
0.0
  0
VERTEX
  5
B30
  8
LAYER_1
 10
-54.52944715938322
 20
38.19459080366333
 30
0.0
  0
VERTEX
  5
B31
  8
LAYER_1
 10
-54.58151083825642
 20
37.90183063285852
 30
0.0
  0
VERTEX
  5
B32
  8
LAYER_1
 10
-54.61755787806926
 20
37.60692989565413
 30
0.0
  0
VERTEX
  5
B33
  8
LAYER_1
 10
-54.63762068155584
 20
37.31016248335757
 30
0.0
  0
VERTEX
  5
B34
  8
LAYER_1
 10
-54.64173165145029
 20
37.01180228727632
 30
0.0
  0
VERTEX
  5
B35
  8
LAYER_1
 10
-54.62992319048674
 20
36.71212319871781
 30
0.0
  0
VERTEX
  5
B36
  8
LAYER_1
 10
-54.60222770139926
 20
36.41139910898951
 30
0.0
  0
VERTEX
  5
B37
  8
LAYER_1
 10
-54.55867758692199
 20
36.10990390939884
 30
0.0
  0
VERTEX
  5
B38
  8
LAYER_1
 10
-54.49930524978906
 20
35.80791149125326
 30
0.0
  0
VERTEX
  5
B39
  8
LAYER_1
 10
-54.42414309273455
 20
35.50569574586022
 30
0.0
  0
VERTEX
  5
B3A
  8
LAYER_1
 10
-54.3332235184926
 20
35.20353056452716
 30
0.0
  0
VERTEX
  5
B3B
  8
LAYER_1
 10
-54.22657892979732
 20
34.90168983856153
 30
0.0
  0
VERTEX
  5
B3C
  8
LAYER_1
 10
-54.10424172938282
 20
34.60044745927078
 30
0.0
  0
VERTEX
  5
B3D
  8
LAYER_1
 10
-53.9662443199832
 20
34.30007731796237
 30
0.0
  0
VERTEX
  5
B3E
  8
LAYER_1
 10
-53.8126191043326
 20
34.00085330594372
 30
0.0
  0
VERTEX
  5
B3F
  8
LAYER_1
 10
-53.47422859799285
 20
33.37500430643559
 30
0.0
  0
VERTEX
  5
B40
  8
LAYER_1
 10
-53.553087698152
 20
33.37500430643559
 30
0.0
  0
VERTEX
  5
B41
  8
LAYER_1
 10
-55.31236574574614
 20
34.68750435858965
 30
0.0
  0
VERTEX
  5
B42
  8
LAYER_1
 10
-55.41219238542174
 20
34.76589272122986
 30
0.0
  0
VERTEX
  5
B43
  8
LAYER_1
 10
-55.43789960462427
 20
34.79178532057396
 30
0.0
  0
VERTEX
  5
B44
  8
LAYER_1
 10
-55.45370763613855
 20
34.82337954551748
 30
0.0
  0
VERTEX
  5
B45
  8
LAYER_1
 10
-55.45909329676438
 20
34.86335853047594
 30
0.0
  0
VERTEX
  5
B46
  8
LAYER_1
 10
-55.45353340330154
 20
34.9144054098649
 30
0.0
  0
VERTEX
  5
B47
  8
LAYER_1
 10
-55.40748422130902
 20
35.06043538959661
 30
0.0
  0
VERTEX
  5
B48
  8
LAYER_1
 10
-55.31137462455929
 20
35.28293456003706
 30
0.0
  0
VERTEX
  5
B49
  8
LAYER_1
 10
-55.13647653716829
 20
35.68319629706027
 30
0.0
  0
VERTEX
  5
B4A
  8
LAYER_1
 10
-54.99773284696249
 20
36.02954623017942
 30
0.0
  0
VERTEX
  5
B4B
  8
LAYER_1
 10
-54.88473546990374
 20
36.33750442415476
 30
0.0
  0
VERTEX
  5
B4C
  8
LAYER_1
 10
-54.84715521277156
 20
37.20000445842743
 30
0.0
  0
VERTEX
  5
B4D
  8
LAYER_1
 10
-54.83182515894944
 20
37.69460921843529
 30
0.0
  0
VERTEX
  5
B4E
  8
LAYER_1
 10
-54.83540393265858
 20
37.87851479714568
 30
0.0
  0
VERTEX
  5
B4F
  8
LAYER_1
 10
-54.84898338491075
 20
38.04052016976871
 30
0.0
  0
VERTEX
  5
B50
  8
LAYER_1
 10
-54.87444212430313
 20
38.19589858238564
 30
0.0
  0
VERTEX
  5
B51
  8
LAYER_1
 10
-54.91365875943288
 20
38.35992328107772
 30
0.0
  0
VERTEX
  5
B52
  8
LAYER_1
 10
-55.04088015129317
 20
38.77500452101231
 30
0.0
  0
VERTEX
  5
B53
  8
LAYER_1
 10
-55.27218534694694
 20
39.48750454932451
 30
0.0
  0
VERTEX
  5
B54
  8
LAYER_1
 10
-56.66523839631046
 20
41.88750464469194
 30
0.0
  0
VERTEX
  5
B55
  8
LAYER_1
 10
-56.88155036375694
 20
42.33750466257334
 30
0.0
  0
VERTEX
  5
B56
  8
LAYER_1
 10
-56.99038034337423
 20
42.59082710638517
 30
0.0
  0
VERTEX
  5
B57
  8
LAYER_1
 10
-57.03083077157817
 20
42.71298978175385
 30
0.0
  0
VERTEX
  5
B58
  8
LAYER_1
 10
-57.06361294255059
 20
42.83944561126975
 30
0.0
  0
VERTEX
  5
B59
  8
LAYER_1
 10
-57.08995794417019
 20
42.97566373381193
 30
0.0
  0
VERTEX
  5
B5A
  8
LAYER_1
 10
-57.11109686431567
 20
43.12711328825939
 30
0.0
  0
VERTEX
  5
B5B
  8
LAYER_1
 10
-57.14268081169913
 20
43.49758324838643
 30
0.0
  0
VERTEX
  5
B5C
  8
LAYER_1
 10
-57.18749929219484
 20
44.20766181631815
 30
0.0
  0
VERTEX
  5
B5D
  8
LAYER_1
 10
-57.44932628848512
 20
43.87258326328759
 30
0.0
  0
VERTEX
  5
B5E
  8
LAYER_1
 10
-57.82853885275635
 20
43.40771671834462
 30
0.0
  0
VERTEX
  5
B5F
  8
LAYER_1
 10
-57.91621726012237
 20
43.29273830176125
 30
0.0
  0
VERTEX
  5
B60
  8
LAYER_1
 10
-58.01495758433322
 20
43.13274636393762
 30
0.0
  0
VERTEX
  5
B61
  8
LAYER_1
 10
-58.12006233628588
 20
42.93786935552541
 30
0.0
  0
VERTEX
  5
B62
  8
LAYER_1
 10
-58.22683402687731
 20
42.71823572717627
 30
0.0
  0
VERTEX
  5
B63
  8
LAYER_1
 10
-58.33057516700447
 20
42.48397392954186
 30
0.0
  0
VERTEX
  5
B64
  8
LAYER_1
 10
-58.42658826756432
 20
42.24521241327385
 30
0.0
  0
VERTEX
  5
B65
  8
LAYER_1
 10
-58.51017583945385
 20
42.01207962902389
 30
0.0
  0
VERTEX
  5
B66
  8
LAYER_1
 10
-58.57664039357
 20
41.79470402744363
 30
0.0
  0
VERTEX
  5
B67
  8
LAYER_1
 10
-58.63339978278962
 20
41.54393940137459
 30
0.0
  0
VERTEX
  5
B68
  8
LAYER_1
 10
-58.67681337426813
 20
41.26240505205105
 30
0.0
  0
VERTEX
  5
B69
  8
LAYER_1
 10
-58.70657189278695
 20
40.96113305312615
 30
0.0
  0
VERTEX
  5
B6A
  8
LAYER_1
 10
-58.72236606312748
 20
40.65115547825309
 30
0.0
  0
VERTEX
  5
B6B
  8
LAYER_1
 10
-58.72388661007116
 20
40.34350440108501
 30
0.0
  0
VERTEX
  5
B6C
  8
LAYER_1
 10
-58.71082425839938
 20
40.04921189527509
 30
0.0
  0
VERTEX
  5
B6D
  8
LAYER_1
 10
-58.68286973289359
 20
39.77931003447651
 30
0.0
  0
VERTEX
  5
B6E
  8
LAYER_1
 10
-58.63971375833519
 20
39.54483089234242
 30
0.0
  0
VERTEX
  5
B6F
  8
LAYER_1
 10
-58.56886128034599
 20
39.28124397961918
 30
0.0
  0
VERTEX
  5
B70
  8
LAYER_1
 10
-58.47902339404003
 20
39.00257380660371
 30
0.0
  0
VERTEX
  5
B71
  8
LAYER_1
 10
-58.37185097125378
 20
38.71262441343934
 30
0.0
  0
VERTEX
  5
B72
  8
LAYER_1
 10
-58.24899488382363
 20
38.41519984026938
 30
0.0
  0
VERTEX
  5
B73
  8
LAYER_1
 10
-58.11210600358607
 20
38.11410412723711
 30
0.0
  0
VERTEX
  5
B74
  8
LAYER_1
 10
-57.96283520237752
 20
37.81314131448586
 30
0.0
  0
VERTEX
  5
B75
  8
LAYER_1
 10
-57.80283335203441
 20
37.51611544215892
 30
0.0
  0
VERTEX
  5
B76
  8
LAYER_1
 10
-57.6337513243932
 20
37.22683055039961
 30
0.0
  0
VERTEX
  5
B77
  8
LAYER_1
 10
-57.17042948417263
 20
36.46615661107936
 30
0.0
  0
VERTEX
  5
B78
  8
LAYER_1
 10
-57.03749928623438
 20
36.23103899691756
 30
0.0
  0
VERTEX
  5
B79
  8
LAYER_1
 10
-57.562499307096
 20
36.77222923372908
 30
0.0
  0
VERTEX
  5
B7A
  8
LAYER_1
 10
-57.89461904160783
 20
37.12228364372628
 30
0.0
  0
VERTEX
  5
B7B
  8
LAYER_1
 10
-58.20892928924578
 20
37.4703135838182
 30
0.0
  0
VERTEX
  5
B7C
  8
LAYER_1
 10
-58.51135113398254
 20
37.82384628991279
 30
0.0
  0
VERTEX
  5
B7D
  8
LAYER_1
 10
-58.80780565979079
 20
38.19040899791806
 30
0.0
  0
VERTEX
  5
B7E
  8
LAYER_1
 10
-59.10421395064324
 20
38.57752894374201
 30
0.0
  0
VERTEX
  5
B7F
  8
LAYER_1
 10
-59.40649709051257
 20
38.99273336329264
 30
0.0
  0
VERTEX
  5
B80
  8
LAYER_1
 10
-59.72057616337148
 20
39.44354949247794
 30
0.0
  0
VERTEX
  5
B81
  8
LAYER_1
 10
-60.05237225319265
 20
39.93750456720591
 30
0.0
  0
VERTEX
  5
B82
  8
LAYER_1
 10
-60.44921325650452
 20
40.53750459104776
 30
0.0
  0
VERTEX
  5
B83
  8
LAYER_1
 10
-60.44960633916973
 20
40.63125459477305
 30
0.0
  0
VERTEX
  5
B84
  8
LAYER_1
 10
-60.4408820123206
 20
40.66765596340701
 30
0.0
  0
VERTEX
  5
B85
  8
LAYER_1
 10
-60.41683707748887
 20
40.69746553490404
 30
0.0
  0
VERTEX
  5
B86
  8
LAYER_1
 10
-60.3811500430463
 20
40.7176071372669
 30
0.0
  0
VERTEX
  5
B87
  8
LAYER_1
 10
-60.3374994173646
 20
40.72500459849834
 30
0.0
  0
VERTEX
  5
B88
  8
LAYER_1
 10
-60.29381777500384
 20
40.72957679803886
 30
0.0
  0
VERTEX
  5
B89
  8
LAYER_1
 10
-60.25804628920741
 20
40.74202585619373
 30
0.0
  0
VERTEX
  5
B8A
  8
LAYER_1
 10
-60.23387636637199
 20
40.76045046226295
 30
0.0
  0
VERTEX
  5
B8B
  8
LAYER_1
 10
-60.22499941289425
 20
40.78294930554648
 30
0.0
  0
VERTEX
  5
B8C
  8
LAYER_1
 10
-60.20402327155587
 20
40.81674454672751
 30
0.0
  0
VERTEX
  5
B8D
  8
LAYER_1
 10
-60.14691001543651
 20
40.86592667182456
 30
0.0
  0
VERTEX
  5
B8E
  8
LAYER_1
 10
-60.06238239637986
 20
40.92389685814064
 30
0.0
  0
VERTEX
  5
B8F
  8
LAYER_1
 10
-59.9591631662296
 20
40.98405628297874
 30
0.0
  0
VERTEX
  5
B90
  8
LAYER_1
 10
-59.86942624765486
 20
41.04008744698584
 30
0.0
  0
VERTEX
  5
B91
  8
LAYER_1
 10
-59.76662974726978
 20
41.11819874969107
 30
0.0
  0
VERTEX
  5
B92
  8
LAYER_1
 10
-59.52673375982698
 20
41.33586282506054
 30
0.0
  0
VERTEX
  5
B93
  8
LAYER_1
 10
-59.24922672141787
 20
41.62745061681643
 30
0.0
  0
VERTEX
  5
B94
  8
LAYER_1
 10
-58.94386014955914
 20
41.98336423268799
 30
0.0
  0
VERTEX
  5
B95
  8
LAYER_1
 10
-58.8685188698678
 20
42.09449274235953
 30
0.0
  0
VERTEX
  5
B96
  8
LAYER_1
 10
-58.78254470010205
 20
42.25331973419812
 30
0.0
  0
VERTEX
  5
B97
  8
LAYER_1
 10
-58.69073620443541
 20
42.44799024356549
 30
0.0
  0
VERTEX
  5
B98
  8
LAYER_1
 10
-58.59789194704138
 20
42.66664930582336
 30
0.0
  0
VERTEX
  5
B99
  8
LAYER_1
 10
-58.50881049209345
 20
42.89744195633345
 30
0.0
  0
VERTEX
  5
B9A
  8
LAYER_1
 10
-58.42829040376512
 20
43.12851323045749
 30
0.0
  0
VERTEX
  5
B9B
  8
LAYER_1
 10
-58.36113024622991
 20
43.3480081635572
 30
0.0
  0
VERTEX
  5
B9C
  8
LAYER_1
 10
-58.31212858366131
 20
43.54407179099428
 30
0.0
  0
VERTEX
  5
B9D
  8
LAYER_1
 10
-58.2019941281355
 20
44.06250473111868
 30
0.0
  0
VERTEX
  5
B9E
  8
LAYER_1
 10
-58.04958603018366
 20
46.46250482648611
 30
0.0
  0
VERTEX
  5
B9F
  8
LAYER_1
 10
-57.96602366167296
 20
46.87500484287739
 30
0.0
  0
VERTEX
  5
BA0
  8
LAYER_1
 10
-57.92389083747213
 20
47.05080933978651
 30
0.0
  0
VERTEX
  5
BA1
  8
LAYER_1
 10
-57.86883098780685
 20
47.22978518868802
 30
0.0
  0
VERTEX
  5
BA2
  8
LAYER_1
 10
-57.80283919333077
 20
47.40766482206155
 30
0.0
  0
VERTEX
  5
BA3
  8
LAYER_1
 10
-57.72791053469751
 20
47.58018067238672
 30
0.0
  0
VERTEX
  5
BA4
  8
LAYER_1
 10
-57.64604009256075
 20
47.74306517214315
 30
0.0
  0
VERTEX
  5
BA5
  8
LAYER_1
 10
-57.55922294757407
 20
47.89205075381048
 30
0.0
  0
VERTEX
  5
BA6
  8
LAYER_1
 10
-57.46945418039115
 20
48.02286984986831
 30
0.0
  0
VERTEX
  5
BA7
  8
LAYER_1
 10
-57.3787288716656
 20
48.13125489279628
 30
0.0
  0
VERTEX
  5
BA8
  8
LAYER_1
 10
-57.31626989256694
 20
48.20204495758617
 30
0.0
  0
VERTEX
  5
BA9
  8
LAYER_1
 10
-57.28483223562708
 20
48.25199299791844
 30
0.0
  0
VERTEX
  5
BAA
  8
LAYER_1
 10
-57.28189901841213
 20
48.2690973462914
 30
0.0
  0
VERTEX
  5
BAB
  8
LAYER_1
 10
-57.28810427027142
 20
48.28092649340408
 30
0.0
  0
VERTEX
  5
BAC
  8
LAYER_1
 10
-57.32977436592539
 20
48.28867292365406
 30
0.0
  0
VERTEX
  5
BAD
  8
LAYER_1
 10
-57.41353089201441
 20
48.27505976827935
 30
0.0
  0
VERTEX
  5
BAE
  8
LAYER_1
 10
-57.54306221796391
 20
48.23991450689091
 30
0.0
  0
VERTEX
  5
BAF
  8
LAYER_1
 10
-57.95420274714601
 20
48.10433758451678
 30
0.0
  0
VERTEX
  5
BB0
  8
LAYER_1
 10
-58.16545176888447
 20
48.02636202750829
 30
0.0
  0
VERTEX
  5
BB1
  8
LAYER_1
 10
-58.37918301366143
 20
47.93799259656581
 30
0.0
  0
VERTEX
  5
BB2
  8
LAYER_1
 10
-58.59035665309798
 20
47.84184970406108
 30
0.0
  0
VERTEX
  5
BB3
  8
LAYER_1
 10
-58.79393285881519
 20
47.74055376236586
 30
0.0
  0
VERTEX
  5
BB4
  8
LAYER_1
 10
-58.98487180243413
 20
47.6367251838519
 30
0.0
  0
VERTEX
  5
BB5
  8
LAYER_1
 10
-59.15813365557588
 20
47.53298438089095
 30
0.0
  0
VERTEX
  5
BB6
  8
LAYER_1
 10
-59.30867858986152
 20
47.43195176585477
 30
0.0
  0
VERTEX
  5
BB7
  8
LAYER_1
 10
-59.43146677691212
 20
47.3362477511151
 30
0.0
  0
VERTEX
  5
BB8
  8
LAYER_1
 10
-59.50994037858747
 20
47.27119484480848
 30
0.0
  0
VERTEX
  5
BB9
  8
LAYER_1
 10
-59.54640563067184
 20
47.25228575377042
 30
0.0
  0
VERTEX
  5
BBA
  8
LAYER_1
 10
-59.55106254815996
 20
47.26072139894642
 30
0.0
  0
VERTEX
  5
BBB
  8
LAYER_1
 10
-59.54783028530137
 20
47.28139650990273
 30
0.0
  0
VERTEX
  5
BBC
  8
LAYER_1
 10
-59.52118209461216
 20
47.36040314510726
 30
0.0
  0
VERTEX
  5
BBD
  8
LAYER_1
 10
-59.46693001104143
 20
47.50830143392611
 30
0.0
  0
VERTEX
  5
BBE
  8
LAYER_1
 10
-59.18252046180117
 20
49.98750496655703
 30
0.0
  0
VERTEX
  5
BBF
  8
LAYER_1
 10
-59.09708987975613
 20
50.4000049829483
 30
0.0
  0
VERTEX
  5
BC0
  8
LAYER_1
 10
-58.99452416233975
 20
50.80839526414519
 30
0.0
  0
VERTEX
  5
BC1
  8
LAYER_1
 10
-58.86272563518084
 20
51.22569493050738
 30
0.0
  0
VERTEX
  5
BC2
  8
LAYER_1
 10
-58.73361428591357
 20
51.55995711749374
 30
0.0
  0
VERTEX
  5
BC3
  8
LAYER_1
 10
-58.68004129912498
 20
51.66721576105187
 30
0.0
  0
VERTEX
  5
BC4
  8
LAYER_1
 10
-58.63911010217212
 20
51.71923496056313
 30
0.0
  0
VERTEX
  5
BC5
  8
LAYER_1
 10
-58.60241469567408
 20
51.74783064703409
 30
0.0
  0
VERTEX
  5
BC6
  8
LAYER_1
 10
-58.58080427597928
 20
51.77707532392772
 30
0.0
  0
VERTEX
  5
BC7
  8
LAYER_1
 10
-58.57317746579963
 20
51.80485768325028
 30
0.0
  0
VERTEX
  5
BC8
  8
LAYER_1
 10
-58.57843288784699
 20
51.82906641700801
 30
0.0
  0
VERTEX
  5
BC9
  8
LAYER_1
 10
-58.59546916483328
 20
51.84759021720722
 30
0.0
  0
VERTEX
  5
BCA
  8
LAYER_1
 10
-58.62318491947038
 20
51.85831777585417
 30
0.0
  0
VERTEX
  5
BCB
  8
LAYER_1
 10
-58.66047877447017
 20
51.85913778495512
 30
0.0
  0
VERTEX
  5
BCC
  8
LAYER_1
 10
-58.70624935254455
 20
51.84793893651634
 30
0.0
  0
VERTEX
  5
BCD
  8
LAYER_1
 10
-58.80268483421344
 20
51.80374316350927
 30
0.0
  0
VERTEX
  5
BCE
  8
LAYER_1
 10
-58.93877405012049
 20
51.72773868874242
 30
0.0
  0
VERTEX
  5
BCF
  8
LAYER_1
 10
-59.30398237381551
 20
51.49744902164889
 30
0.0
  0
VERTEX
  5
BD0
  8
LAYER_1
 10
-59.75001170196248
 20
51.19136071067493
 30
0.0
  0
VERTEX
  5
BD1
  8
LAYER_1
 10
-60.22499941289425
 20
50.84376453125969
 30
0.0
  0
VERTEX
  5
BD2
  8
LAYER_1
 10
-60.59911234893113
 20
50.54298515716339
 30
0.0
  0
VERTEX
  5
BD3
  8
LAYER_1
 10
-60.95608452762932
 20
50.22072786285825
 30
0.0
  0
VERTEX
  5
BD4
  8
LAYER_1
 10
-61.29067362076479
 20
49.88326688267264
 30
0.0
  0
VERTEX
  5
BD5
  8
LAYER_1
 10
-61.59763730011352
 20
49.53687645093498
 30
0.0
  0
VERTEX
  5
BD6
  8
LAYER_1
 10
-61.87173323745148
 20
49.18783080197363
 30
0.0
  0
VERTEX
  5
BD7
  8
LAYER_1
 10
-62.10771910455463
 20
48.84240417011701
 30
0.0
  0
VERTEX
  5
BD8
  8
LAYER_1
 10
-62.20978253419815
 20
48.67300868383058
 30
0.0
  0
VERTEX
  5
BD9
  8
LAYER_1
 10
-62.30035257319895
 20
48.50687078969349
 30
0.0
  0
VERTEX
  5
BDA
  8
LAYER_1
 10
-62.37877393052904
 20
48.34477476699676
 30
0.0
  0
VERTEX
  5
BDB
  8
LAYER_1
 10
-62.44439131516041
 20
48.18750489503145
 30
0.0
  0
VERTEX
  5
BDC
  8
LAYER_1
 10
-62.52313307238875
 20
47.98855186423003
 30
0.0
  0
VERTEX
  5
BDD
  8
LAYER_1
 10
-62.56926308737735
 20
47.9032427347278
 30
0.0
  0
VERTEX
  5
BDE
  8
LAYER_1
 10
-62.583877820984
 20
47.89959491537778
 30
0.0
  0
VERTEX
  5
BDF
  8
LAYER_1
 10
-62.59487457437341
 20
47.92002641024924
 30
0.0
  0
VERTEX
  5
BE0
  8
LAYER_1
 10
-62.61206074762411
 20
48.02735179451879
 30
0.0
  0
VERTEX
  5
BE1
  8
LAYER_1
 10
-62.63662198847666
 20
48.24219870890728
 30
0.0
  0
VERTEX
  5
BE2
  8
LAYER_1
 10
-62.55414736878176
 20
49.15235183922228
 30
0.0
  0
VERTEX
  5
BE3
  8
LAYER_1
 10
-62.47268941383427
 20
49.92943182154974
 30
0.0
  0
VERTEX
  5
BE4
  8
LAYER_1
 10
-62.39265911576615
 20
50.51964312797986
 30
0.0
  0
VERTEX
  5
BE5
  8
LAYER_1
 10
-62.31364548244544
 20
50.97678128642244
 30
0.0
  0
VERTEX
  5
BE6
  8
LAYER_1
 10
-61.51307245735561
 20
51.06365865841897
 30
0.0
  0
VERTEX
  5
BE7
  8
LAYER_1
 10
-61.15466330265276
 20
51.11200189194339
 30
0.0
  0
VERTEX
  5
BE8
  8
LAYER_1
 10
-60.77060652980612
 20
51.17940691602777
 30
0.0
  0
VERTEX
  5
BE9
  8
LAYER_1
 10
-60.40694905715982
 20
51.25694746378453
 30
0.0
  0
VERTEX
  5
BEA
  8
LAYER_1
 10
-60.109737803058
 20
51.3356972683261
 30
0.0
  0
VERTEX
  5
BEB
  8
LAYER_1
 10
-59.8052688985581
 20
51.43651233502416
 30
0.0
  0
VERTEX
  5
BEC
  8
LAYER_1
 10
-59.54058365173819
 20
51.54325056213828
 30
0.0
  0
VERTEX
  5
BED
  8
LAYER_1
 10
-59.30317439020288
 20
51.66511303307945
 30
0.0
  0
VERTEX
  5
BEE
  8
LAYER_1
 10
-59.08053344155682
 20
51.81130083125866
 30
0.0
  0
VERTEX
  5
BEF
  8
LAYER_1
 10
-58.86015313340462
 20
51.99101504008689
 30
0.0
  0
VERTEX
  5
BF0
  8
LAYER_1
 10
-58.62952579335094
 20
52.21345674297513
 30
0.0
  0
VERTEX
  5
BF1
  8
LAYER_1
 10
-58.3761437490004
 20
52.48782702333437
 30
0.0
  0
VERTEX
  5
BF2
  8
LAYER_1
 10
-58.08749932795763
 20
52.8233269645756
 30
0.0
  0
VERTEX
  5
BF3
  8
LAYER_1
 10
-57.8998685148701
 20
53.06223445553076
 30
0.0
  0
VERTEX
  5
BF4
  8
LAYER_1
 10
-57.69044851543093
 20
53.35928819673821
 30
0.0
  0
VERTEX
  5
BF5
  8
LAYER_1
 10
-57.45602195238682
 20
53.71925080128214
 30
0.0
  0
VERTEX
  5
BF6
  8
LAYER_1
 10
-57.1933714484845
 20
54.14688488224675
 30
0.0
  0
VERTEX
  5
BF7
  8
LAYER_1
 10
-56.77499927580357
 20
54.84417053343407
 30
0.0
  0
VERTEX
  5
BF8
  8
LAYER_1
 10
-56.77499927580357
 20
54.87525331945784
 30
0.0
  0
VERTEX
  5
BF9
  8
LAYER_1
 10
-56.75276928697944
 20
54.92381474332265
 30
0.0
  0
VERTEX
  5
BFA
  8
LAYER_1
 10
-56.69932271810443
 20
54.99692063734722
 30
0.0
  0
VERTEX
  5
BFB
  8
LAYER_1
 10
-56.62364616040529
 20
55.08750516921282
 30
0.0
  0
VERTEX
  5
BFC
  8
LAYER_1
 10
-56.08562687852469
 20
55.91250520199537
 30
0.0
  0
VERTEX
  5
BFD
  8
LAYER_1
 10
-55.82882353927957
 20
56.28280060571929
 30
0.0
  0
VERTEX
  5
BFE
  8
LAYER_1
 10
-55.53539107795798
 20
56.6681428238072
 30
0.0
  0
VERTEX
  5
BFF
  8
LAYER_1
 10
-55.23747409485055
 20
57.02802302189515
 30
0.0
  0
VERTEX
  5
C00
  8
LAYER_1
 10
-54.96721719024793
 20
57.32193236561918
 30
0.0
  0
VERTEX
  5
C01
  8
LAYER_1
 10
-54.38682678385175
 20
57.9063594964604
 30
0.0
  0
VERTEX
  5
C02
  8
LAYER_1
 10
-54.51216298735935
 20
57.87116117295793
 30
0.0
  0
VERTEX
  5
C03
  8
LAYER_1
 10
-54.69982231002608
 20
57.83143136847826
 30
0.0
  0
VERTEX
  5
C04
  8
LAYER_1
 10
-54.97499920427799
 20
57.78533820773274
 30
0.0
  0
VERTEX
  5
C05
  8
LAYER_1
 10
-55.19310119520066
 20
57.74507171089401
 30
0.0
  0
VERTEX
  5
C06
  8
LAYER_1
 10
-55.4744897266439
 20
57.68182226385141
 30
0.0
  0
VERTEX
  5
C07
  8
LAYER_1
 10
-56.14945062686323
 20
57.50770275610451
 30
0.0
  0
VERTEX
  5
C08
  8
LAYER_1
 10
-56.84453033647831
 20
57.30563615839187
 30
0.0
  0
VERTEX
  5
C09
  8
LAYER_1
 10
-57.15106737966624
 20
57.2074528488921
 30
0.0
  0
VERTEX
  5
C0A
  8
LAYER_1
 10
-57.40437728703147
 20
57.11827894461334
 30
0.0
  0
VERTEX
  5
C0B
  8
LAYER_1
 10
-57.84440628286826
 20
56.94051867997526
 30
0.0
  0
VERTEX
  5
C0C
  8
LAYER_1
 10
-58.28406570056104
 20
56.73952649632133
 30
0.0
  0
VERTEX
  5
C0D
  8
LAYER_1
 10
-58.71707408226359
 20
56.51901157567949
 30
0.0
  0
VERTEX
  5
C0E
  8
LAYER_1
 10
-59.13714997012971
 20
56.28268310007769
 30
0.0
  0
VERTEX
  5
C0F
  8
LAYER_1
 10
-59.53801190631316
 20
56.03425025154391
 30
0.0
  0
VERTEX
  5
C10
  8
LAYER_1
 10
-59.91337843296772
 20
55.77742221210609
 30
0.0
  0
VERTEX
  5
C11
  8
LAYER_1
 10
-60.25696809224716
 20
55.51590816379219
 30
0.0
  0
VERTEX
  5
C12
  8
LAYER_1
 10
-60.56249942630529
 20
55.25341728863017
 30
0.0
  0
VERTEX
  5
C13
  8
LAYER_1
 10
-61.01249944418669
 20
54.83927928479488
 30
0.0
  0
VERTEX
  5
C14
  8
LAYER_1
 10
-61.05979592960689
 20
54.88480164469692
 30
0.0
  0
VERTEX
  5
C15
  8
LAYER_1
 10
-60.16317082532518
 20
56.69334384243174
 30
0.0
  0
VERTEX
  5
C16
  8
LAYER_1
 10
-60.04523470612082
 20
56.8617212388626
 30
0.0
  0
VERTEX
  5
C17
  8
LAYER_1
 10
-60.00427231949395
 20
56.9143693746346
 30
0.0
  0
VERTEX
  5
C18
  8
LAYER_1
 10
-59.95779211660937
 20
56.95491158511506
 30
0.0
  0
VERTEX
  5
C19
  8
LAYER_1
 10
-59.89587199388755
 20
56.98503968007518
 30
0.0
  0
VERTEX
  5
C1A
  8
LAYER_1
 10
-59.80858984774899
 20
57.00644546928612
 30
0.0
  0
VERTEX
  5
C1B
  8
LAYER_1
 10
-59.68602357461417
 20
57.02082076251911
 30
0.0
  0
VERTEX
  5
C1C
  8
LAYER_1
 10
-59.51825107090357
 20
57.02985736954533
 30
0.0
  0
VERTEX
  5
C1D
  8
LAYER_1
 10
-59.00739895743703
 20
57.0386817640622
 30
0.0
  0
VERTEX
  5
C1E
  8
LAYER_1
 10
-58.52916603418846
 20
57.04990206098301
 30
0.0
  0
VERTEX
  5
C1F
  8
LAYER_1
 10
-58.17912199683211
 20
57.07788274533985
 30
0.0
  0
VERTEX
  5
C20
  8
LAYER_1
 10
-58.03450664866665
 20
57.10040437842933
 30
0.0
  0
VERTEX
  5
C21
  8
LAYER_1
 10
-57.90074152793801
 20
57.12981148312488
 30
0.0
  0
VERTEX
  5
C22
  8
LAYER_1
 10
-57.63749931007624
 20
57.21287594033026
 30
0.0
  0
VERTEX
  5
C23
  8
LAYER_1
 10
-57.45472076306779
 20
57.2870876785468
 30
0.0
  0
VERTEX
  5
C24
  8
LAYER_1
 10
-57.25164076756695
 20
57.38130387605901
 30
0.0
  0
VERTEX
  5
C25
  8
LAYER_1
 10
-56.82523555118187
 20
57.60664728354217
 30
0.0
  0
VERTEX
  5
C26
  8
LAYER_1
 10
-56.62223989034455
 20
57.72622331079899
 30
0.0
  0
VERTEX
  5
C27
  8
LAYER_1
 10
-56.43960190110862
 20
57.8427014319232
 30
0.0
  0
VERTEX
  5
C28
  8
LAYER_1
 10
-56.28748636349757
 20
57.95030605555777
 30
0.0
  0
VERTEX
  5
C29
  8
LAYER_1
 10
-56.17605805753485
 20
58.04326159034559
 30
0.0
  0
VERTEX
  5
C2A
  8
LAYER_1
 10
-55.71931434306705
 20
58.46816513160482
 30
0.0
  0
VERTEX
  5
C2B
  8
LAYER_1
 10
-55.45338697738831
 20
58.72752969226818
 30
0.0
  0
VERTEX
  5
C2C
  8
LAYER_1
 10
-55.09454573528384
 20
59.10853498282958
 30
0.0
  0
VERTEX
  5
C2D
  8
LAYER_1
 10
-54.57839566396865
 20
59.68137954749056
 30
0.0
  0
VERTEX
  5
C2E
  8
LAYER_1
 10
-53.84054181065774
 20
60.51626193045263
 30
0.0
  0
VERTEX
  5
C2F
  8
LAYER_1
 10
-53.28749913722277
 20
61.14501850095758
 30
0.0
  0
VERTEX
  5
C30
  8
LAYER_1
 10
-52.92797796735256
 20
61.58925181656022
 30
0.0
  0
VERTEX
  5
C31
  8
LAYER_1
 10
-53.63273857314929
 20
61.53897941382252
 30
0.0
  0
VERTEX
  5
C32
  8
LAYER_1
 10
-54.10042285562885
 20
61.49372212642127
 30
0.0
  0
VERTEX
  5
C33
  8
LAYER_1
 10
-54.58138273297001
 20
61.42522856322233
 30
0.0
  0
VERTEX
  5
C34
  8
LAYER_1
 10
-55.06272556771626
 20
61.33667291168461
 30
0.0
  0
VERTEX
  5
C35
  8
LAYER_1
 10
-55.53155872241103
 20
61.23122935926696
 30
0.0
  0
VERTEX
  5
C36
  8
LAYER_1
 10
-55.97498955959781
 20
61.11207209342828
 30
0.0
  0
VERTEX
  5
C37
  8
LAYER_1
 10
-56.38012544182004
 20
60.98237530162746
 30
0.0
  0
VERTEX
  5
C38
  8
LAYER_1
 10
-56.7340737316212
 20
60.84531317132335
 30
0.0
  0
VERTEX
  5
C39
  8
LAYER_1
 10
-56.88782358015872
 20
60.77501203781348
 30
0.0
  0
VERTEX
  5
C3A
  8
LAYER_1
 10
-57.02394179154476
 20
60.70405988997487
 30
0.0
  0
VERTEX
  5
C3B
  8
LAYER_1
 10
-57.10949770317784
 20
60.66143949972603
 30
0.0
  0
VERTEX
  5
C3C
  8
LAYER_1
 10
-57.18614175247316
 20
60.63311824747984
 30
0.0
  0
VERTEX
  5
C3D
  8
LAYER_1
 10
-57.24549852241053
 20
60.62155251637519
 30
0.0
  0
VERTEX
  5
C3E
  8
LAYER_1
 10
-57.27919259596973
 20
60.629198689551
 30
0.0
  0
VERTEX
  5
C3F
  8
LAYER_1
 10
-57.32300088614361
 20
60.67300697972235
 30
0.0
  0
VERTEX
  5
C40
  8
LAYER_1
 10
-55.9124992415309
 20
62.13129975255509
 30
0.0
  0
VERTEX
  5
C41
  8
LAYER_1
 10
-55.40799267620555
 20
62.61373358172716
 30
0.0
  0
VERTEX
  5
C42
  8
LAYER_1
 10
-55.13524593800659
 20
62.47677303037722
 30
0.0
  0
VERTEX
  5
C43
  8
LAYER_1
 10
-54.81736324256266
 20
62.32282643424884
 30
0.0
  0
VERTEX
  5
C44
  8
LAYER_1
 10
-54.52359538012803
 20
62.19322511150166
 30
0.0
  0
VERTEX
  5
C45
  8
LAYER_1
 10
-54.24760484040995
 20
62.08610326116719
 30
0.0
  0
VERTEX
  5
C46
  8
LAYER_1
 10
-53.98305411311568
 20
61.99959508227695
 30
0.0
  0
VERTEX
  5
C47
  8
LAYER_1
 10
-53.72360568795246
 20
61.93183477386245
 30
0.0
  0
VERTEX
  5
C48
  8
LAYER_1
 10
-53.46292205462755
 20
61.88095653495519
 30
0.0
  0
VERTEX
  5
C49
  8
LAYER_1
 10
-53.19466570284818
 20
61.8450945645867
 30
0.0
  0
VERTEX
  5
C4A
  8
LAYER_1
 10
-52.91249912232161
 20
61.82238306178849
 30
0.0
  0
VERTEX
  5
C4B
  8
LAYER_1
 10
-52.55390209198382
 20
61.80908463794455
 30
0.0
  0
VERTEX
  5
C4C
  8
LAYER_1
 10
-52.4091154149515
 20
61.81143060418789
 30
0.0
  0
VERTEX
  5
C4D
  8
LAYER_1
 10
-52.27898281111234
 20
61.82063249897064
 30
0.0
  0
VERTEX
  5
C4E
  8
LAYER_1
 10
-52.1572389162929
 20
61.83733467961469
 30
0.0
  0
VERTEX
  5
C4F
  8
LAYER_1
 10
-52.03761836631976
 20
61.86218150344196
 30
0.0
  0
VERTEX
  5
C50
  8
LAYER_1
 10
-51.77968584421868
 20
61.9388865099337
 30
0.0
  0
VERTEX
  5
C51
  8
LAYER_1
 10
-51.32187259293784
 20
62.09423081988717
 30
0.0
  0
VERTEX
  5
C52
  8
LAYER_1
 10
-50.4296857905745
 20
62.6011543653612
 30
0.0
  0
VERTEX
  5
C53
  8
LAYER_1
 10
-49.8548282197975
 20
62.92258615728166
 30
0.0
  0
VERTEX
  5
C54
  8
LAYER_1
 10
-49.35987514982256
 20
63.18716329342484
 30
0.0
  0
VERTEX
  5
C55
  8
LAYER_1
 10
-48.9343461817155
 20
63.39923286328644
 30
0.0
  0
VERTEX
  5
C56
  8
LAYER_1
 10
-48.56776091654213
 20
63.56314195636216
 30
0.0
  0
VERTEX
  5
C57
  8
LAYER_1
 10
-48.24963895536827
 20
63.68323766214772
 30
0.0
  0
VERTEX
  5
C58
  8
LAYER_1
 10
-47.96949989925971
 20
63.76386707013882
 30
0.0
  0
VERTEX
  5
C59
  8
LAYER_1
 10
-47.71686334928227
 20
63.80937726983119
 30
0.0
  0
VERTEX
  5
C5A
  8
LAYER_1
 10
-47.48124890650176
 20
63.82411535072052
 30
0.0
  0
VERTEX
  5
C5B
  8
LAYER_1
 10
-47.37027319562279
 20
63.82713655867232
 30
0.0
  0
VERTEX
  5
C5C
  8
LAYER_1
 10
-47.30092973023233
 20
63.83576368275043
 30
0.0
  0
VERTEX
  5
C5D
  8
LAYER_1
 10
-47.27431531125879
 20
63.85071162541293
 30
0.0
  0
VERTEX
  5
C5E
  8
LAYER_1
 10
-47.2773742444685
 20
63.86077931073149
 30
0.0
  0
VERTEX
  5
C5F
  8
LAYER_1
 10
-47.29152673963061
 20
63.87269528911793
 30
0.0
  0
VERTEX
  5
C60
  8
LAYER_1
 10
-47.35366081627625
 20
63.90242957632351
 30
0.0
  0
VERTEX
  5
C61
  8
LAYER_1
 10
-47.46181434212411
 20
63.94062938948777
 30
0.0
  0
VERTEX
  5
C62
  8
LAYER_1
 10
-47.82056694514029
 20
64.04528520352466
 30
0.0
  0
VERTEX
  5
C63
  8
LAYER_1
 10
-48.30802877040016
 20
64.17327725743948
 30
0.0
  0
VERTEX
  5
C64
  8
LAYER_1
 10
-48.75879767901501
 20
64.27903145682487
 30
0.0
  0
VERTEX
  5
C65
  8
LAYER_1
 10
-49.18438508488801
 20
64.36415601506147
 30
0.0
  0
VERTEX
  5
C66
  8
LAYER_1
 10
-49.59630240192235
 20
64.4302591455299
 30
0.0
  0
VERTEX
  5
C67
  8
LAYER_1
 10
-50.00606104402121
 20
64.47894906161085
 30
0.0
  0
VERTEX
  5
C68
  8
LAYER_1
 10
-50.42517242508777
 20
64.51183397668493
 30
0.0
  0
VERTEX
  5
C69
  8
LAYER_1
 10
-50.86514795902521
 20
64.53052210413281
 30
0.0
  0
VERTEX
  5
C6A
  8
LAYER_1
 10
-51.33749905973673
 20
64.53662165733516
 30
0.0
  0
VERTEX
  5
C6B
  8
LAYER_1
 10
-52.61249911040068
 20
64.53750554472208
 30
0.0
  0
VERTEX
  5
C6C
  8
LAYER_1
 10
-53.28162344124848
 20
64.46250554174185
 30
0.0
  0
VERTEX
  5
C6D
  8
LAYER_1
 10
-52.27717409859977
 20
65.20233881989486
 30
0.0
  0
VERTEX
  5
C6E
  8
LAYER_1
 10
-51.01983654787581
 20
65.21134235959423
 30
0.0
  0
VERTEX
  5
C6F
  8
LAYER_1
 10
-50.31624395943913
 20
65.22163848507779
 30
0.0
  0
VERTEX
  5
C70
  8
LAYER_1
 10
-50.06671651344297
 20
65.23277874659712
 30
0.0
  0
VERTEX
  5
C71
  8
LAYER_1
 10
-49.86272600651579
 20
65.2505480724179
 30
0.0
  0
VERTEX
  5
C72
  8
LAYER_1
 10
-49.68729071884824
 20
65.27692216137743
 30
0.0
  0
VERTEX
  5
C73
  8
LAYER_1
 10
-49.52342893063098
 20
65.31387671231305
 30
0.0
  0
VERTEX
  5
C74
  8
LAYER_1
 10
-49.16249897330999
 20
65.42742999546175
 30
0.0
  0
VERTEX
  5
C75
  8
LAYER_1
 10
-48.89184491024484
 20
65.528854593679
 30
0.0
  0
VERTEX
  5
C76
  8
LAYER_1
 10
-48.59845515219708
 20
65.65192734793227
 30
0.0
  0
VERTEX
  5
C77
  8
LAYER_1
 10
-48.31768831638394
 20
65.78111326663212
 30
0.0
  0
VERTEX
  5
C78
  8
LAYER_1
 10
-48.08490302002267
 20
65.90087735818904
 30
0.0
  0
VERTEX
  5
C79
  8
LAYER_1
 10
-47.83321902762121
 20
66.05689605080065
 30
0.0
  0
VERTEX
  5
C7A
  8
LAYER_1
 10
-47.57241637411357
 20
66.24731175414075
 30
0.0
  0
VERTEX
  5
C7B
  8
LAYER_1
 10
-47.30965182180348
 20
66.46514917610426
 30
0.0
  0
VERTEX
  5
C7C
  8
LAYER_1
 10
-47.05208213299464
 20
66.70343302458608
 30
0.0
  0
VERTEX
  5
C7D
  8
LAYER_1
 10
-46.80686406999078
 20
66.95518800748114
 30
0.0
  0
VERTEX
  5
C7E
  8
LAYER_1
 10
-46.58115439509561
 20
67.21343883268432
 30
0.0
  0
VERTEX
  5
C7F
  8
LAYER_1
 10
-46.38210987061285
 20
67.47121020809055
 30
0.0
  0
VERTEX
  5
C80
  8
LAYER_1
 10
-46.21688725884621
 20
67.72152684159474
 30
0.0
  0
VERTEX
  5
C81
  8
LAYER_1
 10
-46.09987097430749
 20
67.92638896544656
 30
0.0
  0
VERTEX
  5
C82
  8
LAYER_1
 10
-45.98585231356888
 20
68.14226579936471
 30
0.0
  0
VERTEX
  5
C83
  8
LAYER_1
 10
-45.78592345548695
 20
68.56338359124953
 30
0.0
  0
VERTEX
  5
C84
  8
LAYER_1
 10
-45.70957105414109
 20
68.74678454614097
 30
0.0
  0
VERTEX
  5
C85
  8
LAYER_1
 10
-45.6553318685903
 20
68.89752020494828
 30
0.0
  0
VERTEX
  5
C86
  8
LAYER_1
 10
-45.62798479683327
 20
69.00467056613383
 30
0.0
  0
VERTEX
  5
C87
  8
LAYER_1
 10
-45.62588920925205
 20
69.03848875963794
 30
0.0
  0
VERTEX
  5
C88
  8
LAYER_1
 10
-45.63230873686879
 20
69.05731562816001
 30
0.0
  0
VERTEX
  5
C89
  8
LAYER_1
 10
-45.66029640733389
 20
69.05991886992399
 30
0.0
  0
VERTEX
  5
C8A
  8
LAYER_1
 10
-45.7152471198602
 20
69.04575356370711
 30
0.0
  0
VERTEX
  5
C8B
  8
LAYER_1
 10
-45.87427906546787
 20
68.97758230587999
 30
0.0
  0
VERTEX
  5
C8C
  8
LAYER_1
 10
-46.01168634514866
 20
68.91863877695036
 30
0.0
  0
VERTEX
  5
C8D
  8
LAYER_1
 10
-46.2137174406222
 20
68.84714939460247
 30
0.0
  0
VERTEX
  5
C8E
  8
LAYER_1
 10
-46.76911499248011
 20
68.67856585293329
 30
0.0
  0
VERTEX
  5
C8F
  8
LAYER_1
 10
-47.45539954810667
 20
68.49589724743532
 30
0.0
  0
VERTEX
  5
C90
  8
LAYER_1
 10
-48.18749893456697
 20
68.32320914467141
 30
0.0
  0
VERTEX
  5
C91
  8
LAYER_1
 10
-48.88837445726308
 20
68.16137834346343
 30
0.0
  0
VERTEX
  5
C92
  8
LAYER_1
 10
-49.48243049493979
 20
68.00493611235304
 30
0.0
  0
VERTEX
  5
C93
  8
LAYER_1
 10
-49.7446765355247
 20
67.92642928523148
 30
0.0
  0
VERTEX
  5
C94
  8
LAYER_1
 10
-49.98654809920937
 20
67.84650189021082
 30
0.0
  0
VERTEX
  5
C95
  8
LAYER_1
 10
-50.2101553174453
 20
67.76423135714984
 30
0.0
  0
VERTEX
  5
C96
  8
LAYER_1
 10
-50.41760832168404
 20
67.67869511590737
 30
0.0
  0
VERTEX
  5
C97
  8
LAYER_1
 10
-50.61101724337712
 20
67.58897059634225
 30
0.0
  0
VERTEX
  5
C98
  8
LAYER_1
 10
-50.79249221397606
 20
67.49413522831328
 30
0.0
  0
VERTEX
  5
C99
  8
LAYER_1
 10
-50.9641433649324
 20
67.39326644167929
 30
0.0
  0
VERTEX
  5
C9A
  8
LAYER_1
 10
-51.12808082769767
 20
67.28544166629912
 30
0.0
  0
VERTEX
  5
C9B
  8
LAYER_1
 10
-51.2864147337234
 20
67.16973833203159
 30
0.0
  0
VERTEX
  5
C9C
  8
LAYER_1
 10
-51.44125521446112
 20
67.0452338687355
 30
0.0
  0
VERTEX
  5
C9D
  8
LAYER_1
 10
-51.74889642587866
 20
66.76613127449295
 30
0.0
  0
VERTEX
  5
C9E
  8
LAYER_1
 10
-52.04396881074783
 20
66.49780286896996
 30
0.0
  0
VERTEX
  5
C9F
  8
LAYER_1
 10
-52.34558295236964
 20
66.26047009345906
 30
0.0
  0
VERTEX
  5
CA0
  8
LAYER_1
 10
-52.66545634898252
 20
66.0456072724156
 30
0.0
  0
VERTEX
  5
CA1
  8
LAYER_1
 10
-53.01530649882491
 20
65.84468873029485
 30
0.0
  0
VERTEX
  5
CA2
  8
LAYER_1
 10
-53.71811389917008
 20
65.4696205665945
 30
0.0
  0
VERTEX
  5
CA3
  8
LAYER_1
 10
-53.68102173053708
 20
65.56628120861677
 30
0.0
  0
VERTEX
  5
CA4
  8
LAYER_1
 10
-53.62965524115302
 20
65.74855430409781
 30
0.0
  0
VERTEX
  5
CA5
  8
LAYER_1
 10
-53.53866279621292
 20
66.1283298969579
 30
0.0
  0
VERTEX
  5
CA6
  8
LAYER_1
 10
-53.24687161287091
 20
67.44121187057277
 30
0.0
  0
VERTEX
  5
CA7
  8
LAYER_1
 10
-53.17804802138744
 20
67.73803475314375
 30
0.0
  0
VERTEX
  5
CA8
  8
LAYER_1
 10
-53.10740878654487
 20
67.99899189970716
 30
0.0
  0
VERTEX
  5
CA9
  8
LAYER_1
 10
-53.03292588664941
 20
68.22870412940705
 30
0.0
  0
VERTEX
  5
CAA
  8
LAYER_1
 10
-52.95257130000728
 20
68.4317922613874
 30
0.0
  0
VERTEX
  5
CAB
  8
LAYER_1
 10
-52.86431700492469
 20
68.6128771147923
 30
0.0
  0
VERTEX
  5
CAC
  8
LAYER_1
 10
-52.76613497970786
 20
68.77657950876576
 30
0.0
  0
VERTEX
  5
CAD
  8
LAYER_1
 10
-52.655997202663
 20
68.92752026245182
 30
0.0
  0
VERTEX
  5
CAE
  8
LAYER_1
 10
-52.53187565209633
 20
69.07032019499451
 30
0.0
  0
VERTEX
  5
CAF
  8
LAYER_1
 10
-52.28084346111808
 20
69.33750573545694
 30
0.0
  0
VERTEX
  5
CB0
  8
LAYER_1
 10
-53.00917130811112
 20
69.33435016492996
 30
0.0
  0
VERTEX
  5
CB1
  8
LAYER_1
 10
-53.42035176282285
 20
69.32615526120287
 30
0.0
  0
VERTEX
  5
CB2
  8
LAYER_1
 10
-53.57121282658284
 20
69.31408492142745
 30
0.0
  0
VERTEX
  5
CB3
  8
LAYER_1
 10
-53.70039043359693
 20
69.29361301214962
 30
0.0
  0
VERTEX
  5
CB4
  8
LAYER_1
 10
-53.81898657310361
 20
69.26242480019847
 30
0.0
  0
VERTEX
  5
CB5
  8
LAYER_1
 10
-53.93810323434139
 20
69.21820555240318
 30
0.0
  0
VERTEX
  5
CB6
  8
LAYER_1
 10
-54.22230607896428
 20
69.08141501659654
 30
0.0
  0
VERTEX
  5
CB7
  8
LAYER_1
 10
-54.38254443901584
 20
68.99276153057271
 30
0.0
  0
VERTEX
  5
CB8
  8
LAYER_1
 10
-54.54280077607763
 20
68.89225423695149
 30
0.0
  0
VERTEX
  5
CB9
  8
LAYER_1
 10
-54.70219283179119
 20
68.78086992735001
 30
0.0
  0
VERTEX
  5
CBA
  8
LAYER_1
 10
-54.85983834779809
 20
68.65958539338543
 30
0.0
  0
VERTEX
  5
CBB
  8
LAYER_1
 10
-55.01485506573991
 20
68.52937742667487
 30
0.0
  0
VERTEX
  5
CBC
  8
LAYER_1
 10
-55.16636072725818
 20
68.39122281883552
 30
0.0
  0
VERTEX
  5
CBD
  8
LAYER_1
 10
-55.31347307399448
 20
68.24609836148448
 30
0.0
  0
VERTEX
  5
CBE
  8
LAYER_1
 10
-55.45530984759037
 20
68.09498084623891
 30
0.0
  0
VERTEX
  5
CBF
  8
LAYER_1
 10
-55.59098878968742
 20
67.93884706471599
 30
0.0
  0
VERTEX
  5
CC0
  8
LAYER_1
 10
-55.71962764192718
 20
67.7786738085328
 30
0.0
  0
VERTEX
  5
CC1
  8
LAYER_1
 10
-55.8403441459512
 20
67.61543786930653
 30
0.0
  0
VERTEX
  5
CC2
  8
LAYER_1
 10
-55.95225604340107
 20
67.45011603865434
 30
0.0
  0
VERTEX
  5
CC3
  8
LAYER_1
 10
-56.05448107591833
 20
67.28368510819334
 30
0.0
  0
VERTEX
  5
CC4
  8
LAYER_1
 10
-56.14613698514455
 20
67.1171218695407
 30
0.0
  0
VERTEX
  5
CC5
  8
LAYER_1
 10
-56.22634151272129
 20
66.95140311431354
 30
0.0
  0
VERTEX
  5
CC6
  8
LAYER_1
 10
-56.29421240029011
 20
66.78750563412905
 30
0.0
  0
VERTEX
  5
CC7
  8
LAYER_1
 10
-56.43578726584786
 20
66.41250561922789
 30
0.0
  0
VERTEX
  5
CC8
  8
LAYER_1
 10
-56.52485389045161
 20
67.21796012544723
 30
0.0
  0
VERTEX
  5
CC9
  8
LAYER_1
 10
-56.57932744263448
 20
67.62363925822453
 30
0.0
  0
VERTEX
  5
CCA
  8
LAYER_1
 10
-56.65405381179593
 20
68.05572658786177
 30
0.0
  0
VERTEX
  5
CCB
  8
LAYER_1
 10
-56.74396260596358
 20
68.4940750666373
 30
0.0
  0
VERTEX
  5
CCC
  8
LAYER_1
 10
-56.84398343316501
 20
68.9185376468294
 30
0.0
  0
VERTEX
  5
CCD
  8
LAYER_1
 10
-56.94904590142784
 20
69.3089672807164
 30
0.0
  0
VERTEX
  5
CCE
  8
LAYER_1
 10
-57.05407961877964
 20
69.64521692057662
 30
0.0
  0
VERTEX
  5
CCF
  8
LAYER_1
 10
-57.15401419324802
 20
69.90713951868833
 30
0.0
  0
VERTEX
  5
CD0
  8
LAYER_1
 10
-57.20048480440956
 20
70.00393222467548
 30
0.0
  0
VERTEX
  5
CD1
  8
LAYER_1
 10
-57.24377923286059
 20
70.07458802732987
 30
0.0
  0
VERTEX
  5
CD2
  8
LAYER_1
 10
-57.27422909141726
 20
70.11269017223489
 30
0.0
  0
VERTEX
  5
CD3
  8
LAYER_1
 10
-57.30050100476466
 20
70.13480807559937
 30
0.0
  0
VERTEX
  5
CD4
  8
LAYER_1
 10
-57.32451257200354
 20
70.13877992295329
 30
0.0
  0
VERTEX
  5
CD5
  8
LAYER_1
 10
-57.34818139223466
 20
70.12244389982666
 30
0.0
  0
VERTEX
  5
CD6
  8
LAYER_1
 10
-57.37342506455879
 20
70.08363819174943
 30
0.0
  0
VERTEX
  5
CD7
  8
LAYER_1
 10
-57.40216118807666
 20
70.0202009842516
 30
0.0
  0
VERTEX
  5
CD8
  8
LAYER_1
 10
-57.47778118509673
 20
69.810784813114
 30
0.0
  0
VERTEX
  5
CD9
  8
LAYER_1
 10
-57.61345198739399
 20
69.41250573843718
 30
0.0
  0
VERTEX
  5
CDA
  8
LAYER_1
 10
-59.2354821546898
 20
66.11250560730696
 30
0.0
  0
VERTEX
  5
CDB
  8
LAYER_1
 10
-59.42790564062497
 20
65.66250558942556
 30
0.0
  0
VERTEX
  5
CDC
  8
LAYER_1
 10
-59.52088155836223
 20
65.42692820278312
 30
0.0
  0
VERTEX
  5
CDD
  8
LAYER_1
 10
-59.60476198112171
 20
65.17851121551013
 30
0.0
  0
VERTEX
  5
CDE
  8
LAYER_1
 10
-59.67809380275629
 20
64.923921429571
 30
0.0
  0
VERTEX
  5
CDF
  8
LAYER_1
 10
-59.73942391711883
 20
64.6698256469301
 30
0.0
  0
VERTEX
  5
CE0
  8
LAYER_1
 10
-59.78729921806224
 20
64.42289066955178
 30
0.0
  0
VERTEX
  5
CE1
  8
LAYER_1
 10
-59.82026659943937
 20
64.18978329940043
 30
0.0
  0
VERTEX
  5
CE2
  8
LAYER_1
 10
-59.8368729551031
 20
63.97717033844042
 30
0.0
  0
VERTEX
  5
CE3
  8
LAYER_1
 10
-59.83566517890632
 20
63.79171858863609
 30
0.0
  0
VERTEX
  5
CE4
  8
LAYER_1
 10
-59.81249939650297
 20
63.42093164745125
 30
0.0
  0
VERTEX
  5
CE5
  8
LAYER_1
 10
-60.01665491085204
 20
63.81335302996257
 30
0.0
  0
VERTEX
  5
CE6
  8
LAYER_1
 10
-60.21404450526863
 20
64.16761364953771
 30
0.0
  0
VERTEX
  5
CE7
  8
LAYER_1
 10
-60.46702511895457
 20
64.57616777815761
 30
0.0
  0
VERTEX
  5
CE8
  8
LAYER_1
 10
-60.78471177236967
 20
65.05315986093122
 30
0.0
  0
VERTEX
  5
CE9
  8
LAYER_1
 10
-61.17621948597376
 20
65.61273434296749
 30
0.0
  0
VERTEX
  5
CEA
  8
LAYER_1
 10
-61.56823975399616
 20
66.1629631203513
 30
0.0
  0
VERTEX
  5
CEB
  8
LAYER_1
 10
-61.56966859325885
 20
65.35023433253667
 30
0.0
  0
VERTEX
  5
CEC
  8
LAYER_1
 10
-61.57565834105496
 20
65.00803612245983
 30
0.0
  0
VERTEX
  5
CED
  8
LAYER_1
 10
-61.59091081563397
 20
64.67710399720313
 30
0.0
  0
VERTEX
  5
CEE
  8
LAYER_1
 10
-61.61311905236948
 20
64.39517983930679
 30
0.0
  0
VERTEX
  5
CEF
  8
LAYER_1
 10
-61.63997608663507
 20
64.20000553131104
 30
0.0
  0
VERTEX
  5
CF0
  8
LAYER_1
 10
-61.77342456384045
 20
63.56863814495154
 30
0.0
  0
VERTEX
  5
CF1
  8
LAYER_1
 10
-61.89479441595054
 20
63.0461522413503
 30
0.0
  0
VERTEX
  5
CF2
  8
LAYER_1
 10
-62.01238696807776
 20
62.59885860797404
 30
0.0
  0
VERTEX
  5
CF3
  8
LAYER_1
 10
-62.1345035453345
 20
62.19306803228949
 30
0.0
  0
VERTEX
  5
CF4
  8
LAYER_1
 10
-62.2641029555356
 20
61.77462052210795
 30
0.0
  0
VERTEX
  5
CF5
  8
LAYER_1
 10
-62.37275332749441
 20
61.39058180171197
 30
0.0
  0
VERTEX
  5
CF6
  8
LAYER_1
 10
-62.46170717846975
 20
61.03431921533786
 30
0.0
  0
VERTEX
  5
CF7
  8
LAYER_1
 10
-62.53221702572044
 20
60.69920010722193
 30
0.0
  0
VERTEX
  5
CF8
  8
LAYER_1
 10
-62.5855353865053
 20
60.3785918216005
 30
0.0
  0
VERTEX
  5
CF9
  8
LAYER_1
 10
-62.62291477808312
 20
60.06586170270987
 30
0.0
  0
VERTEX
  5
CFA
  8
LAYER_1
 10
-62.64560771771274
 20
59.75437709478636
 30
0.0
  0
VERTEX
  5
CFB
  8
LAYER_1
 10
-62.65486672265297
 20
59.43750534206629
 30
0.0
  0
VERTEX
  5
CFC
  8
LAYER_1
 10
-62.65084445299821
 20
59.11046985096161
 30
0.0
  0
VERTEX
  5
CFD
  8
LAYER_1
 10
-62.63134328190689
 20
58.80517379040931
 30
0.0
  0
VERTEX
  5
CFE
  8
LAYER_1
 10
-62.59460506298574
 20
58.51403615771729
 30
0.0
  0
VERTEX
  5
CFF
  8
LAYER_1
 10
-62.53887164984148
 20
58.22947595019344
 30
0.0
  0
VERTEX
  5
D00
  8
LAYER_1
 10
-62.46238489608086
 20
57.94391216514565
 30
0.0
  0
VERTEX
  5
D01
  8
LAYER_1
 10
-62.36338665531059
 20
57.64976379988182
 30
0.0
  0
VERTEX
  5
D02
  8
LAYER_1
 10
-62.24011878113741
 20
57.33944985170986
 30
0.0
  0
VERTEX
  5
D03
  8
LAYER_1
 10
-62.09082312716804
 20
57.00538931793764
 30
0.0
  0
VERTEX
  5
D04
  8
LAYER_1
 10
-61.99778091689667
 20
56.78857844798908
 30
0.0
  0
VERTEX
  5
D05
  8
LAYER_1
 10
-61.93553673773562
 20
56.60349547879928
 30
0.0
  0
VERTEX
  5
D06
  8
LAYER_1
 10
-61.90551807498539
 20
56.45529692265941
 30
0.0
  0
VERTEX
  5
D07
  8
LAYER_1
 10
-61.90303940142073
 20
56.39664070957419
 30
0.0
  0
VERTEX
  5
D08
  8
LAYER_1
 10
-61.90915241394647
 20
56.34913929186061
 30
0.0
  0
VERTEX
  5
D09
  8
LAYER_1
 10
-61.93662120512762
 20
56.25934458495072
 30
0.0
  0
VERTEX
  5
D0A
  8
LAYER_1
 10
-61.96520155071597
 20
56.20440048378033
 30
0.0
  0
VERTEX
  5
D0B
  8
LAYER_1
 10
-61.99488747598198
 20
56.18430085678291
 30
0.0
  0
VERTEX
  5
D0C
  8
LAYER_1
 10
-62.01014316389114
 20
56.18731580498454
 30
0.0
  0
VERTEX
  5
D0D
  8
LAYER_1
 10
-62.02567300619614
 20
56.19903957239195
 30
0.0
  0
VERTEX
  5
D0E
  8
LAYER_1
 10
-62.05755216662892
 20
56.24861049904095
 30
0.0
  0
VERTEX
  5
D0F
  8
LAYER_1
 10
-62.09051898255078
 20
56.33300750516338
 30
0.0
  0
VERTEX
  5
D10
  8
LAYER_1
 10
-62.12456747923218
 20
56.45222445919275
 30
0.0
  0
VERTEX
  5
D11
  8
LAYER_1
 10
-62.1596916819436
 20
56.60625522956252
 30
0.0
  0
VERTEX
  5
D12
  8
LAYER_1
 10
-62.22112558151506
 20
56.84471715310065
 30
0.0
  0
VERTEX
  5
D13
  8
LAYER_1
 10
-62.32208422639638
 20
57.17520056467038
 30
0.0
  0
VERTEX
  5
D14
  8
LAYER_1
 10
-62.44856131068558
 20
57.55402382191096
 30
0.0
  0
VERTEX
  5
D15
  8
LAYER_1
 10
-62.58655052848065
 20
57.93750528246164
 30
0.0
  0
VERTEX
  5
D16
  8
LAYER_1
 10
-62.77861285777302
 20
58.48038495203438
 30
0.0
  0
VERTEX
  5
D17
  8
LAYER_1
 10
-62.93520346760282
 20
58.98799782643167
 30
0.0
  0
VERTEX
  5
D18
  8
LAYER_1
 10
-63.05591256668542
 20
59.45781288003092
 30
0.0
  0
VERTEX
  5
D19
  8
LAYER_1
 10
-63.1403303637362
 20
59.88729908720953
 30
0.0
  0
VERTEX
  5
D1A
  8
LAYER_1
 10
-63.16880196422321
 20
60.08612792788404
 30
0.0
  0
VERTEX
  5
D1B
  8
LAYER_1
 10
-63.18804706747052
 20
60.2739254223449
 30
0.0
  0
VERTEX
  5
D1C
  8
LAYER_1
 10
-63.19801444956757
 20
60.4503751923893
 30
0.0
  0
VERTEX
  5
D1D
  8
LAYER_1
 10
-63.19865288660375
 20
60.61516085981441
 30
0.0
  0
VERTEX
  5
D1E
  8
LAYER_1
 10
-63.18991115466851
 20
60.76796604641741
 30
0.0
  0
VERTEX
  5
D1F
  8
LAYER_1
 10
-63.17173802985127
 20
60.90847437399548
 30
0.0
  0
VERTEX
  5
D20
  8
LAYER_1
 10
-63.14408228824144
 20
61.03636946434578
 30
0.0
  0
VERTEX
  5
D21
  8
LAYER_1
 10
-63.10689270592844
 20
61.1513349392655
 30
0.0
  0
VERTEX
  5
D22
  8
LAYER_1
 10
-63.08235473709471
 20
61.22552392736551
 30
0.0
  0
VERTEX
  5
D23
  8
LAYER_1
 10
-63.08261987514486
 20
61.24500859599085
 30
0.0
  0
VERTEX
  5
D24
  8
LAYER_1
 10
-63.09340510251577
 20
61.25307036611558
 30
0.0
  0
VERTEX
  5
D25
  8
LAYER_1
 10
-63.15302784824814
 20
61.23587616621075
 30
0.0
  0
VERTEX
  5
D26
  8
LAYER_1
 10
-63.27420702034833
 20
61.17584323834606
 30
0.0
  0
VERTEX
  5
D27
  8
LAYER_1
 10
-63.3905200260841
 20
61.10310879096073
 30
0.0
  0
VERTEX
  5
D28
  8
LAYER_1
 10
-63.52046090841638
 20
61.0000065459068
 30
0.0
  0
VERTEX
  5
D29
  8
LAYER_1
 10
-63.65919137735754
 20
60.87181762054318
 30
0.0
  0
VERTEX
  5
D2A
  8
LAYER_1
 10
-63.80187314291996
 20
60.72382313222874
 30
0.0
  0
VERTEX
  5
D2B
  8
LAYER_1
 10
-63.94366791511602
 20
60.56130419832238
 30
0.0
  0
VERTEX
  5
D2C
  8
LAYER_1
 10
-64.07973740395812
 20
60.38954193618298
 30
0.0
  0
VERTEX
  5
D2D
  8
LAYER_1
 10
-64.20524331945862
 20
60.21381746316943
 30
0.0
  0
VERTEX
  5
D2E
  8
LAYER_1
 10
-64.31534737162988
 20
60.03941189664062
 30
0.0
  0
VERTEX
  5
D2F
  8
LAYER_1
 10
-64.44663040180652
 20
59.7937543985323
 30
0.0
  0
VERTEX
  5
D30
  8
LAYER_1
 10
-64.5647527790346
 20
59.52857768204433
 30
0.0
  0
VERTEX
  5
D31
  8
LAYER_1
 10
-64.66952515341455
 20
59.24616042096557
 30
0.0
  0
VERTEX
  5
D32
  8
LAYER_1
 10
-64.76075817504676
 20
58.94878128908485
 30
0.0
  0
VERTEX
  5
D33
  8
LAYER_1
 10
-64.83826249403167
 20
58.63871896019099
 30
0.0
  0
VERTEX
  5
D34
  8
LAYER_1
 10
-64.90184876046969
 20
58.31825210807286
 30
0.0
  0
VERTEX
  5
D35
  8
LAYER_1
 10
-64.95132762446126
 20
57.98965940651928
 30
0.0
  0
VERTEX
  5
D36
  8
LAYER_1
 10
-64.98650973610677
 20
57.6552195293191
 30
0.0
  0
VERTEX
  5
D37
  8
LAYER_1
 10
-65.00720574550664
 20
57.31721115026116
 30
0.0
  0
VERTEX
  5
D38
  8
LAYER_1
 10
-65.01322630276132
 20
56.97791294313429
 30
0.0
  0
VERTEX
  5
D39
  8
LAYER_1
 10
-65.00438205797121
 20
56.63960358172733
 30
0.0
  0
VERTEX
  5
D3A
  8
LAYER_1
 10
-64.98048366123673
 20
56.30456173982913
 30
0.0
  0
VERTEX
  5
D3B
  8
LAYER_1
 10
-64.9413417626583
 20
55.97506609122851
 30
0.0
  0
VERTEX
  5
D3C
  8
LAYER_1
 10
-64.88676701233634
 20
55.65339530971434
 30
0.0
  0
VERTEX
  5
D3D
  8
LAYER_1
 10
-64.81657006037126
 20
55.34182806907543
 30
0.0
  0
VERTEX
  5
D3E
  8
LAYER_1
 10
-64.73056155686349
 20
55.04264304310064
 30
0.0
  0
VERTEX
  5
D3F
  8
LAYER_1
 10
-64.62222507020095
 20
54.73528407441702
 30
0.0
  0
VERTEX
  5
D40
  8
LAYER_1
 10
-64.49831607827622
 20
54.43564252956762
 30
0.0
  0
VERTEX
  5
D41
  8
LAYER_1
 10
-64.36198095858848
 20
54.149135254604
 30
0.0
  0
VERTEX
  5
D42
  8
LAYER_1
 10
-64.21636608863686
 20
53.88117909557776
 30
0.0
  0
VERTEX
  5
D43
  8
LAYER_1
 10
-64.06461784592057
 20
53.63719089854047
 30
0.0
  0
VERTEX
  5
D44
  8
LAYER_1
 10
-63.90988260793873
 20
53.4225875095437
 30
0.0
  0
VERTEX
  5
D45
  8
LAYER_1
 10
-63.75530675219051
 20
53.24278577463905
 30
0.0
  0
VERTEX
  5
D46
  8
LAYER_1
 10
-63.60403665617507
 20
53.10320253987805
 30
0.0
  0
VERTEX
  5
D47
  8
LAYER_1
 10
-63.45323835513898
 20
52.97574982362086
 30
0.0
  0
VERTEX
  5
D48
  8
LAYER_1
 10
-63.40495545522027
 20
52.92534889824853
 30
0.0
  0
VERTEX
  5
D49
  8
LAYER_1
 10
-63.37277017479094
 20
52.88036363627781
 30
0.0
  0
VERTEX
  5
D4A
  8
LAYER_1
 10
-63.35519760316831
 20
52.83819306888178
 30
0.0
  0
VERTEX
  5
D4B
  8
LAYER_1
 10
-63.35075282966974
 20
52.79623622723351
 30
0.0
  0
VERTEX
  5
D4C
  8
LAYER_1
 10
-63.35795094361257
 20
52.75189214250606
 30
0.0
  0
VERTEX
  5
D4D
  8
LAYER_1
 10
-63.37530703431416
 20
52.70255984587251
 30
0.0
  0
VERTEX
  5
D4E
  8
LAYER_1
 10
-63.47275048613357
 20
52.39872427647751
 30
0.0
  0
VERTEX
  5
D4F
  8
LAYER_1
 10
-63.61052287164512
 20
51.90000504255295
 30
0.0
  0
VERTEX
  5
D50
  8
LAYER_1
 10
-63.77701434630107
 20
51.26250501722097
 30
0.0
  0
VERTEX
  5
D51
  8
LAYER_1
 10
-63.86736417337102
 20
51.7875050380826
 30
0.0
  0
VERTEX
  5
D52
  8
LAYER_1
 10
-63.92561946594709
 20
52.10460426904044
 30
0.0
  0
VERTEX
  5
D53
  8
LAYER_1
 10
-63.98968797376408
 20
52.41189561460924
 30
0.0
  0
VERTEX
  5
D54
  8
LAYER_1
 10
-64.05990827838966
 20
52.71018864393937
 30
0.0
  0
VERTEX
  5
D55
  8
LAYER_1
 10
-64.1366189613915
 20
53.00029292618122
 30
0.0
  0
VERTEX
  5
D56
  8
LAYER_1
 10
-64.22015860433726
 20
53.28301803048517
 30
0.0
  0
VERTEX
  5
D57
  8
LAYER_1
 10
-64.31086578879459
 20
53.55917352600159
 30
0.0
  0
VERTEX
  5
D58
  8
LAYER_1
 10
-64.40907909633114
 20
53.82956898188088
 30
0.0
  0
VERTEX
  5
D59
  8
LAYER_1
 10
-64.51513710851458
 20
54.09501396727341
 30
0.0
  0
VERTEX
  5
D5A
  8
LAYER_1
 10
-64.62937840691256
 20
54.35631805132956
 30
0.0
  0
VERTEX
  5
D5B
  8
LAYER_1
 10
-64.75214157309277
 20
54.61429080319971
 30
0.0
  0
VERTEX
  5
D5C
  8
LAYER_1
 10
-64.88376518862283
 20
54.86974179203425
 30
0.0
  0
VERTEX
  5
D5D
  8
LAYER_1
 10
-65.02458783507043
 20
55.12348058698355
 30
0.0
  0
VERTEX
  5
D5E
  8
LAYER_1
 10
-65.17494809400321
 20
55.37631675719801
 30
0.0
  0
VERTEX
  5
D5F
  8
LAYER_1
 10
-65.33518454698884
 20
55.62905987182799
 30
0.0
  0
VERTEX
  5
D60
  8
LAYER_1
 10
-65.50563577559495
 20
55.88251950002388
 30
0.0
  0
VERTEX
  5
D61
  8
LAYER_1
 10
-65.68664036138924
 20
56.13750521093607
 30
0.0
  0
VERTEX
  5
D62
  8
LAYER_1
 10
-65.96874283917708
 20
56.49760469587262
 30
0.0
  0
VERTEX
  5
D63
  8
LAYER_1
 10
-66.31309935821584
 20
56.904468659748
 30
0.0
  0
VERTEX
  5
D64
  8
LAYER_1
 10
-66.61422347305506
 20
57.23722591151087
 30
0.0
  0
VERTEX
  5
D65
  8
LAYER_1
 10
-66.7156088646966
 20
57.33804227314657
 30
0.0
  0
VERTEX
  5
D66
  8
LAYER_1
 10
-66.76662873824435
 20
57.3750052601099
 30
0.0
  0
VERTEX
  5
D67
  8
LAYER_1
 10
-66.78749967366457
 20
57.3750052601099
 30
0.0
  0
VERTEX
  5
D68
  8
LAYER_1
 10
-66.79185249538233
 20
55.16250517219305
 30
0.0
  0
VERTEX
  5
D69
  8
LAYER_1
 10
-66.92228482737383
 20
51.5625050291419
 30
0.0
  0
VERTEX
  5
D6A
  8
LAYER_1
 10
-66.79175255088995
 20
51.11476223427991
 30
0.0
  0
VERTEX
  5
D6B
  8
LAYER_1
 10
-66.71990643194411
 20
50.88916867486033
 30
0.0
  0
VERTEX
  5
D6C
  8
LAYER_1
 10
-66.63890713100145
 20
50.67371359409423
 30
0.0
  0
VERTEX
  5
D6D
  8
LAYER_1
 10
-66.5488567186925
 20
50.46850564475778
 30
0.0
  0
VERTEX
  5
D6E
  8
LAYER_1
 10
-66.44985726564781
 20
50.27365347962713
 30
0.0
  0
VERTEX
  5
D6F
  8
LAYER_1
 10
-66.34201084249791
 20
50.08926575147844
 30
0.0
  0
VERTEX
  5
D70
  8
LAYER_1
 10
-66.22541951987336
 20
49.91545111308788
 30
0.0
  0
VERTEX
  5
D71
  8
LAYER_1
 10
-66.1001853684047
 20
49.7523182172316
 30
0.0
  0
VERTEX
  5
D72
  8
LAYER_1
 10
-65.96641045872246
 20
49.59997571668578
 30
0.0
  0
VERTEX
  5
D73
  8
LAYER_1
 10
-65.82419686145721
 20
49.45853226422655
 30
0.0
  0
VERTEX
  5
D74
  8
LAYER_1
 10
-65.67364664723947
 20
49.32809651263008
 30
0.0
  0
VERTEX
  5
D75
  8
LAYER_1
 10
-65.5148618866998
 20
49.20877711467254
 30
0.0
  0
VERTEX
  5
D76
  8
LAYER_1
 10
-65.34794465046872
 20
49.10068272313008
 30
0.0
  0
VERTEX
  5
D77
  8
LAYER_1
 10
-65.1729970091768
 20
49.00392199077886
 30
0.0
  0
VERTEX
  5
D78
  8
LAYER_1
 10
-64.99012103345456
 20
48.91860357039504
 30
0.0
  0
VERTEX
  5
D79
  8
LAYER_1
 10
-64.79941879393256
 20
48.84483611475478
 30
0.0
  0
VERTEX
  5
D7A
  8
LAYER_1
 10
-64.60099236124134
 20
48.78272827663424
 30
0.0
  0
VERTEX
  5
D7B
  8
LAYER_1
 10
-64.16249956935644
 20
48.66079463182471
 30
0.0
  0
VERTEX
  5
D7C
  8
LAYER_1
 10
-64.17325239078554
 20
46.83750484138727
 30
0.0
  0
VERTEX
  5
D7D
  8
LAYER_1
 10
-64.18662598081605
 20
46.88973661156761
 30
0.0
  0
VERTEX
  5
D7E
  8
LAYER_1
 10
-64.22105177957592
 20
46.96865734703276
 30
0.0
  0
VERTEX
  5
D7F
  8
LAYER_1
 10
-64.29470520654922
 20
47.10472593217091
 30
0.0
  0
VERTEX
  5
D80
  8
LAYER_1
 10
-64.52022823852114
 20
47.48419872949452
 30
0.0
  0
VERTEX
  5
D81
  8
LAYER_1
 10
-64.78426166350181
 20
47.89993915959485
 30
0.0
  0
VERTEX
  5
D82
  8
LAYER_1
 10
-65.00787206826124
 20
48.22373137852833
 30
0.0
  0
VERTEX
  5
D83
  8
LAYER_1
 10
-65.18491612150794
 20
48.44690906968145
 30
0.0
  0
VERTEX
  5
D84
  8
LAYER_1
 10
-65.38660085724513
 20
48.68033965632806
 30
0.0
  0
VERTEX
  5
D85
  8
LAYER_1
 10
-65.60755273651654
 20
48.91873580132341
 30
0.0
  0
VERTEX
  5
D86
  8
LAYER_1
 10
-65.84239822036596
 20
49.15681016752278
 30
0.0
  0
VERTEX
  5
D87
  8
LAYER_1
 10
-66.08576376983711
 20
49.38927541778143
 30
0.0
  0
VERTEX
  5
D88
  8
LAYER_1
 10
-66.33227584597375
 20
49.61084421495463
 30
0.0
  0
VERTEX
  5
D89
  8
LAYER_1
 10
-66.57656090981962
 20
49.81622922189766
 30
0.0
  0
VERTEX
  5
D8A
  8
LAYER_1
 10
-66.8132454224185
 20
50.00014310146578
 30
0.0
  0
VERTEX
  5
D8B
  8
LAYER_1
 10
-67.25985662989078
 20
50.32306189372945
 30
0.0
  0
VERTEX
  5
D8C
  8
LAYER_1
 10
-67.44603264767684
 20
50.44784748486426
 30
0.0
  0
VERTEX
  5
D8D
  8
LAYER_1
 10
-67.62435170366632
 20
50.55817233824337
 30
0.0
  0
VERTEX
  5
D8E
  8
LAYER_1
 10
-67.80748586948678
 20
50.66152780304849
 30
0.0
  0
VERTEX
  5
D8F
  8
LAYER_1
 10
-68.00810721676581
 20
50.76540522846132
 30
0.0
  0
VERTEX
  5
D90
  8
LAYER_1
 10
-68.51249974220991
 20
51.00469135783705
 30
0.0
  0
VERTEX
  5
D91
  8
LAYER_1
 10
-68.98943214124962
 20
51.21827120740124
 30
0.0
  0
VERTEX
  5
D92
  8
LAYER_1
 10
-69.15334253351898
 20
51.28509983775608
 30
0.0
  0
VERTEX
  5
D93
  8
LAYER_1
 10
-69.27494102732362
 20
51.32751024009944
 30
0.0
  0
VERTEX
  5
D94
  8
LAYER_1
 10
-69.35977160244022
 20
51.34716939063635
 30
0.0
  0
VERTEX
  5
D95
  8
LAYER_1
 10
-69.41337823864548
 20
51.34574426557185
 30
0.0
  0
VERTEX
  5
D96
  8
LAYER_1
 10
-69.4413049157161
 20
51.32490184111093
 30
0.0
  0
VERTEX
  5
D97
  8
LAYER_1
 10
-69.44909561342881
 20
51.28630909345864
 30
0.0
  0
VERTEX
  5
D98
  8
LAYER_1
 10
-69.44819144739482
 20
51.18750501424074
 30
0.0
  0
VERTEX
  5
D99
  8
LAYER_1
 10
-69.23322555378336
 20
50.55000498890877
 30
0.0
  0
VERTEX
  5
D9A
  8
LAYER_1
 10
-68.94388290855899
 20
49.73292833271275
 30
0.0
  0
VERTEX
  5
D9B
  8
LAYER_1
 10
-68.64728916250824
 20
48.97672058909279
 30
0.0
  0
VERTEX
  5
D9C
  8
LAYER_1
 10
-68.49610086540358
 20
48.62111194364927
 30
0.0
  0
VERTEX
  5
D9D
  8
LAYER_1
 10
-68.34289307956905
 20
48.28032378733025
 30
0.0
  0
VERTEX
  5
D9E
  8
LAYER_1
 10
-68.18759690049686
 20
47.95422387379594
 30
0.0
  0
VERTEX
  5
D9F
  8
LAYER_1
 10
-68.03014342367928
 20
47.64267995670647
 30
0.0
  0
VERTEX
  5
DA0
  8
LAYER_1
 10
-67.87046374460853
 20
47.34555978972203
 30
0.0
  0
VERTEX
  5
DA1
  8
LAYER_1
 10
-67.70848895877685
 20
47.06273112650278
 30
0.0
  0
VERTEX
  5
DA2
  8
LAYER_1
 10
-67.5441501616765
 20
46.79406172070891
 30
0.0
  0
VERTEX
  5
DA3
  8
LAYER_1
 10
-67.37737844879967
 20
46.53941932600056
 30
0.0
  0
VERTEX
  5
DA4
  8
LAYER_1
 10
-67.20810491563864
 20
46.29867169603792
 30
0.0
  0
VERTEX
  5
DA5
  8
LAYER_1
 10
-67.03626065768567
 20
46.07168658448114
 30
0.0
  0
VERTEX
  5
DA6
  8
LAYER_1
 10
-66.86177677043295
 20
45.85833174499041
 30
0.0
  0
VERTEX
  5
DA7
  8
LAYER_1
 10
-66.68458434937273
 20
45.65847493122587
 30
0.0
  0
VERTEX
  5
DA8
  8
LAYER_1
 10
-66.51110917310434
 20
45.47919471949449
 30
0.0
  0
VERTEX
  5
DA9
  8
LAYER_1
 10
-66.33662395346255
 20
45.3132263742602
 30
0.0
  0
VERTEX
  5
DAA
  8
LAYER_1
 10
-66.18143142562913
 20
45.17905365602964
 30
0.0
  0
VERTEX
  5
DAB
  8
LAYER_1
 10
-66.06583432478581
 20
45.09516032530942
 30
0.0
  0
VERTEX
  5
DAC
  8
LAYER_1
 10
-65.91340107612157
 20
44.99095521362977
 30
0.0
  0
VERTEX
  5
DAD
  8
LAYER_1
 10
-65.86703034229119
 20
44.94823527655863
 30
0.0
  0
VERTEX
  5
DAE
  8
LAYER_1
 10
-65.84999963641167
 20
44.91945742074147
 30
0.0
  0
VERTEX
  5
DAF
  8
LAYER_1
 10
-65.84999963641167
 20
44.87125120335608
 30
0.0
  0
VERTEX
  5
DB0
  8
LAYER_1
 10
-66.46874966099858
 20
45.11901558943536
 30
0.0
  0
VERTEX
  5
DB1
  8
LAYER_1
 10
-66.78047667905008
 20
45.2298954921266
 30
0.0
  0
VERTEX
  5
DB2
  8
LAYER_1
 10
-67.13938813950423
 20
45.33371056382396
 30
0.0
  0
VERTEX
  5
DB3
  8
LAYER_1
 10
-67.53231478027138
 20
45.42808161259989
 30
0.0
  0
VERTEX
  5
DB4
  8
LAYER_1
 10
-67.9460873392618
 20
45.51062944652683
 30
0.0
  0
VERTEX
  5
DB5
  8
LAYER_1
 10
-68.36753655438588
 20
45.57897487367724
 30
0.0
  0
VERTEX
  5
DB6
  8
LAYER_1
 10
-68.78349316355394
 20
45.63073870212355
 30
0.0
  0
VERTEX
  5
DB7
  8
LAYER_1
 10
-69.18078790467632
 20
45.66354173993821
 30
0.0
  0
VERTEX
  5
DB8
  8
LAYER_1
 10
-69.54625151566333
 20
45.67500479519367
 30
0.0
  0
VERTEX
  5
DB9
  8
LAYER_1
 10
-70.22307419194338
 20
45.67500479519367
 30
0.0
  0
VERTEX
  5
DBA
  8
LAYER_1
 10
-69.80457010203448
 20
45.26312948319733
 30
0.0
  0
VERTEX
  5
DBB
  8
LAYER_1
 10
-69.42475904439333
 20
44.86831275226929
 30
0.0
  0
VERTEX
  5
DBC
  8
LAYER_1
 10
-69.0992828831282
 20
44.49745062454352
 30
0.0
  0
VERTEX
  5
DBD
  8
LAYER_1
 10
-68.69999974966049
 20
44.01470157700402
 30
0.0
  0
VERTEX
  5
DBE
  8
LAYER_1
 10
-68.48134318667292
 20
43.74687554519167
 30
0.0
  0
VERTEX
  5
DBF
  8
LAYER_1
 10
-68.1727793622427
 20
43.31350600442885
 30
0.0
  0
VERTEX
  5
DC0
  8
LAYER_1
 10
-67.96692561288079
 20
43.0239774498404
 30
0.0
  0
VERTEX
  5
DC1
  8
LAYER_1
 10
-67.83749971538782
 20
42.85306656280974
 30
0.0
  0
VERTEX
  5
DC2
  8
LAYER_1
 10
-67.61249970644712
 20
42.55686851731552
 30
0.0
  0
VERTEX
  5
DC3
  8
LAYER_1
 10
-67.35895884045775
 20
42.22418903491738
 30
0.0
  0
VERTEX
  5
DC4
  8
LAYER_1
 10
-67.09061805605941
 20
41.91433742820452
 30
0.0
  0
VERTEX
  5
DC5
  8
LAYER_1
 10
-66.80803267050561
 20
41.62777342696445
 30
0.0
  0
VERTEX
  5
DC6
  8
LAYER_1
 10
-66.51175800104983
 20
41.36495676098468
 30
0.0
  0
VERTEX
  5
DC7
  8
LAYER_1
 10
-66.20234936494552
 20
41.12634716005272
 30
0.0
  0
VERTEX
  5
DC8
  8
LAYER_1
 10
-65.88036207944619
 20
40.91240435395606
 30
0.0
  0
VERTEX
  5
DC9
  8
LAYER_1
 10
-65.5463514618053
 20
40.72358807248223
 30
0.0
  0
VERTEX
  5
DCA
  8
LAYER_1
 10
-65.2008728292763
 20
40.56035804541872
 30
0.0
  0
VERTEX
  5
DCB
  8
LAYER_1
 10
-64.987499602139
 20
40.4690076364973
 30
0.0
  0
VERTEX
  5
DCC
  8
LAYER_1
 10
-66.93749967962503
 20
40.37214433428642
 30
0.0
  0
VERTEX
  5
DCD
  8
LAYER_1
 10
-67.23749969154596
 20
40.31631913912508
 30
0.0
  0
VERTEX
  5
DCE
  8
LAYER_1
 10
-67.60262437700123
 20
40.23267673294527
 30
0.0
  0
VERTEX
  5
DCF
  8
LAYER_1
 10
-68.05920073167496
 20
40.10997186022884
 30
0.0
  0
VERTEX
  5
DD0
  8
LAYER_1
 10
-68.58090175988303
 20
39.95944977649393
 30
0.0
  0
VERTEX
  5
DD1
  8
LAYER_1
 10
-68.34482027101683
 20
39.86018496049697
 30
0.0
  0
VERTEX
  5
DD2
  8
LAYER_1
 10
-68.21286318168633
 20
39.79528293963553
 30
0.0
  0
VERTEX
  5
DD3
  8
LAYER_1
 10
-68.02809322719708
 20
39.69194931178876
 30
0.0
  0
VERTEX
  5
DD4
  8
LAYER_1
 10
-67.59811923386806
 20
39.42686100437965
 30
0.0
  0
VERTEX
  5
DD5
  8
LAYER_1
 10
-67.0874996855855
 20
39.09280186425924
 30
0.0
  0
VERTEX
  5
DD6
  8
LAYER_1
 10
-64.91249959915876
 20
37.33989503338861
 30
0.0
  0
VERTEX
  5
DD7
  8
LAYER_1
 10
-64.46139189623342
 20
37.08586094776233
 30
0.0
  0
VERTEX
  5
DD8
  8
LAYER_1
 10
-64.19091782485603
 20
36.94192514015899
 30
0.0
  0
VERTEX
  5
DD9
  8
LAYER_1
 10
-63.92870202934641
 20
36.82070865556149
 30
0.0
  0
VERTEX
  5
DDA
  8
LAYER_1
 10
-63.66809561114117
 20
36.72043846860489
 30
0.0
  0
VERTEX
  5
DDB
  8
LAYER_1
 10
-63.40244967167688
 20
36.63934155392425
 30
0.0
  0
VERTEX
  5
DDC
  8
LAYER_1
 10
-63.12511531239014
 20
36.57564488615465
 30
0.0
  0
VERTEX
  5
DDD
  8
LAYER_1
 10
-62.82944363471755
 20
36.52757543993114
 30
0.0
  0
VERTEX
  5
DDE
  8
LAYER_1
 10
-62.50878574009569
 20
36.4933601898888
 30
0.0
  0
VERTEX
  5
DDF
  8
LAYER_1
 10
-62.15649272996117
 20
36.47122611066271
 30
0.0
  0
VERTEX
  5
DE0
  8
LAYER_1
 10
-61.67196422794421
 20
36.45522477304462
 30
0.0
  0
VERTEX
  5
DE1
  8
LAYER_1
 10
-61.49353746989954
 20
36.45677860931227
 30
0.0
  0
VERTEX
  5
DE2
  8
LAYER_1
 10
-61.34322617606415
 20
36.46610221421798
 30
0.0
  0
VERTEX
  5
DE3
  8
LAYER_1
 10
-61.21019819811313
 20
36.48424566170191
 30
0.0
  0
VERTEX
  5
DE4
  8
LAYER_1
 10
-61.08362138772156
 20
36.51225902570425
 30
0.0
  0
VERTEX
  5
DE5
  8
LAYER_1
 10
-60.80649267631699
 20
36.60209579902492
 30
0.0
  0
VERTEX
  5
DE6
  8
LAYER_1
 10
-60.40046265261046
 20
36.76706633041233
 30
0.0
  0
VERTEX
  5
DE7
  8
LAYER_1
 10
-60.2187315348703
 20
36.85189138350503
 30
0.0
  0
VERTEX
  5
DE8
  8
LAYER_1
 10
-60.08284908690879
 20
36.92418489683456
 30
0.0
  0
VERTEX
  5
DE9
  8
LAYER_1
 10
-59.82819875645299
 20
37.07571191244828
 30
0.0
  0
VERTEX
  5
DEA
  8
LAYER_1
 10
-59.44534906157682
 20
36.63189639440654
 30
0.0
  0
VERTEX
  5
DEB
  8
LAYER_1
 10
-59.04442767171322
 20
36.18029473200619
 30
0.0
  0
VERTEX
  5
DEC
  8
LAYER_1
 10
-58.61812900803751
 20
35.7177593349746
 30
0.0
  0
VERTEX
  5
DED
  8
LAYER_1
 10
-58.17375864937438
 20
35.24743779358442
 30
0.0
  0
VERTEX
  5
DEE
  8
LAYER_1
 10
-58.80562901548809
 20
35.54339346553901
 30
0.0
  0
VERTEX
  5
DEF
  8
LAYER_1
 10
-59.16197605108958
 20
35.70319843093261
 30
0.0
  0
VERTEX
  5
DF0
  8
LAYER_1
 10
-59.49412800172453
 20
35.83583472328915
 30
0.0
  0
VERTEX
  5
DF1
  8
LAYER_1
 10
-59.81273500851682
 20
35.94383937041652
 30
0.0
  0
VERTEX
  5
DF2
  8
LAYER_1
 10
-60.12844721259031
 20
36.02974940012255
 30
0.0
  0
VERTEX
  5
DF3
  8
LAYER_1
 10
-60.45191475506891
 20
36.09610184021513
 30
0.0
  0
VERTEX
  5
DF4
  8
LAYER_1
 10
-60.7937877770765
 20
36.1454337185021
 30
0.0
  0
VERTEX
  5
DF5
  8
LAYER_1
 10
-61.16471641973698
 20
36.18028206279135
 30
0.0
  0
VERTEX
  5
DF6
  8
LAYER_1
 10
-61.57535082417421
 20
36.20318390089072
 30
0.0
  0
VERTEX
  5
DF7
  8
LAYER_1
 10
-61.95972400282771
 20
36.21335920571143
 30
0.0
  0
VERTEX
  5
DF8
  8
LAYER_1
 10
-62.3310548638196
 20
36.21203126798454
 30
0.0
  0
VERTEX
  5
DF9
  8
LAYER_1
 10
-62.68748046327871
 20
36.19936555704474
 30
0.0
  0
VERTEX
  5
DFA
  8
LAYER_1
 10
-63.02713785733386
 20
36.17552754222674
 30
0.0
  0
VERTEX
  5
DFB
  8
LAYER_1
 10
-63.34816410211388
 20
36.14068269286524
 30
0.0
  0
VERTEX
  5
DFC
  8
LAYER_1
 10
-63.6486962537476
 20
36.09499647829495
 30
0.0
  0
VERTEX
  5
DFD
  8
LAYER_1
 10
-63.92687136836383
 20
36.03863436785055
 30
0.0
  0
VERTEX
  5
DFE
  8
LAYER_1
 10
-64.18082650209143
 20
35.97176183086677
 30
0.0
  0
VERTEX
  5
DFF
  8
LAYER_1
 10
-65.00624960288405
 20
35.73322546976529
 30
0.0
  0
VERTEX
  5
E00
  8
LAYER_1
 10
-65.33730430353899
 20
35.62669558056619
 30
0.0
  0
VERTEX
  5
E01
  8
LAYER_1
 10
-65.43801231535326
 20
35.5839179431601
 30
0.0
  0
VERTEX
  5
E02
  8
LAYER_1
 10
-65.4749996215105
 20
35.55589025933914
 30
0.0
  0
VERTEX
  5
E03
  8
LAYER_1
 10
-65.4749996215105
 20
35.51052516075882
 30
0.0
  0
VERTEX
  5
E04
  8
LAYER_1
 10
-64.94731207917614
 20
35.2540054949737
 30
0.0
  0
VERTEX
  5
E05
  8
LAYER_1
 10
-64.69676870323536
 20
35.12466318244395
 30
0.0
  0
VERTEX
  5
E06
  8
LAYER_1
 10
-64.40468001755043
 20
34.9621212378994
 30
0.0
  0
VERTEX
  5
E07
  8
LAYER_1
 10
-64.10734485168877
 20
34.787164064498
 30
0.0
  0
VERTEX
  5
E08
  8
LAYER_1
 10
-63.84106203521772
 20
34.62057606539774
 30
0.0
  0
VERTEX
  5
E09
  8
LAYER_1
 10
-63.26249953359365
 20
34.24366630160689
 30
0.0
  0
VERTEX
  5
E0A
  8
LAYER_1
 10
-63.13785510309209
 20
34.16558531817735
 30
0.0
  0
VERTEX
  5
E0B
  8
LAYER_1
 10
-62.65035508372058
 20
33.83031506788211
 30
0.0
  0
VERTEX
  5
E0C
  8
LAYER_1
 10
-62.03433221400411
 20
33.40290987794816
 30
0.0
  0
VERTEX
  5
E0D
  8
LAYER_1
 10
-61.50360249536008
 20
33.05851209994913
 30
0.0
  0
VERTEX
  5
E0E
  8
LAYER_1
 10
-61.26330446662443
 20
32.91445845847396
 30
0.0
  0
VERTEX
  5
E0F
  8
LAYER_1
 10
-61.03602800437791
 20
32.78757763164101
 30
0.0
  0
VERTEX
  5
E10
  8
LAYER_1
 10
-60.81900586819422
 20
32.67667660666979
 30
0.0
  0
VERTEX
  5
E11
  8
LAYER_1
 10
-60.60947081764703
 20
32.58056237077979
 30
0.0
  0
VERTEX
  5
E12
  8
LAYER_1
 10
-60.40465561231001
 20
32.49804191119051
 30
0.0
  0
VERTEX
  5
E13
  8
LAYER_1
 10
-60.20179301175686
 20
32.42792221512145
 30
0.0
  0
VERTEX
  5
E14
  8
LAYER_1
 10
-59.99811577556123
 20
32.36901026979211
 30
0.0
  0
VERTEX
  5
E15
  8
LAYER_1
 10
-59.79085666329681
 20
32.32011306242197
 30
0.0
  0
VERTEX
  5
E16
  8
LAYER_1
 10
-59.57724843453728
 20
32.28003758023056
 30
0.0
  0
VERTEX
  5
E17
  8
LAYER_1
 10
-59.35452384885632
 20
32.24759081043735
 30
0.0
  0
VERTEX
  5
E18
  8
LAYER_1
 10
-58.87065664502482
 20
32.20081135692357
 30
0.0
  0
VERTEX
  5
E19
  8
LAYER_1
 10
-58.48085498240951
 20
32.18538069223284
 30
0.0
  0
VERTEX
  5
E1A
  8
LAYER_1
 10
-58.1117134295382
 20
32.19753658696779
 30
0.0
  0
VERTEX
  5
E1B
  8
LAYER_1
 10
-57.93372261543756
 20
32.21425782253964
 30
0.0
  0
VERTEX
  5
E1C
  8
LAYER_1
 10
-57.75949573419014
 20
32.2382336920716
 30
0.0
  0
VERTEX
  5
E1D
  8
LAYER_1
 10
-57.58856575426834
 20
32.26958352693158
 30
0.0
  0
VERTEX
  5
E1E
  8
LAYER_1
 10
-57.42046564414459
 20
32.30842665848748
 30
0.0
  0
VERTEX
  5
E1F
  8
LAYER_1
 10
-57.25472837229128
 20
32.35488241810721
 30
0.0
  0
VERTEX
  5
E20
  8
LAYER_1
 10
-57.09088690718083
 20
32.40907013715864
 30
0.0
  0
VERTEX
  5
E21
  8
LAYER_1
 10
-56.92847421728563
 20
32.4711091470097
 30
0.0
  0
VERTEX
  5
E22
  8
LAYER_1
 10
-56.7670232710781
 20
32.54111877902829
 30
0.0
  0
VERTEX
  5
E23
  8
LAYER_1
 10
-56.44513848361569
 20
32.70552723503963
 30
0.0
  0
VERTEX
  5
E24
  8
LAYER_1
 10
-56.12149629257284
 20
32.90325015613584
 30
0.0
  0
VERTEX
  5
E25
  8
LAYER_1
 10
-55.73049331977292
 20
33.16094316652044
 30
0.0
  0
VERTEX
  5
E26
  8
LAYER_1
 10
-54.05713806371483
 20
31.95000424981117
 30
0.0
  0
VERTEX
  5
E27
  8
LAYER_1
 10
-54.13680393961037
 20
31.95000424981117
 30
0.0
  0
VERTEX
  5
E28
  8
LAYER_1
 10
-54.7246515786497
 20
32.06249140091282
 30
0.0
  0
VERTEX
  5
E29
  8
LAYER_1
 10
-55.08594746527612
 20
32.11877257787145
 30
0.0
  0
VERTEX
  5
E2A
  8
LAYER_1
 10
-55.47597269387636
 20
32.15588305440461
 30
0.0
  0
VERTEX
  5
E2B
  8
LAYER_1
 10
-55.88746046227273
 20
32.17399301556885
 30
0.0
  0
VERTEX
  5
E2C
  8
LAYER_1
 10
-56.31314396828753
 20
32.17327264642075
 30
0.0
  0
VERTEX
  5
E2D
  8
LAYER_1
 10
-56.74575640974309
 20
32.15389213201685
 30
0.0
  0
VERTEX
  5
E2E
  8
LAYER_1
 10
-57.17803098446172
 20
32.11602165741373
 30
0.0
  0
VERTEX
  5
E2F
  8
LAYER_1
 10
-57.60270089026572
 20
32.05983140766795
 30
0.0
  0
VERTEX
  5
E30
  8
LAYER_1
 10
-58.0124993249774
 20
31.98549156783608
 30
0.0
  0
VERTEX
  5
E31
  8
LAYER_1
 10
-59.23598525428732
 20
31.73818306663357
 30
0.0
  0
VERTEX
  5
E32
  8
LAYER_1
 10
-60.21933060877434
 20
31.55721669519604
 30
0.0
  0
VERTEX
  5
E33
  8
LAYER_1
 10
-60.99862456587468
 20
31.43641387702342
 30
0.0
  0
VERTEX
  5
E34
  8
LAYER_1
 10
-61.32303013835364
 20
31.3966429952552
 30
0.0
  0
VERTEX
  5
E35
  8
LAYER_1
 10
-61.60995630302451
 20
31.36959603561569
 30
0.0
  0
VERTEX
  5
E36
  8
LAYER_1
 10
-62.34516677342967
 20
31.3125042244792
 30
0.0
  0
VERTEX
  5
E37
  8
LAYER_1
 10
-61.97883312072911
 20
31.07996827665058
 30
0.0
  0
VERTEX
  5
E38
  8
LAYER_1
 10
-61.44892178568963
 20
30.75183643930521
 30
0.0
  0
VERTEX
  5
E39
  8
LAYER_1
 10
-60.92544901871053
 20
30.44389882025434
 30
0.0
  0
VERTEX
  5
E3A
  8
LAYER_1
 10
-60.41274833737812
 20
30.15835432588041
 30
0.0
  0
VERTEX
  5
E3B
  8
LAYER_1
 10
-59.91515325927872
 20
29.89740186256588
 30
0.0
  0
VERTEX
  5
E3C
  8
LAYER_1
 10
-59.43699730199867
 20
29.66324033669321
 30
0.0
  0
VERTEX
  5
E3D
  8
LAYER_1
 10
-58.98261398312429
 20
29.45806865464483
 30
0.0
  0
VERTEX
  5
E3E
  8
LAYER_1
 10
-58.55633682024191
 20
29.2840857228032
 30
0.0
  0
VERTEX
  5
E3F
  8
LAYER_1
 10
-58.16249933093786
 20
29.14349044755078
 30
0.0
  0
VERTEX
  5
E40
  8
LAYER_1
 10
-57.75596690645079
 20
29.02222867847196
 30
0.0
  0
VERTEX
  5
E41
  8
LAYER_1
 10
-57.36086254325261
 20
28.92846221322441
 30
0.0
  0
VERTEX
  5
E42
  8
LAYER_1
 10
-56.97703608920273
 20
28.86223081179232
 30
0.0
  0
VERTEX
  5
E43
  8
LAYER_1
 10
-56.60433739216059
 20
28.82357423415986
 30
0.0
  0
VERTEX
  5
E44
  8
LAYER_1
 10
-56.24261629998558
 20
28.81253224031123
 30
0.0
  0
VERTEX
  5
E45
  8
LAYER_1
 10
-55.89172266053716
 20
28.82914459023062
 30
0.0
  0
VERTEX
  5
E46
  8
LAYER_1
 10
-55.55150632167472
 20
28.87345104390221
 30
0.0
  0
VERTEX
  5
E47
  8
LAYER_1
 10
-55.22181713125769
 20
28.94549136131019
 30
0.0
  0
VERTEX
  5
E48
  8
LAYER_1
 10
-54.90250493714549
 20
29.04530530243876
 30
0.0
  0
VERTEX
  5
E49
  8
LAYER_1
 10
-54.59341958719754
 20
29.17293262727209
 30
0.0
  0
VERTEX
  5
E4A
  8
LAYER_1
 10
-54.29441092927328
 20
29.32841309579437
 30
0.0
  0
VERTEX
  5
E4B
  8
LAYER_1
 10
-54.00532881123209
 20
29.51178646798981
 30
0.0
  0
VERTEX
  5
E4C
  8
LAYER_1
 10
-53.72602308093342
 20
29.72309250384258
 30
0.0
  0
VERTEX
  5
E4D
  8
LAYER_1
 10
-53.45634358623668
 20
29.96237096333687
 30
0.0
  0
VERTEX
  5
E4E
  8
LAYER_1
 10
-53.1961401750013
 20
30.22966160645687
 30
0.0
  0
VERTEX
  5
E4F
  8
LAYER_1
 10
-52.94526269508668
 20
30.52500419318676
 30
0.0
  0
VERTEX
  5
E50
  8
LAYER_1
 10
-52.5572179698024
 20
31.01250421255827
 30
0.0
  0
VERTEX
  5
E51
  8
LAYER_1
 10
-52.53769625462157
 20
31.03466649704477
 30
0.0
  0
VERTEX
  5
E52
  8
LAYER_1
 10
-52.50128890831928
 20
31.02637559657715
 30
0.0
  0
VERTEX
  5
E53
  8
LAYER_1
 10
-52.41659108481991
 20
30.987418277824
 30
0.0
  0
VERTEX
  5
E54
  8
LAYER_1
 10
-52.15283680852943
 20
30.84269998956751
 30
0.0
  0
VERTEX
  5
E55
  8
LAYER_1
 10
-51.66348890188117
 20
30.57456263866532
 30
0.0
  0
VERTEX
  5
E56
  8
LAYER_1
 10
-50.99999904632568
 20
30.23058348159427
 30
0.0
  0
VERTEX
  5
E57
  8
LAYER_1
 10
-50.21249901503325
 20
29.83259576558478
 30
0.0
  0
VERTEX
  5
E58
  8
LAYER_1
 10
-50.14080135990414
 20
29.76585231069659
 30
0.0
  0
VERTEX
  5
E59
  8
LAYER_1
 10
-50.13338581451957
 20
29.75257155313777
 30
0.0
  0
VERTEX
  5
E5A
  8
LAYER_1
 10
-50.14210408322969
 20
29.74218126086522
 30
0.0
  0
VERTEX
  5
E5B
  8
LAYER_1
 10
-50.2041644853005
 20
29.73031574312517
 30
0.0
  0
VERTEX
  5
E5C
  8
LAYER_1
 10
-50.31942741084971
 20
29.73074309936895
 30
0.0
  0
VERTEX
  5
E5D
  8
LAYER_1
 10
-50.48033770461043
 20
29.74395067148912
 30
0.0
  0
VERTEX
  5
E5E
  8
LAYER_1
 10
-50.89157170444584
 20
29.78879248716987
 30
0.0
  0
VERTEX
  5
E5F
  8
LAYER_1
 10
-51.84983732600476
 20
29.70690115986993
 30
0.0
  0
VERTEX
  5
E60
  8
LAYER_1
 10
-52.24062435070729
 20
29.66636753635865
 30
0.0
  0
VERTEX
  5
E61
  8
LAYER_1
 10
-52.62046417002153
 20
29.61253309750066
 30
0.0
  0
VERTEX
  5
E62
  8
LAYER_1
 10
-52.98899237406083
 20
29.54548787935779
 30
0.0
  0
VERTEX
  5
E63
  8
LAYER_1
 10
-53.34584455293848
 20
29.46532191799184
 30
0.0
  0
VERTEX
  5
E64
  8
LAYER_1
 10
-53.69065629676783
 20
29.37212524946461
 30
0.0
  0
VERTEX
  5
E65
  8
LAYER_1
 10
-54.0230631956622
 20
29.26598790983791
 30
0.0
  0
VERTEX
  5
E66
  8
LAYER_1
 10
-54.34270083973492
 20
29.14699993517355
 30
0.0
  0
VERTEX
  5
E67
  8
LAYER_1
 10
-54.64920481909931
 20
29.01525136153333
 30
0.0
  0
VERTEX
  5
E68
  8
LAYER_1
 10
-55.02273460933145
 20
28.83482542278382
 30
0.0
  0
VERTEX
  5
E69
  8
LAYER_1
 10
-55.1449365300967
 20
28.76947389004693
 30
0.0
  0
VERTEX
  5
E6A
  8
LAYER_1
 10
-55.19999921321869
 20
28.73304325314398
 30
0.0
  0
VERTEX
  5
E6B
  8
LAYER_1
 10
-55.28701702419061
 20
28.66951367337489
 30
0.0
  0
VERTEX
  5
E6C
  8
LAYER_1
 10
-55.44357048251997
 20
28.58105672729332
 30
0.0
  0
VERTEX
  5
E6D
  8
LAYER_1
 10
-55.5940213887485
 20
28.48964196437671
 30
0.0
  0
VERTEX
  5
E6E
  8
LAYER_1
 10
-55.79376700924318
 20
28.34816716532771
 30
0.0
  0
VERTEX
  5
E6F
  8
LAYER_1
 10
-56.02785023936513
 20
28.16897955492924
 30
0.0
  0
VERTEX
  5
E70
  8
LAYER_1
 10
-56.28131397447544
 20
27.96442635796425
 30
0.0
  0
VERTEX
  5
E71
  8
LAYER_1
 10
-56.53920110993522
 20
27.74685479921565
 30
0.0
  0
VERTEX
  5
E72
  8
LAYER_1
 10
-56.78655454110558
 20
27.52861210346639
 30
0.0
  0
VERTEX
  5
E73
  8
LAYER_1
 10
-57.00841716334762
 20
27.32204549549938
 30
0.0
  0
VERTEX
  5
E74
  8
LAYER_1
 10
-57.18983187202245
 20
27.13950220009757
 30
0.0
  0
VERTEX
  5
E75
  8
LAYER_1
 10
-57.54290759697861
 20
26.74931451824263
 30
0.0
  0
VERTEX
  5
E76
  8
LAYER_1
 10
-57.84793359744958
 20
26.38783345625257
 30
0.0
  0
VERTEX
  5
E77
  8
LAYER_1
 10
-58.05566194026792
 20
26.11589622084362
 30
0.0
  0
VERTEX
  5
E78
  8
LAYER_1
 10
-58.10764951094254
 20
26.03251816520589
 30
0.0
  0
VERTEX
  5
E79
  8
LAYER_1
 10
-58.1179808997511
 20
26.007303812646
 30
0.0
  0
VERTEX
  5
E7A
  8
LAYER_1
 10
-58.1168446922662
 20
25.99434001873202
 30
0.0
  0
VERTEX
  5
E7B
  8
LAYER_1
 10
-58.06994262361981
 20
25.98911758603508
 30
0.0
  0
VERTEX
  5
E7C
  8
LAYER_1
 10
-57.96393202347062
 20
25.99474997883543
 30
0.0
  0
VERTEX
  5
E7D
  8
LAYER_1
 10
-57.63749931007624
 20
26.03344651349089
 30
0.0
  0
VERTEX
  5
E7E
  8
LAYER_1
 10
-57.18749929219484
 20
26.09940773002431
 30
0.0
  0
VERTEX
  5
E7F
  8
LAYER_1
 10
-52.68749911338091
 20
26.08127398127436
 30
0.0
  0
VERTEX
  5
E80
  8
LAYER_1
 10
-52.11323761148859
 20
26.24327095149197
 30
0.0
  0
VERTEX
  5
E81
  8
LAYER_1
 10
-51.73541697004188
 20
26.36249559831117
 30
0.0
  0
VERTEX
  5
E82
  8
LAYER_1
 10
-51.36672627587767
 20
26.50360879604256
 30
0.0
  0
VERTEX
  5
E83
  8
LAYER_1
 10
-51.01150371305317
 20
26.6641541978389
 30
0.0
  0
VERTEX
  5
E84
  8
LAYER_1
 10
-50.67408746562558
 20
26.84167545685292
 30
0.0
  0
VERTEX
  5
E85
  8
LAYER_1
 10
-50.35881571765206
 20
27.03371622623737
 30
0.0
  0
VERTEX
  5
E86
  8
LAYER_1
 10
-50.07002665318984
 20
27.23782015914502
 30
0.0
  0
VERTEX
  5
E87
  8
LAYER_1
 10
-49.81205845629609
 20
27.45153090872859
 30
0.0
  0
VERTEX
  5
E88
  8
LAYER_1
 10
-49.69598786570526
 20
27.56122123138408
 30
0.0
  0
VERTEX
  5
E89
  8
LAYER_1
 10
-49.58924931102801
 20
27.67239212814084
 30
0.0
  0
VERTEX
  5
E8A
  8
LAYER_1
 10
-49.49071226686198
 20
27.78875962240636
 30
0.0
  0
VERTEX
  5
E8B
  8
LAYER_1
 10
-49.38260672626146
 20
27.93050521770376
 30
0.0
  0
VERTEX
  5
E8C
  8
LAYER_1
 10
-49.15872423527888
 20
28.25744036965981
 30
0.0
  0
VERTEX
  5
E8D
  8
LAYER_1
 10
-48.95966999712424
 20
28.58781690054032
 30
0.0
  0
VERTEX
  5
E8E
  8
LAYER_1
 10
-48.88259977255861
 20
28.73386421949328
 30
0.0
  0
VERTEX
  5
E8F
  8
LAYER_1
 10
-48.82751217084143
 20
28.85625412687659
 30
0.0
  0
VERTEX
  5
E90
  8
LAYER_1
 10
-48.78881450628443
 20
28.93773260741734
 30
0.0
  0
VERTEX
  5
E91
  8
LAYER_1
 10
-48.74361374859289
 20
29.00346327837497
 30
0.0
  0
VERTEX
  5
E92
  8
LAYER_1
 10
-48.69321176735147
 20
29.05288773398322
 30
0.0
  0
VERTEX
  5
E93
  8
LAYER_1
 10
-48.6389104321448
 20
29.08544756847587
 30
0.0
  0
VERTEX
  5
E94
  8
LAYER_1
 10
-48.58201161255753
 20
29.10058437608667
 30
0.0
  0
VERTEX
  5
E95
  8
LAYER_1
 10
-48.52381717817433
 20
29.09773975104935
 30
0.0
  0
VERTEX
  5
E96
  8
LAYER_1
 10
-48.46562899857982
 20
29.07635528759769
 30
0.0
  0
VERTEX
  5
E97
  8
LAYER_1
 10
-48.40874894335866
 20
29.03587257996544
 30
0.0
  0
VERTEX
  5
E98
  8
LAYER_1
 10
-48.33749894052744
 20
28.97174102336854
 30
0.0
  0
VERTEX
  5
E99
  8
LAYER_1
 10
-47.66249891370535
 20
28.70321343383142
 30
0.0
  0
VERTEX
  5
E9A
  8
LAYER_1
 10
-46.9702499031514
 20
28.43572314053421
 30
0.0
  0
VERTEX
  5
E9B
  8
LAYER_1
 10
-46.25377891544207
 20
28.16968947599942
 30
0.0
  0
VERTEX
  5
E9C
  8
LAYER_1
 10
-45.52005894400089
 20
27.9046931077045
 30
0.0
  0
VERTEX
  5
E9D
  8
LAYER_1
 10
-45.40410316443067
 20
27.839800990892
 30
0.0
  0
VERTEX
  5
E9E
  8
LAYER_1
 10
-45.37793565563012
 20
27.82123072624147
 30
0.0
  0
VERTEX
  5
E9F
  8
LAYER_1
 10
-45.36636635714763
 20
27.80221583192487
 30
0.0
  0
VERTEX
  5
EA0
  8
LAYER_1
 10
-45.37023116422549
 20
27.78208137149726
 30
0.0
  0
VERTEX
  5
EA1
  8
LAYER_1
 10
-45.390365972106
 20
27.76015240851373
 30
0.0
  0
VERTEX
  5
EA2
  8
LAYER_1
 10
-45.48278917124411
 20
27.70821122909908
 30
0.0
  0
VERTEX
  5
EA3
  8
LAYER_1
 10
-45.65032311650035
 20
27.64099280212142
 30
0.0
  0
VERTEX
  5
EA4
  8
LAYER_1
 10
-46.01249884814024
 20
27.50707673016335
 30
0.0
  0
VERTEX
  5
EA5
  8
LAYER_1
 10
-46.87499888241291
 20
27.16961649065293
 30
0.0
  0
VERTEX
  5
EA6
  8
LAYER_1
 10
-47.62337196432263
 20
26.86781283891175
 30
0.0
  0
VERTEX
  5
EA7
  8
LAYER_1
 10
-48.21148166631841
 20
26.61608014020825
 30
0.0
  0
VERTEX
  5
EA8
  8
LAYER_1
 10
-48.55505758835744
 20
26.46347638686093
 30
0.0
  0
VERTEX
  5
EA9
  8
LAYER_1
 10
-48.71550902909458
 20
26.40000402927399
 30
0.0
  0
VERTEX
  5
EAA
  8
LAYER_1
 10
-48.85714112559238
 20
26.34492590208538
 30
0.0
  0
VERTEX
  5
EAB
  8
LAYER_1
 10
-49.15547053914112
 20
26.21250402182341
 30
0.0
  0
VERTEX
  5
EAC
  8
LAYER_1
 10
-49.45974787521146
 20
26.08008214156143
 30
0.0
  0
VERTEX
  5
EAD
  8
LAYER_1
 10
-49.61568029606968
 20
26.02500401437283
 30
0.0
  0
VERTEX
  5
EAE
  8
LAYER_1
 10
-49.66597315609503
 20
26.02500401437283
 30
0.0
  0
VERTEX
  5
EAF
  8
LAYER_1
 10
-52.49827891654419
 20
24.60839358121645
 30
0.0
  0
VERTEX
  5
EB0
  8
LAYER_1
 10
-52.83140216947936
 20
24.37919876054173
 30
0.0
  0
VERTEX
  5
EB1
  8
LAYER_1
 10
-53.08021935620675
 20
24.21732991844021
 30
0.0
  0
VERTEX
  5
EB2
  8
LAYER_1
 10
-53.16645475710657
 20
24.16808884368589
 30
0.0
  0
VERTEX
  5
EB3
  8
LAYER_1
 10
-53.21064930102534
 20
24.15000393986702
 30
0.0
  0
VERTEX
  5
EB4
  8
LAYER_1
 10
-53.25677317963616
 20
24.15000393986702
 30
0.0
  0
VERTEX
  5
EB5
  8
LAYER_1
 10
-53.8346361807812
 20
23.76316278725848
 30
0.0
  0
VERTEX
  5
EB6
  8
LAYER_1
 10
-54.43841925351965
 20
23.34055048231461
 30
0.0
  0
VERTEX
  5
EB7
  8
LAYER_1
 10
-55.06030370147808
 20
22.87384168783597
 30
0.0
  0
VERTEX
  5
EB8
  8
LAYER_1
 10
-55.63100765595188
 20
22.41670594782569
 30
0.0
  0
VERTEX
  5
EB9
  8
LAYER_1
 10
-55.87551636416185
 20
22.20849970574716
 30
0.0
  0
VERTEX
  5
EBA
  8
LAYER_1
 10
-56.08124924823642
 20
22.02281280628688
 30
0.0
  0
VERTEX
  5
EBB
  8
LAYER_1
 10
-56.29531632042627
 20
21.81276905620985
 30
0.0
  0
VERTEX
  5
EBC
  8
LAYER_1
 10
-56.36473383104649
 20
21.7317445047949
 30
0.0
  0
VERTEX
  5
EBD
  8
LAYER_1
 10
-56.41371859583298
 20
21.65838934685461
 30
0.0
  0
VERTEX
  5
EBE
  8
LAYER_1
 10
-56.44575406814779
 20
21.58645696568322
 30
0.0
  0
VERTEX
  5
EBF
  8
LAYER_1
 10
-56.46432370135296
 20
21.50970074457495
 30
0.0
  0
VERTEX
  5
EC0
  8
LAYER_1
 10
-56.47499926388264
 20
21.31673031572464
 30
0.0
  0
VERTEX
  5
EC1
  8
LAYER_1
 10
-56.46551298225121
 20
21.13393592639795
 30
0.0
  0
VERTEX
  5
EC2
  8
LAYER_1
 10
-56.45105862645204
 20
21.06135594279947
 30
0.0
  0
VERTEX
  5
EC3
  8
LAYER_1
 10
-56.42782212398844
 20
20.99618599613056
 30
0.0
  0
VERTEX
  5
EC4
  8
LAYER_1
 10
-56.39407247235382
 20
20.93457500855599
 30
0.0
  0
VERTEX
  5
EC5
  8
LAYER_1
 10
-56.34807866904159
 20
20.8726719022405
 30
0.0
  0
VERTEX
  5
EC6
  8
LAYER_1
 10
-56.21243459735792
 20
20.7325850220458
 30
0.0
  0
VERTEX
  5
EC7
  8
LAYER_1
 10
-56.09421634749459
 20
20.63359971536052
 30
0.0
  0
VERTEX
  5
EC8
  8
LAYER_1
 10
-55.96643135444495
 20
20.54714171505096
 30
0.0
  0
VERTEX
  5
EC9
  8
LAYER_1
 10
-55.84446047819518
 20
20.48251533763398
 30
0.0
  0
SEQEND
  5
FFA
  8
LAYER_1
  0
POLYLINE
  5
77
  8
LAYER_1
 66
     1
 10
0.0
 20
0.0
 30
0.0
 70
     1
  0
VERTEX
  5
ECA
  8
LAYER_1
 10
-31.61445338002107
 20
29.44304907568163
 30
0.0
  0
VERTEX
  5
ECB
  8
LAYER_1
 10
-31.39236922659943
 20
29.28738032463752
 30
0.0
  0
VERTEX
  5
ECC
  8
LAYER_1
 10
-31.27695336661002
 20
29.19625953770147
 30
0.0
  0
VERTEX
  5
ECD
  8
LAYER_1
 10
-31.27346962686859
 20
29.18337749064752
 30
0.0
  0
VERTEX
  5
ECE
  8
LAYER_1
 10
-31.29315070004819
 20
29.18168252280702
 30
0.0
  0
VERTEX
  5
ECF
  8
LAYER_1
 10
-31.38749826699495
 20
29.21004454284173
 30
0.0
  0
VERTEX
  5
ED0
  8
LAYER_1
 10
-31.75665844274078
 20
29.34504662056215
 30
0.0
  0
VERTEX
  5
ED1
  8
LAYER_1
 10
-32.12963973182799
 20
29.46078350402114
 30
0.0
  0
VERTEX
  5
ED2
  8
LAYER_1
 10
-32.51102652336456
 20
29.55806501661324
 30
0.0
  0
VERTEX
  5
ED3
  8
LAYER_1
 10
-32.90540320645844
 20
29.63770098173304
 30
0.0
  0
VERTEX
  5
ED4
  8
LAYER_1
 10
-33.31735417021759
 20
29.7005012227751
 30
0.0
  0
VERTEX
  5
ED5
  8
LAYER_1
 10
-33.75146380374997
 20
29.74727556313398
 30
0.0
  0
VERTEX
  5
ED6
  8
LAYER_1
 10
-34.21231649616355
 20
29.77883382620424
 30
0.0
  0
VERTEX
  5
ED7
  8
LAYER_1
 10
-34.70449663656629
 20
29.79598583538048
 30
0.0
  0
VERTEX
  5
ED8
  8
LAYER_1
 10
-35.54649490778996
 20
29.81287767808745
 30
0.0
  0
VERTEX
  5
ED9
  8
LAYER_1
 10
-34.74199663805641
 20
30.22224567137212
 30
0.0
  0
VERTEX
  5
EDA
  8
LAYER_1
 10
-34.064837746782
 20
30.57479643416571
 30
0.0
  0
VERTEX
  5
EDB
  8
LAYER_1
 10
-33.56649585504599
 20
30.84756129882288
 30
0.0
  0
VERTEX
  5
EDC
  8
LAYER_1
 10
-33.19549334176913
 20
31.063508932989
 30
0.0
  0
VERTEX
  5
EDD
  8
LAYER_1
 10
-33.0417246447751
 20
30.85241846791622
 30
0.0
  0
VERTEX
  5
EDE
  8
LAYER_1
 10
-32.875305068779
 20
30.63185185921834
 30
0.0
  0
VERTEX
  5
EDF
  8
LAYER_1
 10
-32.70858487202024
 20
30.4270553683212
 30
0.0
  0
VERTEX
  5
EE0
  8
LAYER_1
 10
-32.54000160315184
 20
30.23648614127708
 30
0.0
  0
VERTEX
  5
EE1
  8
LAYER_1
 10
-32.36799281082684
 20
30.05860132413826
 30
0.0
  0
VERTEX
  5
EE2
  8
LAYER_1
 10
-32.19099604369825
 20
29.89185806295702
 30
0.0
  0
VERTEX
  5
EE3
  8
LAYER_1
 10
-32.00744885041907
 20
29.73471350378565
 30
0.0
  0
VERTEX
  5
EE4
  8
LAYER_1
 10
-31.81578877964234
 20
29.58562479267643
 30
0.0
  0
SEQEND
  5
FFB
  8
LAYER_1
  0
POLYLINE
  5
78
  8
LAYER_1
 66
     1
 10
0.0
 20
0.0
 30
0.0
 70
     1
  0
VERTEX
  5
EE5
  8
LAYER_1
 10
-49.80238644890392
 20
31.27500422298908
 30
0.0
  0
VERTEX
  5
EE6
  8
LAYER_1
 10
-50.13926620441192
 20
31.78125424310565
 30
0.0
  0
VERTEX
  5
EE7
  8
LAYER_1
 10
-50.42650340166146
 20
32.22691832331475
 30
0.0
  0
VERTEX
  5
EE8
  8
LAYER_1
 10
-50.6440297724204
 20
32.58750427514315
 30
0.0
  0
VERTEX
  5
EE9
  8
LAYER_1
 10
-50.72189748882852
 20
32.74245545317535
 30
0.0
  0
VERTEX
  5
EEA
  8
LAYER_1
 10
-50.80980834884252
 20
32.94258241425268
 30
0.0
  0
VERTEX
  5
EEB
  8
LAYER_1
 10
-50.89698013661626
 20
33.16204531359836
 30
0.0
  0
VERTEX
  5
EEC
  8
LAYER_1
 10
-50.97263063630356
 20
33.37500430643559
 30
0.0
  0
VERTEX
  5
EED
  8
LAYER_1
 10
-51.06295713348814
 20
33.64009721969207
 30
0.0
  0
VERTEX
  5
EEE
  8
LAYER_1
 10
-51.09359693205628
 20
33.71637226688892
 30
0.0
  0
VERTEX
  5
EEF
  8
LAYER_1
 10
-51.11730635818812
 20
33.75854873807509
 30
0.0
  0
VERTEX
  5
EF0
  8
LAYER_1
 10
-51.13614935756853
 20
33.76918840595825
 30
0.0
  0
VERTEX
  5
EF1
  8
LAYER_1
 10
-51.15218987588234
 20
33.75085304324607
 30
0.0
  0
VERTEX
  5
EF2
  8
LAYER_1
 10
-51.18411925204963
 20
33.6375043168664
 30
0.0
  0
VERTEX
  5
EF3
  8
LAYER_1
 10
-51.27262742574888
 20
33.30267847391757
 30
0.0
  0
VERTEX
  5
EF4
  8
LAYER_1
 10
-51.41412743383466
 20
32.81362911938282
 30
0.0
  0
VERTEX
  5
EF5
  8
LAYER_1
 10
-51.50808968096118
 20
32.48631310063757
 30
0.0
  0
VERTEX
  5
EF6
  8
LAYER_1
 10
-51.53382999435456
 20
32.37714382301183
 30
0.0
  0
VERTEX
  5
EF7
  8
LAYER_1
 10
-51.54606135979898
 20
32.29638184455763
 30
0.0
  0
VERTEX
  5
EF8
  8
LAYER_1
 10
-51.54527247141763
 20
32.23808827378019
 30
0.0
  0
VERTEX
  5
EF9
  8
LAYER_1
 10
-51.53195202333373
 20
32.19632421918476
 30
0.0
  0
VERTEX
  5
EFA
  8
LAYER_1
 10
-51.5065887096705
 20
32.16515078927653
 30
0.0
  0
VERTEX
  5
EFB
  8
LAYER_1
 10
-51.46967122455112
 20
32.13862909256073
 30
0.0
  0
VERTEX
  5
EFC
  8
LAYER_1
 10
-51.34597839784594
 20
32.06250425428152
 30
0.0
  0
VERTEX
  5
EFD
  8
LAYER_1
 10
-49.91249900311232
 20
31.2771085272803
 30
0.0
  0
SEQEND
  5
FFC
  8
LAYER_1
  0
POLYLINE
  5
79
  8
LAYER_1
 66
     1
 10
0.0
 20
0.0
 30
0.0
 70
     1
  0
VERTEX
  5
EFE
  8
LAYER_1
 10
-35.66249843686819
 20
31.35985520344768
 30
0.0
  0
VERTEX
  5
EFF
  8
LAYER_1
 10
-34.21236634628771
 20
32.13750425726175
 30
0.0
  0
VERTEX
  5
F00
  8
LAYER_1
 10
-34.13106441253604
 20
32.21893822397608
 30
0.0
  0
VERTEX
  5
F01
  8
LAYER_1
 10
-34.31553140160532
 20
32.79982842633463
 30
0.0
  0
VERTEX
  5
F02
  8
LAYER_1
 10
-34.44581121263549
 20
33.25330534241965
 30
0.0
  0
VERTEX
  5
F03
  8
LAYER_1
 10
-34.48544279231834
 20
33.4248927982752
 30
0.0
  0
VERTEX
  5
F04
  8
LAYER_1
 10
-34.49999839067459
 20
33.52786147352485
 30
0.0
  0
VERTEX
  5
F05
  8
LAYER_1
 10
-34.50514543023373
 20
33.61369211122488
 30
0.0
  0
VERTEX
  5
F06
  8
LAYER_1
 10
-34.51994982208398
 20
33.66170142347701
 30
0.0
  0
VERTEX
  5
F07
  8
LAYER_1
 10
-34.53067505941804
 20
33.6718797599011
 30
0.0
  0
VERTEX
  5
F08
  8
LAYER_1
 10
-34.54345647598459
 20
33.67303077777238
 30
0.0
  0
VERTEX
  5
F09
  8
LAYER_1
 10
-34.57471030169479
 20
33.6488215416021
 30
0.0
  0
VERTEX
  5
F0A
  8
LAYER_1
 10
-34.61275620897383
 20
33.59021508245727
 30
0.0
  0
VERTEX
  5
F0B
  8
LAYER_1
 10
-34.65663910758097
 20
33.49835276782902
 30
0.0
  0
VERTEX
  5
F0C
  8
LAYER_1
 10
-34.75809551781652
 20
33.21942604208667
 30
0.0
  0
VERTEX
  5
F0D
  8
LAYER_1
 10
-34.84899348783873
 20
32.98937559376891
 30
0.0
  0
VERTEX
  5
F0E
  8
LAYER_1
 10
-34.98887984883472
 20
32.69977895777498
 30
0.0
  0
VERTEX
  5
F0F
  8
LAYER_1
 10
-35.15868282353303
 20
32.38769008065998
 30
0.0
  0
VERTEX
  5
F10
  8
LAYER_1
 10
-35.33933063466213
 20
32.09016290897901
 30
0.0
  0
VERTEX
  5
F11
  8
LAYER_1
 10
-35.77499844133854
 20
31.4164780521412
 30
0.0
  0
VERTEX
  5
F12
  8
LAYER_1
 10
-35.77499844133854
 20
31.38324113905526
 30
0.0
  0
VERTEX
  5
F13
  8
LAYER_1
 10
-35.77055996459967
 20
31.37072452074194
 30
0.0
  0
VERTEX
  5
F14
  8
LAYER_1
 10
-35.75847500318196
 20
31.36121443150545
 30
0.0
  0
VERTEX
  5
F15
  8
LAYER_1
 10
-35.71874843910336
 20
31.35492971470849
 30
0.0
  0
SEQEND
  5
FFD
  8
LAYER_1
  0
POLYLINE
  5
7A
  8
LAYER_1
 66
     1
 10
0.0
 20
0.0
 30
0.0
 70
     1
  0
VERTEX
  5
F16
  8
LAYER_1
 10
-61.10801072792559
 20
38.83065236764712
 30
0.0
  0
VERTEX
  5
F17
  8
LAYER_1
 10
-61.39065795914435
 20
39.27157846295616
 30
0.0
  0
VERTEX
  5
F18
  8
LAYER_1
 10
-61.8930854219683
 20
40.06875457242131
 30
0.0
  0
VERTEX
  5
F19
  8
LAYER_1
 10
-62.05206875292582
 20
40.32035614491906
 30
0.0
  0
VERTEX
  5
F1A
  8
LAYER_1
 10
-62.12567771276107
 20
40.42500458657742
 30
0.0
  0
VERTEX
  5
F1B
  8
LAYER_1
 10
-62.40049464085023
 20
40.34254654270396
 30
0.0
  0
VERTEX
  5
F1C
  8
LAYER_1
 10
-62.54067119356021
 20
40.30667963965657
 30
0.0
  0
VERTEX
  5
F1D
  8
LAYER_1
 10
-62.72865746554913
 20
40.26997791057412
 30
0.0
  0
VERTEX
  5
F1E
  8
LAYER_1
 10
-62.93986940287115
 20
40.23674799625274
 30
0.0
  0
VERTEX
  5
F1F
  8
LAYER_1
 10
-63.14972295158045
 20
40.21129653748855
 30
0.0
  0
VERTEX
  5
F20
  8
LAYER_1
 10
-63.6369463934091
 20
40.1625045761466
 30
0.0
  0
VERTEX
  5
F21
  8
LAYER_1
 10
-63.07553614740478
 20
39.93750456720591
 30
0.0
  0
VERTEX
  5
F22
  8
LAYER_1
 10
-62.80718417248139
 20
39.81852530591947
 30
0.0
  0
VERTEX
  5
F23
  8
LAYER_1
 10
-62.49153565157412
 20
39.66089922981813
 30
0.0
  0
VERTEX
  5
F24
  8
LAYER_1
 10
-62.16795651104697
 20
39.48515638947474
 30
0.0
  0
VERTEX
  5
F25
  8
LAYER_1
 10
-61.87581267726392
 20
39.31182683546213
 30
0.0
  0
VERTEX
  5
F26
  8
LAYER_1
 10
-61.23749945312738
 20
38.91114911265903
 30
0.0
  0
SEQEND
  5
FFE
  8
LAYER_1
  0
POLYLINE
  5
7B
  8
LAYER_1
 66
     1
 10
0.0
 20
0.0
 30
0.0
 70
     1
  0
VERTEX
  5
F27
  8
LAYER_1
 10
-24.11249797791243
 20
39.15281755469893
 30
0.0
  0
VERTEX
  5
F28
  8
LAYER_1
 10
-23.94275187741732
 20
39.2621656733277
 30
0.0
  0
VERTEX
  5
F29
  8
LAYER_1
 10
-23.70234171161428
 20
39.40114973497715
 30
0.0
  0
VERTEX
  5
F2A
  8
LAYER_1
 10
-23.42325966927456
 20
39.5519253048608
 30
0.0
  0
VERTEX
  5
F2B
  8
LAYER_1
 10
-23.13749793916941
 20
39.69664794819214
 30
0.0
  0
VERTEX
  5
F2C
  8
LAYER_1
 10
-22.46249791234732
 20
40.02573409395298
 30
0.0
  0
VERTEX
  5
F2D
  8
LAYER_1
 10
-22.27499790489674
 20
40.1077933145026
 30
0.0
  0
VERTEX
  5
F2E
  8
LAYER_1
 10
-22.18547428010254
 20
40.15198982237843
 30
0.0
  0
VERTEX
  5
F2F
  8
LAYER_1
 10
-22.17094589031142
 20
40.16672217992434
 30
0.0
  0
VERTEX
  5
F30
  8
LAYER_1
 10
-22.17863510708867
 20
40.17751111902422
 30
0.0
  0
VERTEX
  5
F31
  8
LAYER_1
 10
-22.26685233484147
 20
40.19016027933199
 30
0.0
  0
VERTEX
  5
F32
  8
LAYER_1
 10
-22.46249791234732
 20
40.19574037819372
 30
0.0
  0
VERTEX
  5
F33
  8
LAYER_1
 10
-22.63734110852742
 20
40.20689563778073
 30
0.0
  0
VERTEX
  5
F34
  8
LAYER_1
 10
-22.8361870524578
 20
40.23291638330426
 30
0.0
  0
VERTEX
  5
F35
  8
LAYER_1
 10
-23.03457279566378
 20
40.26992127079565
 30
0.0
  0
VERTEX
  5
F36
  8
LAYER_1
 10
-23.20803538967071
 20
40.31402895628624
 30
0.0
  0
VERTEX
  5
F37
  8
LAYER_1
 10
-23.3559664366286
 20
40.35317735258279
 30
0.0
  0
VERTEX
  5
F38
  8
LAYER_1
 10
-23.48483559133471
 20
40.3766792249419
 30
0.0
  0
VERTEX
  5
F39
  8
LAYER_1
 10
-23.58079698428529
 20
40.38271550806966
 30
0.0
  0
VERTEX
  5
F3A
  8
LAYER_1
 10
-23.61211043588231
 20
40.37861559576744
 30
0.0
  0
VERTEX
  5
F3B
  8
LAYER_1
 10
-23.63000474597652
 20
40.36946713667216
 30
0.0
  0
VERTEX
  5
F3C
  8
LAYER_1
 10
-23.68143663986009
 20
40.31250458210707
 30
0.0
  0
VERTEX
  5
F3D
  8
LAYER_1
 10
-24.5292763239188
 20
38.96393063833459
 30
0.0
  0
VERTEX
  5
F3E
  8
LAYER_1
 10
-24.47088715687608
 20
38.95100197265059
 30
0.0
  0
VERTEX
  5
F3F
  8
LAYER_1
 10
-24.42454386216963
 20
38.9629266774756
 30
0.0
  0
VERTEX
  5
F40
  8
LAYER_1
 10
-24.34152480415038
 20
39.00495222528264
 30
0.0
  0
SEQEND
  5
FFF
  8
LAYER_1
  0
POLYLINE
  5
7C
  8
LAYER_1
 66
     1
 10
0.0
 20
0.0
 30
0.0
 70
     1
  0
VERTEX
  5
F41
  8
LAYER_1
 10
-61.22088032615276
 20
41.98741121726049
 30
0.0
  0
VERTEX
  5
F42
  8
LAYER_1
 10
-61.1448871816074
 20
42.18750465661287
 30
0.0
  0
VERTEX
  5
F43
  8
LAYER_1
 10
-61.13258139387863
 20
42.82500468194485
 30
0.0
  0
VERTEX
  5
F44
  8
LAYER_1
 10
-61.1038370712875
 20
43.45365723323667
 30
0.0
  0
VERTEX
  5
F45
  8
LAYER_1
 10
-61.04805670702186
 20
44.08989083211864
 30
0.0
  0
VERTEX
  5
F46
  8
LAYER_1
 10
-61.01363834886885
 20
44.37750624897165
 30
0.0
  0
VERTEX
  5
F47
  8
LAYER_1
 10
-60.97679338782653
 20
44.62700379720104
 30
0.0
  0
VERTEX
  5
F48
  8
LAYER_1
 10
-60.938965959738
 20
44.8250457666331
 30
0.0
  0
VERTEX
  5
F49
  8
LAYER_1
 10
-60.90160020044637
 20
44.9582944470941
 30
0.0
  0
VERTEX
  5
F4A
  8
LAYER_1
 10
-60.87349307828372
 20
45.03753111959594
 30
0.0
  0
VERTEX
  5
F4B
  8
LAYER_1
 10
-60.86022320855938
 20
45.0937279212357
 30
0.0
  0
VERTEX
  5
F4C
  8
LAYER_1
 10
-60.8649211225005
 20
45.12670050506189
 30
0.0
  0
VERTEX
  5
F4D
  8
LAYER_1
 10
-60.87498628935409
 20
45.13442010687254
 30
0.0
  0
VERTEX
  5
F4E
  8
LAYER_1
 10
-60.89071735133423
 20
45.13626452412298
 30
0.0
  0
VERTEX
  5
F4F
  8
LAYER_1
 10
-60.94074242628771
 20
45.12223563146746
 30
0.0
  0
VERTEX
  5
F50
  8
LAYER_1
 10
-61.01812687858809
 20
45.08442948014385
 30
0.0
  0
VERTEX
  5
F51
  8
LAYER_1
 10
-61.26749604013813
 20
44.93674801368626
 30
0.0
  0
VERTEX
  5
F52
  8
LAYER_1
 10
-61.4241989764914
 20
44.84664087659965
 30
0.0
  0
VERTEX
  5
F53
  8
LAYER_1
 10
-61.59465738527988
 20
44.75894602702442
 30
0.0
  0
VERTEX
  5
F54
  8
LAYER_1
 10
-61.75829635465205
 20
44.68369806618824
 30
0.0
  0
VERTEX
  5
F55
  8
LAYER_1
 10
-61.89454097275636
 20
44.6309315953188
 30
0.0
  0
VERTEX
  5
F56
  8
LAYER_1
 10
-62.09261480082826
 20
44.55906645095844
 30
0.0
  0
VERTEX
  5
F57
  8
LAYER_1
 10
-62.15286956047402
 20
44.53215021827024
 30
0.0
  0
VERTEX
  5
F58
  8
LAYER_1
 10
-62.17499949038029
 20
44.51626168706289
 30
0.0
  0
VERTEX
  5
F59
  8
LAYER_1
 10
-62.17499949038029
 20
44.49415143652863
 30
0.0
  0
VERTEX
  5
F5A
  8
LAYER_1
 10
-61.98583601419528
 20
43.90332806892249
 30
0.0
  0
VERTEX
  5
F5B
  8
LAYER_1
 10
-61.83203777625833
 20
43.44199656379978
 30
0.0
  0
VERTEX
  5
F5C
  8
LAYER_1
 10
-61.7279013622442
 20
43.16250469535589
 30
0.0
  0
VERTEX
  5
F5D
  8
LAYER_1
 10
-61.44000525631544
 20
42.49995795332796
 30
0.0
  0
SEQEND
  5
1000
  8
LAYER_1
  0
POLYLINE
  5
7D
  8
LAYER_1
 66
     1
 10
0.0
 20
0.0
 30
0.0
 70
     1
  0
VERTEX
  5
F5E
  8
LAYER_1
 10
-24.3072109594677
 20
42.43914734048226
 30
0.0
  0
VERTEX
  5
F5F
  8
LAYER_1
 10
-24.03315928298188
 20
43.08750469237566
 30
0.0
  0
VERTEX
  5
F60
  8
LAYER_1
 10
-23.90810006550996
 20
43.42211252227673
 30
0.0
  0
VERTEX
  5
F61
  8
LAYER_1
 10
-23.73909527557187
 20
43.91063771778174
 30
0.0
  0
VERTEX
  5
F62
  8
LAYER_1
 10
-23.53879591130183
 20
44.50877073424712
 30
0.0
  0
VERTEX
  5
F63
  8
LAYER_1
 10
-23.67091438938625
 20
44.55281022694193
 30
0.0
  0
VERTEX
  5
F64
  8
LAYER_1
 10
-24.84197001128371
 20
45.14111479590214
 30
0.0
  0
VERTEX
  5
F65
  8
LAYER_1
 10
-24.79231180569344
 20
44.90180977543135
 30
0.0
  0
VERTEX
  5
F66
  8
LAYER_1
 10
-24.72229943035959
 20
44.47336850591196
 30
0.0
  0
VERTEX
  5
F67
  8
LAYER_1
 10
-24.66084973294891
 20
43.93209164565746
 30
0.0
  0
VERTEX
  5
F68
  8
LAYER_1
 10
-24.61541428081411
 20
43.35588526200213
 30
0.0
  0
VERTEX
  5
F69
  8
LAYER_1
 10
-24.59344464130791
 20
42.82265542228026
 30
0.0
  0
VERTEX
  5
F6A
  8
LAYER_1
 10
-24.58301031252703
 20
42.16887055479404
 30
0.0
  0
VERTEX
  5
F6B
  8
LAYER_1
 10
-24.53525415267031
 20
42.0923302761618
 30
0.0
  0
VERTEX
  5
F6C
  8
LAYER_1
 10
-24.52198126099115
 20
42.08559573822534
 30
0.0
  0
VERTEX
  5
F6D
  8
LAYER_1
 10
-24.502485557501
 20
42.0960166614415
 30
0.0
  0
VERTEX
  5
F6E
  8
LAYER_1
 10
-24.44856704872615
 20
42.16263492387014
 30
0.0
  0
VERTEX
  5
F6F
  8
LAYER_1
 10
-24.38098129362273
 20
42.28080512852475
 30
0.0
  0
SEQEND
  5
1001
  8
LAYER_1
  0
POLYLINE
  5
7E
  8
LAYER_1
 66
     1
 10
0.0
 20
0.0
 30
0.0
 70
     1
  0
VERTEX
  5
F70
  8
LAYER_1
 10
-63.21418740273118
 20
42.75097307245652
 30
0.0
  0
VERTEX
  5
F71
  8
LAYER_1
 10
-63.26249953359365
 20
42.9375046864152
 30
0.0
  0
VERTEX
  5
F72
  8
LAYER_1
 10
-63.7844418667968
 20
44.55060223318711
 30
0.0
  0
VERTEX
  5
F73
  8
LAYER_1
 10
-64.13228891255382
 20
44.50445869114571
 30
0.0
  0
VERTEX
  5
F74
  8
LAYER_1
 10
-64.26144531745226
 20
44.49387855216529
 30
0.0
  0
VERTEX
  5
F75
  8
LAYER_1
 10
-64.4067404230326
 20
44.49345353363761
 30
0.0
  0
VERTEX
  5
F76
  8
LAYER_1
 10
-64.56362500111389
 20
44.50257191256139
 30
0.0
  0
VERTEX
  5
F77
  8
LAYER_1
 10
-64.72754982351515
 20
44.5206219659354
 30
0.0
  0
VERTEX
  5
F78
  8
LAYER_1
 10
-64.89396566205542
 20
44.54699197075836
 30
0.0
  0
VERTEX
  5
F79
  8
LAYER_1
 10
-65.05832328855374
 20
44.581070204029
 30
0.0
  0
VERTEX
  5
F7A
  8
LAYER_1
 10
-65.2160734748291
 20
44.62224494274608
 30
0.0
  0
VERTEX
  5
F7B
  8
LAYER_1
 10
-65.3626669927006
 20
44.66990446390832
 30
0.0
  0
VERTEX
  5
F7C
  8
LAYER_1
 10
-65.51249962300062
 20
44.7243580993417
 30
0.0
  0
VERTEX
  5
F7D
  8
LAYER_1
 10
-64.94999960064888
 20
44.34089768555462
 30
0.0
  0
VERTEX
  5
F7E
  8
LAYER_1
 10
-64.68530055691849
 20
44.1444084139004
 30
0.0
  0
VERTEX
  5
F7F
  8
LAYER_1
 10
-64.38040373407671
 20
43.89287933904367
 30
0.0
  0
VERTEX
  5
F80
  8
LAYER_1
 10
-64.07301581698734
 20
43.61868630908177
 30
0.0
  0
VERTEX
  5
F81
  8
LAYER_1
 10
-63.80084349051416
 20
43.35420517211202
 30
0.0
  0
SEQEND
  5
1002
  8
LAYER_1
  0
POLYLINE
  5
7F
  8
LAYER_1
 66
     1
 10
0.0
 20
0.0
 30
0.0
 70
     1
  0
VERTEX
  5
F82
  8
LAYER_1
 10
-22.46249791234732
 20
42.78750468045473
 30
0.0
  0
VERTEX
  5
F83
  8
LAYER_1
 10
-21.89999788999557
 20
43.3734873504723
 30
0.0
  0
VERTEX
  5
F84
  8
LAYER_1
 10
-21.63720491080312
 20
43.63119065905101
 30
0.0
  0
VERTEX
  5
F85
  8
LAYER_1
 10
-21.33749786764383
 20
43.89968054775358
 30
0.0
  0
VERTEX
  5
F86
  8
LAYER_1
 10
-21.03779082448455
 20
44.14718051517637
 30
0.0
  0
VERTEX
  5
F87
  8
LAYER_1
 10
-20.77499784529209
 20
44.34191405991579
 30
0.0
  0
VERTEX
  5
F88
  8
LAYER_1
 10
-20.21249782294035
 20
44.7243580993417
 30
0.0
  0
VERTEX
  5
F89
  8
LAYER_1
 10
-20.36233045324038
 20
44.66990446390832
 30
0.0
  0
VERTEX
  5
F8A
  8
LAYER_1
 10
-20.50892397111271
 20
44.62224494274572
 30
0.0
  0
VERTEX
  5
F8B
  8
LAYER_1
 10
-20.66667415738826
 20
44.58107020402844
 30
0.0
  0
VERTEX
  5
F8C
  8
LAYER_1
 10
-20.83103178388628
 20
44.54699197075773
 30
0.0
  0
VERTEX
  5
F8D
  8
LAYER_1
 10
-20.99744762242601
 20
44.52062196593481
 30
0.0
  0
VERTEX
  5
F8E
  8
LAYER_1
 10
-21.16137244482671
 20
44.50257191256092
 30
0.0
  0
VERTEX
  5
F8F
  8
LAYER_1
 10
-21.31825702290763
 20
44.49345353363728
 30
0.0
  0
VERTEX
  5
F90
  8
LAYER_1
 10
-21.46355212848803
 20
44.49387855216514
 30
0.0
  0
VERTEX
  5
F91
  8
LAYER_1
 10
-21.59270853338715
 20
44.50445869114571
 30
0.0
  0
VERTEX
  5
F92
  8
LAYER_1
 10
-21.94055557914417
 20
44.55060223318711
 30
0.0
  0
VERTEX
  5
F93
  8
LAYER_1
 10
-22.44564304939986
 20
42.95113386062296
 30
0.0
  0
SEQEND
  5
1003
  8
LAYER_1
  0
POLYLINE
  5
80
  8
LAYER_1
 66
     1
 10
0.0
 20
0.0
 30
0.0
 70
     1
  0
VERTEX
  5
F94
  8
LAYER_1
 10
-26.21031375314083
 20
60.41250538080931
 30
0.0
  0
VERTEX
  5
F95
  8
LAYER_1
 10
-26.27075888177373
 20
60.62808525937806
 30
0.0
  0
VERTEX
  5
F96
  8
LAYER_1
 10
-26.3329312739726
 20
60.9357560228861
 30
0.0
  0
VERTEX
  5
F97
  8
LAYER_1
 10
-26.3633142463673
 20
61.17817125623377
 30
0.0
  0
VERTEX
  5
F98
  8
LAYER_1
 10
-26.36666034859812
 20
61.42640487357248
 30
0.0
  0
VERTEX
  5
F99
  8
LAYER_1
 10
-26.34111105526404
 20
61.72634165838887
 30
0.0
  0
VERTEX
  5
F9A
  8
LAYER_1
 10
-26.28480784096408
 20
62.12386639416957
 30
0.0
  0
VERTEX
  5
F9B
  8
LAYER_1
 10
-26.2768216892178
 20
62.18616045755211
 30
0.0
  0
VERTEX
  5
F9C
  8
LAYER_1
 10
-26.27768055238743
 20
62.22671018077159
 30
0.0
  0
VERTEX
  5
F9D
  8
LAYER_1
 10
-26.29052767770186
 20
62.24362574490561
 30
0.0
  0
VERTEX
  5
F9E
  8
LAYER_1
 10
-26.31850631239
 20
62.23501733103177
 30
0.0
  0
VERTEX
  5
F9F
  8
LAYER_1
 10
-26.43243109880304
 20
62.13366929357089
 30
0.0
  0
VERTEX
  5
FA0
  8
LAYER_1
 10
-26.64460088945778
 20
61.90754751700973
 30
0.0
  0
VERTEX
  5
FA1
  8
LAYER_1
 10
-26.92823369270424
 20
61.59000890936812
 30
0.0
  0
VERTEX
  5
FA2
  8
LAYER_1
 10
-27.05843137903883
 20
61.42713670036642
 30
0.0
  0
VERTEX
  5
FA3
  8
LAYER_1
 10
-27.07936466393617
 20
61.37440571463858
 30
0.0
  0
VERTEX
  5
FA4
  8
LAYER_1
 10
-26.23310618409567
 20
60.33750537782907
 30
0.0
  0
VERTEX
  5
FA5
  8
LAYER_1
 10
-26.19210241481393
 20
60.30000537633896
 30
0.0
  0
VERTEX
  5
FA6
  8
LAYER_1
 10
-26.18085386210725
 20
60.29728076685569
 30
0.0
  0
VERTEX
  5
FA7
  8
LAYER_1
 10
-26.18053794061874
 20
60.31758350203745
 30
0.0
  0
SEQEND
  5
1004
  8
LAYER_1
  0
POLYLINE
  5
81
  8
LAYER_1
 66
     1
 10
0.0
 20
0.0
 30
0.0
 70
     1
  0
VERTEX
  5
FA8
  8
LAYER_1
 10
-59.14262175112928
 20
60.78983153891406
 30
0.0
  0
VERTEX
  5
FA9
  8
LAYER_1
 10
-58.89726280359239
 20
61.11409446356767
 30
0.0
  0
VERTEX
  5
FAA
  8
LAYER_1
 10
-58.79374965641158
 20
61.23886708251364
 30
0.0
  0
VERTEX
  5
FAB
  8
LAYER_1
 10
-58.72144072996511
 20
61.31572592641902
 30
0.0
  0
VERTEX
  5
FAC
  8
LAYER_1
 10
-58.68403929883888
 20
61.35259496196845
 30
0.0
  0
VERTEX
  5
FAD
  8
LAYER_1
 10
-58.66066958026345
 20
61.38646934994902
 30
0.0
  0
VERTEX
  5
FAE
  8
LAYER_1
 10
-58.65307043178554
 20
61.42126764583083
 30
0.0
  0
VERTEX
  5
FAF
  8
LAYER_1
 10
-58.66298071095187
 20
61.46090840508394
 30
0.0
  0
VERTEX
  5
FB0
  8
LAYER_1
 10
-58.69213927530915
 20
61.50931018317843
 30
0.0
  0
VERTEX
  5
FB1
  8
LAYER_1
 10
-58.74228498240412
 20
61.57039153558438
 30
0.0
  0
VERTEX
  5
FB2
  8
LAYER_1
 10
-58.91249325499395
 20
61.74626718521097
 30
0.0
  0
VERTEX
  5
FB3
  8
LAYER_1
 10
-59.0454481369263
 20
61.88681047950881
 30
0.0
  0
VERTEX
  5
FB4
  8
LAYER_1
 10
-59.17285414161854
 20
62.03570420978399
 30
0.0
  0
VERTEX
  5
FB5
  8
LAYER_1
 10
-59.28025125311754
 20
62.17518899529868
 30
0.0
  0
VERTEX
  5
FB6
  8
LAYER_1
 10
-59.35317945547017
 20
62.28750545531511
 30
0.0
  0
VERTEX
  5
FB7
  8
LAYER_1
 10
-59.4765097402259
 20
62.51250546425581
 30
0.0
  0
VERTEX
  5
FB8
  8
LAYER_1
 10
-59.42479527814464
 20
62.21250545233488
 30
0.0
  0
VERTEX
  5
FB9
  8
LAYER_1
 10
-59.3983658801717
 20
62.00890930749953
 30
0.0
  0
VERTEX
  5
FBA
  8
LAYER_1
 10
-59.38160293298016
 20
61.77265250994903
 30
0.0
  0
VERTEX
  5
FBB
  8
LAYER_1
 10
-59.37414277562433
 20
61.51935144126189
 30
0.0
  0
VERTEX
  5
FBC
  8
LAYER_1
 10
-59.37562174715851
 20
61.26462248301663
 30
0.0
  0
VERTEX
  5
FBD
  8
LAYER_1
 10
-59.38567618663701
 20
61.02408201679177
 30
0.0
  0
VERTEX
  5
FBE
  8
LAYER_1
 10
-59.40394243311415
 20
60.81334642416581
 30
0.0
  0
VERTEX
  5
FBF
  8
LAYER_1
 10
-59.43005682564422
 20
60.64803208671729
 30
0.0
  0
VERTEX
  5
FC0
  8
LAYER_1
 10
-59.46365570328153
 20
60.54375538602471
 30
0.0
  0
VERTEX
  5
FC1
  8
LAYER_1
 10
-59.51152429405403
 20
60.44615305096993
 30
0.0
  0
VERTEX
  5
FC2
  8
LAYER_1
 10
-59.52780520190185
 20
60.39016603738474
 30
0.0
  0
VERTEX
  5
FC3
  8
LAYER_1
 10
-59.52510737541851
 20
60.37700632208175
 30
0.0
  0
VERTEX
  5
FC4
  8
LAYER_1
 10
-59.51572114903141
 20
60.37332409227237
 30
0.0
  0
VERTEX
  5
FC5
  8
LAYER_1
 10
-59.4784948576491
 20
60.39315696263598
 30
0.0
  0
VERTEX
  5
FC6
  8
LAYER_1
 10
-59.41934904996133
 20
60.44719439547877
 30
0.0
  0
VERTEX
  5
FC7
  8
LAYER_1
 10
-59.3415064481745
 20
60.53296613780392
 30
0.0
  0
SEQEND
  5
1005
  8
LAYER_1
  0
POLYLINE
  5
82
  8
LAYER_1
 66
     1
 10
0.0
 20
0.0
 30
0.0
 70
     1
  0
VERTEX
  5
FC8
  8
LAYER_1
 10
-28.72499816119671
 20
63.12586349061064
 30
0.0
  0
VERTEX
  5
FC9
  8
LAYER_1
 10
-28.75512636983716
 20
63.26795581834822
 30
0.0
  0
VERTEX
  5
FCA
  8
LAYER_1
 10
-28.82756227571738
 20
63.49684419142505
 30
0.0
  0
VERTEX
  5
FCB
  8
LAYER_1
 10
-28.87496935438507
 20
63.65409998233262
 30
0.0
  0
VERTEX
  5
FCC
  8
LAYER_1
 10
-28.92822928936737
 20
63.86737846856137
 30
0.0
  0
VERTEX
  5
FCD
  8
LAYER_1
 10
-29.02623228902874
 20
64.35002371456972
 30
0.0
  0
VERTEX
  5
FCE
  8
LAYER_1
 10
-29.12233818781944
 20
64.91250555962324
 30
0.0
  0
VERTEX
  5
FCF
  8
LAYER_1
 10
-29.23436203576752
 20
64.5750055462122
 30
0.0
  0
VERTEX
  5
FD0
  8
LAYER_1
 10
-29.28863046533658
 20
64.42856173953281
 30
0.0
  0
VERTEX
  5
FD1
  8
LAYER_1
 10
-29.35357935230758
 20
64.27931963967607
 30
0.0
  0
VERTEX
  5
FD2
  8
LAYER_1
 10
-29.42105360591194
 20
64.14475696031798
 30
0.0
  0
VERTEX
  5
FD3
  8
LAYER_1
 10
-29.48289813538108
 20
64.0423514151345
 30
0.0
  0
VERTEX
  5
FD4
  8
LAYER_1
 10
-29.55776701174899
 20
63.92744589221513
 30
0.0
  0
VERTEX
  5
FD5
  8
LAYER_1
 10
-29.57420188078155
 20
63.88623480650305
 30
0.0
  0
VERTEX
  5
FD6
  8
LAYER_1
 10
-29.57562282869241
 20
63.85030367376339
 30
0.0
  0
VERTEX
  5
FD7
  8
LAYER_1
 10
-29.561269199216
 20
63.81549162085166
 30
0.0
  0
VERTEX
  5
FD8
  8
LAYER_1
 10
-29.53038033608674
 20
63.77763777462334
 30
0.0
  0
VERTEX
  5
FD9
  8
LAYER_1
 10
-29.41595428380739
 20
63.67616120963902
 30
0.0
  0
VERTEX
  5
FDA
  8
LAYER_1
 10
-28.96874817088246
 20
63.27535279484874
 30
0.0
  0
VERTEX
  5
FDB
  8
LAYER_1
 10
-28.87410461243417
 20
63.19247134078253
 30
0.0
  0
VERTEX
  5
FDC
  8
LAYER_1
 10
-28.7965997265419
 20
63.13665922685723
 30
0.0
  0
VERTEX
  5
FDD
  8
LAYER_1
 10
-28.74423156039848
 20
63.11282157086816
 30
0.0
  0
VERTEX
  5
FDE
  8
LAYER_1
 10
-28.72997313698033
 20
63.11442601391074
 30
0.0
  0
SEQEND
  5
1006
  8
LAYER_1
  0
POLYLINE
  5
83
  8
LAYER_1
 66
     1
 10
0.0
 20
0.0
 30
0.0
 70
     1
  0
VERTEX
  5
FDF
  8
LAYER_1
 10
-56.51917982888717
 20
63.48679492313656
 30
0.0
  0
VERTEX
  5
FE0
  8
LAYER_1
 10
-56.15086037750042
 20
63.81686257220943
 30
0.0
  0
VERTEX
  5
FE1
  8
LAYER_1
 10
-56.34191357365349
 20
64.252184061446
 30
0.0
  0
VERTEX
  5
FE2
  8
LAYER_1
 10
-56.57306196695797
 20
64.8000055551529
 30
0.0
  0
VERTEX
  5
FE3
  8
LAYER_1
 10
-56.59176237070795
 20
64.84293553670419
 30
0.0
  0
VERTEX
  5
FE4
  8
LAYER_1
 10
-56.60545898730251
 20
64.85131206671325
 30
0.0
  0
VERTEX
  5
FE5
  8
LAYER_1
 10
-56.61474902901016
 20
64.8246603405696
 30
0.0
  0
VERTEX
  5
FE6
  8
LAYER_1
 10
-56.62022970809941
 20
64.76250555366278
 30
0.0
  0
VERTEX
  5
FE7
  8
LAYER_1
 10
-56.65570519686428
 20
64.55696644396669
 30
0.0
  0
VERTEX
  5
FE8
  8
LAYER_1
 10
-56.73929831312478
 20
64.19116522865528
 30
0.0
  0
VERTEX
  5
FE9
  8
LAYER_1
 10
-56.85049058369837
 20
63.75009666150527
 30
0.0
  0
VERTEX
  5
FEA
  8
LAYER_1
 10
-56.96876353540246
 20
63.31875549629331
 30
0.0
  0
VERTEX
  5
FEB
  8
LAYER_1
 10
-56.98672744468024
 20
63.24069343355821
 30
0.0
  0
VERTEX
  5
FEC
  8
LAYER_1
 10
-56.98674651781526
 20
63.18972362515067
 30
0.0
  0
VERTEX
  5
FED
  8
LAYER_1
 10
-56.97951982359297
 20
63.17458778511188
 30
0.0
  0
VERTEX
  5
FEE
  8
LAYER_1
 10
-56.96719861965145
 20
63.16645237120557
 30
0.0
  0
VERTEX
  5
FEF
  8
LAYER_1
 10
-56.92646161503273
 20
63.17148597185776
 30
0.0
  0
VERTEX
  5
FF0
  8
LAYER_1
 10
-56.86291336880302
 20
63.2054307272421
 30
0.0
  0
VERTEX
  5
FF1
  8
LAYER_1
 10
-56.77493174580624
 20
63.26889293749344
 30
0.0
  0
SEQEND
  5
1007
  8
LAYER_1
  0
ENDSEC
  0
EOF
