  0
SECTION
  2
HEADER
  9
$ACADVER
  1
AC1009
  9
$DWGCODEPAGE
  3
ansi_1252
  9
$INSBASE
 10
0.0
 20
0.0
 30
0.0
  9
$EXTMIN
 10
-70.57485577116758
 20
-71.31187537035615
 30
0.0
  9
$EXTMAX
 10
72.15703822321652
 20
72.06151610821382
 30
0.0
  9
$LIMMIN
 10
0.0
 20
0.0
  9
$LIMMAX
 10
12.0
 20
9.0
  9
$ORTHOMODE
 70
     0
  9
$REGENMODE
 70
     1
  9
$FILLMODE
 70
     1
  9
$QTEXTMODE
 70
     0
  9
$MIRRTEXT
 70
     1
  9
$DRAGMODE
 70
     2
  9
$LTSCALE
 40
1.0
  9
$OSMODE
 70
    37
  9
$ATTMODE
 70
     1
  9
$TEXTSIZE
 40
0.2
  9
$TRACEWID
 40
0.05
  9
$TEXTSTYLE
  7
STANDARD
  9
$CLAYER
  8
0
  9
$CELTYPE
  6
BYLAYER
  9
$CECOLOR
 62
   256
  9
$DIMSCALE
 40
1.0
  9
$DIMASZ
 40
0.18
  9
$DIMEXO
 40
0.0625
  9
$DIMDLI
 40
0.38
  9
$DIMRND
 40
0.0
  9
$DIMDLE
 40
0.0
  9
$DIMEXE
 40
0.18
  9
$DIMTP
 40
0.0
  9
$DIMTM
 40
0.0
  9
$DIMTXT
 40
0.18
  9
$DIMCEN
 40
0.09
  9
$DIMTSZ
 40
0.0
  9
$DIMTOL
 70
     0
  9
$DIMLIM
 70
     0
  9
$DIMTIH
 70
     1
  9
$DIMTOH
 70
     1
  9
$DIMSE1
 70
     0
  9
$DIMSE2
 70
     0
  9
$DIMTAD
 70
     0
  9
$DIMZIN
 70
     0
  9
$DIMBLK
  1

  9
$DIMASO
 70
     1
  9
$DIMSHO
 70
     1
  9
$DIMPOST
  1

  9
$DIMAPOST
  1

  9
$DIMALT
 70
     0
  9
$DIMALTD
 70
     2
  9
$DIMALTF
 40
25.4
  9
$DIMLFAC
 40
1.0
  9
$DIMTOFL
 70
     0
  9
$DIMTVP
 40
0.0
  9
$DIMTIX
 70
     0
  9
$DIMSOXD
 70
     0
  9
$DIMSAH
 70
     0
  9
$DIMBLK1
  1

  9
$DIMBLK2
  1

  9
$DIMSTYLE
  2
STANDARD
  9
$DIMCLRD
 70
     0
  9
$DIMCLRE
 70
     0
  9
$DIMCLRT
 70
     0
  9
$DIMTFAC
 40
1.0
  9
$DIMGAP
 40
0.09
  9
$LUNITS
 70
     2
  9
$LUPREC
 70
     4
  9
$SKETCHINC
 40
0.1
  9
$FILLETRAD
 40
0.5
  9
$AUNITS
 70
     0
  9
$AUPREC
 70
     0
  9
$MENU
  1
.
  9
$ELEVATION
 40
0.0
  9
$PELEVATION
 40
0.0
  9
$THICKNESS
 40
0.0
  9
$LIMCHECK
 70
     0
  9
$CHAMFERA
 40
0.0
  9
$CHAMFERB
 40
0.0
  9
$SKPOLY
 70
     0
  9
$TDCREATE
 40
2454910.5
  9
$TDUPDATE
 40
2457519.902220671
  9
$TDINDWG
 40
0.0000000116
  9
$TDUSRTIMER
 40
0.0000000116
  9
$USRTIMER
 70
     1
  9
$ANGBASE
 50
0.0
  9
$ANGDIR
 70
     0
  9
$PDMODE
 70
     0
  9
$PDSIZE
 40
0.0
  9
$PLINEWID
 40
0.0
  9
$COORDS
 70
     1
  9
$SPLFRAME
 70
     0
  9
$SPLINETYPE
 70
     6
  9
$SPLINESEGS
 70
     8
  9
$ATTDIA
 70
     0
  9
$ATTREQ
 70
     1
  9
$HANDLING
 70
     1
  9
$HANDSEED
  5
E79
  9
$SURFTAB1
 70
     6
  9
$SURFTAB2
 70
     6
  9
$SURFTYPE
 70
     6
  9
$SURFU
 70
     6
  9
$SURFV
 70
     6
  9
$UCSNAME
  2

  9
$UCSORG
 10
0.0
 20
0.0
 30
0.0
  9
$UCSXDIR
 10
1.0
 20
0.0
 30
0.0
  9
$UCSYDIR
 10
0.0
 20
1.0
 30
0.0
  9
$PUCSNAME
  2

  9
$PUCSORG
 10
0.0
 20
0.0
 30
0.0
  9
$PUCSXDIR
 10
1.0
 20
0.0
 30
0.0
  9
$PUCSYDIR
 10
0.0
 20
1.0
 30
0.0
  9
$USERI1
 70
     0
  9
$USERI2
 70
     0
  9
$USERI3
 70
     0
  9
$USERI4
 70
     0
  9
$USERI5
 70
     0
  9
$USERR1
 40
0.0
  9
$USERR2
 40
0.0
  9
$USERR3
 40
0.0
  9
$USERR4
 40
0.0
  9
$USERR5
 40
0.0
  9
$WORLDVIEW
 70
     1
  9
$SHADEDGE
 70
     3
  9
$SHADEDIF
 70
    70
  9
$TILEMODE
 70
     1
  9
$MAXACTVP
 70
    64
  9
$PLIMCHECK
 70
     0
  9
$PEXTMIN
 10
1.000000000000000E+20
 20
1.000000000000000E+20
 30
1.000000000000000E+20
  9
$PEXTMAX
 10
-1.000000000000000E+20
 20
-1.000000000000000E+20
 30
-1.000000000000000E+20
  9
$PLIMMIN
 10
0.0
 20
0.0
  9
$PLIMMAX
 10
12.0
 20
9.0
  9
$UNITMODE
 70
     0
  9
$VISRETAIN
 70
     1
  9
$PLINEGEN
 70
     0
  9
$PSLTSCALE
 70
     1
  0
ENDSEC
  0
SECTION
  2
TABLES
  0
TABLE
  2
VPORT
 70
     1
  0
VPORT
  2
*ACTIVE
 70
     0
 10
0.0
 20
0.0
 11
1.0
 21
1.0
 12
10.42990654205607
 22
4.5
 13
0.0
 23
0.0
 14
0.5
 24
0.5
 15
0.5
 25
0.5
 16
0.0
 26
0.0
 36
1.0
 17
0.0
 27
0.0
 37
0.0
 40
9.0
 41
1.972972972850329
 42
50.0
 43
0.0
 44
0.0
 50
0.0
 51
0.0
 71
     0
 72
   100
 73
     1
 74
     3
 75
     0
 76
     0
 77
     0
 78
     0
  0
ENDTAB
  0
TABLE
  2
LTYPE
 70
     2
  0
LTYPE
  2
CONTINUOUS
 70
     0
  3
Solid line
 72
    65
 73
     0
 40
0.0
  0
LTYPE
  2
CONTINUOUS2
 70
     0
  3
Solid Line
 72
    65
 73
     0
 40
0.0
  0
ENDTAB
  0
TABLE
  2
LAYER
 70
     2
  0
LAYER
  2
0
 70
     0
 62
     7
  6
CONTINUOUS
  0
LAYER
  2
LAYER_1
 70
     0
 62
    18
  6
CONTINUOUS
  0
ENDTAB
  0
TABLE
  2
STYLE
 70
     1
  0
STYLE
  2
STANDARD
 70
     0
 40
0.0
 41
1.0
 50
0.0
 71
     0
 42
0.2
  3
txt
  4

  0
ENDTAB
  0
TABLE
  2
VIEW
 70
     0
  0
ENDTAB
  0
TABLE
  2
UCS
 70
     0
  0
ENDTAB
  0
TABLE
  2
APPID
 70
     1
  0
APPID
  2
ACAD
 70
     0
  0
ENDTAB
  0
TABLE
  2
DIMSTYLE
 70
     1
  0
DIMSTYLE
  2
STANDARD
 70
     0
  3

  4

  5

  6

  7

 40
1.0
 41
0.18
 42
0.0625
 43
0.38
 44
0.18
 45
0.0
 46
0.0
 47
0.0
 48
0.0
140
0.18
141
0.09
142
0.0
143
25.4
144
1.0
145
0.0
146
1.0
147
0.09
 71
     0
 72
     0
 73
     1
 74
     1
 75
     0
 76
     0
 77
     0
 78
     0
170
     0
171
     2
172
     0
173
     0
174
     0
175
     0
176
     0
177
     0
178
     0
  0
ENDTAB
  0
ENDSEC
  0
SECTION
  2
BLOCKS
  0
BLOCK
  8
0
  2
$MODEL_SPACE
 70
     0
 10
0.0
 20
0.0
 30
0.0
  3
$MODEL_SPACE
  1

  0
ENDBLK
  5
21
  8
0
  0
BLOCK
 67
     1
  8
0
  2
$PAPER_SPACE
 70
     0
 10
0.0
 20
0.0
 30
0.0
  3
$PAPER_SPACE
  1

  0
ENDBLK
  5
1D
 67
     1
  8
0
  0
ENDSEC
  0
SECTION
  2
ENTITIES
  0
POLYLINE
  5
70
  8
LAYER_1
 66
     1
 10
0.0
 20
0.0
 30
0.0
 70
     1
  0
VERTEX
  5
8B
  8
LAYER_1
 10
9.862503372132778
 20
-71.13307175240061
 30
0.0
  0
VERTEX
  5
8C
  8
LAYER_1
 10
10.05000337958336
 20
-71.23177215725045
 30
0.0
  0
VERTEX
  5
8D
  8
LAYER_1
 10
10.1030061400454
 20
-71.25413337512708
 30
0.0
  0
VERTEX
  5
8E
  8
LAYER_1
 10
10.17008468083478
 20
-71.27294432367103
 30
0.0
  0
VERTEX
  5
8F
  8
LAYER_1
 10
10.34480145734284
 20
-71.29975340192814
 30
0.0
  0
VERTEX
  5
90
  8
LAYER_1
 10
10.57081841700204
 20
-71.31187537035615
 30
0.0
  0
VERTEX
  5
91
  8
LAYER_1
 10
10.84480026770686
 20
-71.3089862072894
 30
0.0
  0
VERTEX
  5
92
  8
LAYER_1
 10
11.10672974566885
 20
-71.2928917826512
 30
0.0
  0
VERTEX
  5
93
  8
LAYER_1
 10
11.32252390700549
 20
-71.26566580050712
 30
0.0
  0
VERTEX
  5
94
  8
LAYER_1
 10
11.48226875595713
 20
-71.22899509361437
 30
0.0
  0
VERTEX
  5
95
  8
LAYER_1
 10
11.53802456461369
 20
-71.20764510362386
 30
0.0
  0
VERTEX
  5
96
  8
LAYER_1
 10
11.57605029676412
 20
-71.18456649473013
 30
0.0
  0
VERTEX
  5
97
  8
LAYER_1
 10
11.70000344514847
 20
-71.08163313698176
 30
0.0
  0
VERTEX
  5
98
  8
LAYER_1
 10
11.70000344514847
 20
-43.20885128588954
 30
0.0
  0
VERTEX
  5
99
  8
LAYER_1
 10
11.76155244253299
 20
-43.17081191353243
 30
0.0
  0
VERTEX
  5
9A
  8
LAYER_1
 10
11.80330401101574
 20
-43.16689914609437
 30
0.0
  0
VERTEX
  5
9B
  8
LAYER_1
 10
11.87148499433789
 20
-43.1843655183037
 30
0.0
  0
VERTEX
  5
9C
  8
LAYER_1
 10
11.95665169357357
 20
-43.21994431865385
 30
0.0
  0
VERTEX
  5
9D
  8
LAYER_1
 10
12.04936040979693
 20
-43.27036883563822
 30
0.0
  0
VERTEX
  5
9E
  8
LAYER_1
 10
12.27561937967637
 20
-43.40796513010113
 30
0.0
  0
VERTEX
  5
9F
  8
LAYER_1
 10
12.37500347197056
 20
-46.59918442968281
 30
0.0
  0
VERTEX
  5
A0
  8
LAYER_1
 10
12.37347883962515
 20
-51.78749907761812
 30
0.0
  0
VERTEX
  5
A1
  8
LAYER_1
 10
12.29856098252071
 20
-56.02499924600124
 30
0.0
  0
VERTEX
  5
A2
  8
LAYER_1
 10
12.21281734770072
 20
-60.37265566876158
 30
0.0
  0
VERTEX
  5
A3
  8
LAYER_1
 10
12.1118715569397
 20
-64.87499959766865
 30
0.0
  0
VERTEX
  5
A4
  8
LAYER_1
 10
12.00009998846311
 20
-69.48749978095293
 30
0.0
  0
VERTEX
  5
A5
  8
LAYER_1
 10
12.0000034570694
 20
-71.24999985098839
 30
0.0
  0
VERTEX
  5
A6
  8
LAYER_1
 10
12.42770245378297
 20
-71.24999985098839
 30
0.0
  0
VERTEX
  5
A7
  8
LAYER_1
 10
12.47971719782723
 20
-68.41874973848462
 30
0.0
  0
VERTEX
  5
A8
  8
LAYER_1
 10
12.53686990774244
 20
-65.65910119132604
 30
0.0
  0
VERTEX
  5
A9
  8
LAYER_1
 10
12.60123763356154
 20
-62.99999952316284
 30
0.0
  0
VERTEX
  5
AA
  8
LAYER_1
 10
12.67074332525155
 20
-60.41249942034483
 30
0.0
  0
VERTEX
  5
AB
  8
LAYER_1
 10
12.84354164457741
 20
-49.83749900013208
 30
0.0
  0
VERTEX
  5
AC
  8
LAYER_1
 10
12.74585246755531
 20
-43.72499875724316
 30
0.0
  0
VERTEX
  5
AD
  8
LAYER_1
 10
12.78863045653294
 20
-43.72499875724316
 30
0.0
  0
VERTEX
  5
AE
  8
LAYER_1
 10
12.85229837906464
 20
-43.75155196133536
 30
0.0
  0
VERTEX
  5
AF
  8
LAYER_1
 10
12.96627318910185
 20
-43.82488635240034
 30
0.0
  0
VERTEX
  5
B0
  8
LAYER_1
 10
13.29732879673371
 20
-44.07394736817884
 30
0.0
  0
VERTEX
  5
B1
  8
LAYER_1
 10
13.68616792951043
 20
-44.39627915003908
 30
0.0
  0
VERTEX
  5
B2
  8
LAYER_1
 10
14.0371612375139
 20
-44.71597904344152
 30
0.0
  0
VERTEX
  5
B3
  8
LAYER_1
 10
14.22394903237213
 20
-44.90693839538709
 30
0.0
  0
VERTEX
  5
B4
  8
LAYER_1
 10
14.40328123846793
 20
-45.10763114320804
 30
0.0
  0
VERTEX
  5
B5
  8
LAYER_1
 10
14.57489861124257
 20
-45.31753440398521
 30
0.0
  0
VERTEX
  5
B6
  8
LAYER_1
 10
14.73854190613732
 20
-45.53612529479939
 30
0.0
  0
VERTEX
  5
B7
  8
LAYER_1
 10
14.89395187859344
 20
-45.76288093273142
 30
0.0
  0
VERTEX
  5
B8
  8
LAYER_1
 10
15.0408692840522
 20
-45.99727843486212
 30
0.0
  0
VERTEX
  5
B9
  8
LAYER_1
 10
15.17903487795488
 20
-46.23879491827229
 30
0.0
  0
VERTEX
  5
BA
  8
LAYER_1
 10
15.30818941574274
 20
-46.48690750004275
 30
0.0
  0
VERTEX
  5
BB
  8
LAYER_1
 10
15.42807365285704
 20
-46.74109329725431
 30
0.0
  0
VERTEX
  5
BC
  8
LAYER_1
 10
15.53842834473907
 20
-47.00082942698781
 30
0.0
  0
VERTEX
  5
BD
  8
LAYER_1
 10
15.63899424683009
 20
-47.26559300632405
 30
0.0
  0
VERTEX
  5
BE
  8
LAYER_1
 10
15.72951211457136
 20
-47.53486115234385
 30
0.0
  0
VERTEX
  5
BF
  8
LAYER_1
 10
15.80972270340416
 20
-47.80811098212803
 30
0.0
  0
VERTEX
  5
C0
  8
LAYER_1
 10
15.87936676876975
 20
-48.08481961275741
 30
0.0
  0
VERTEX
  5
C1
  8
LAYER_1
 10
15.93818506610941
 20
-48.36446416131282
 30
0.0
  0
VERTEX
  5
C2
  8
LAYER_1
 10
15.9859183508644
 20
-48.64652174487504
 30
0.0
  0
VERTEX
  5
C3
  8
LAYER_1
 10
16.01148299834523
 20
-48.8617079261909
 30
0.0
  0
VERTEX
  5
C4
  8
LAYER_1
 10
16.02618836827151
 20
-49.08821305772318
 30
0.0
  0
VERTEX
  5
C5
  8
LAYER_1
 10
16.03031621329481
 20
-49.32452411229696
 30
0.0
  0
VERTEX
  5
C6
  8
LAYER_1
 10
16.02414828606672
 20
-49.56912806273732
 30
0.0
  0
VERTEX
  5
C7
  8
LAYER_1
 10
16.00796633923881
 20
-49.82051188186939
 30
0.0
  0
VERTEX
  5
C8
  8
LAYER_1
 10
15.98205212546266
 20
-50.07716254251827
 30
0.0
  0
VERTEX
  5
C9
  8
LAYER_1
 10
15.94668739738986
 20
-50.33756701750907
 30
0.0
  0
VERTEX
  5
CA
  8
LAYER_1
 10
15.90215390767199
 20
-50.60021227966688
 30
0.0
  0
VERTEX
  5
CB
  8
LAYER_1
 10
15.84873340896061
 20
-50.86358530181681
 30
0.0
  0
VERTEX
  5
CC
  8
LAYER_1
 10
15.78670765390732
 20
-51.12617305678396
 30
0.0
  0
VERTEX
  5
CD
  8
LAYER_1
 10
15.71635839516369
 20
-51.38646251739344
 30
0.0
  0
VERTEX
  5
CE
  8
LAYER_1
 10
15.6379673853813
 20
-51.64294065647034
 30
0.0
  0
VERTEX
  5
CF
  8
LAYER_1
 10
15.55181637721173
 20
-51.89409444683977
 30
0.0
  0
VERTEX
  5
D0
  8
LAYER_1
 10
15.45818712330655
 20
-52.13841086132685
 30
0.0
  0
VERTEX
  5
D1
  8
LAYER_1
 10
15.35736137631736
 20
-52.37437687275666
 30
0.0
  0
VERTEX
  5
D2
  8
LAYER_1
 10
15.24962088889572
 20
-52.60047945395431
 30
0.0
  0
VERTEX
  5
D3
  8
LAYER_1
 10
15.15218189434599
 20
-52.80733505170009
 30
0.0
  0
VERTEX
  5
D4
  8
LAYER_1
 10
15.08106952065228
 20
-52.98855224013639
 30
0.0
  0
VERTEX
  5
D5
  8
LAYER_1
 10
15.03628445183478
 20
-53.14411589163078
 30
0.0
  0
VERTEX
  5
D6
  8
LAYER_1
 10
15.01782737191369
 20
-53.2740108785508
 30
0.0
  0
VERTEX
  5
D7
  8
LAYER_1
 10
15.0256989649092
 20
-53.37822207326404
 30
0.0
  0
VERTEX
  5
D8
  8
LAYER_1
 10
15.03950822750699
 20
-53.42069152115798
 30
0.0
  0
VERTEX
  5
D9
  8
LAYER_1
 10
15.0598999148415
 20
-53.45673434813804
 30
0.0
  0
VERTEX
  5
DA
  8
LAYER_1
 10
15.08687411241525
 20
-53.48634866325019
 30
0.0
  0
VERTEX
  5
DB
  8
LAYER_1
 10
15.12043090573078
 20
-53.50953257554036
 30
0.0
  0
VERTEX
  5
DC
  8
LAYER_1
 10
15.1605703802906
 20
-53.52628419405451
 30
0.0
  0
VERTEX
  5
DD
  8
LAYER_1
 10
15.20729262159723
 20
-53.53660162783858
 30
0.0
  0
VERTEX
  5
DE
  8
LAYER_1
 10
15.25056388870458
 20
-53.53594534006872
 30
0.0
  0
VERTEX
  5
DF
  8
LAYER_1
 10
15.30217595331954
 20
-53.52289769924541
 30
0.0
  0
VERTEX
  5
E0
  8
LAYER_1
 10
15.43029160592879
 20
-53.45974409640955
 30
0.0
  0
VERTEX
  5
E1
  8
LAYER_1
 10
15.591377841138
 20
-53.34737229527334
 30
0.0
  0
VERTEX
  5
E2
  8
LAYER_1
 10
15.78517292066017
 20
-53.18601377177907
 30
0.0
  0
VERTEX
  5
E3
  8
LAYER_1
 10
16.01141510620834
 20
-52.97590000186907
 30
0.0
  0
VERTEX
  5
E4
  8
LAYER_1
 10
16.2698426594955
 20
-52.71726246148565
 30
0.0
  0
VERTEX
  5
E5
  8
LAYER_1
 10
16.56019384223467
 20
-52.4103326265711
 30
0.0
  0
VERTEX
  5
E6
  8
LAYER_1
 10
16.88220691613886
 20
-52.05534197306777
 30
0.0
  0
VERTEX
  5
E7
  8
LAYER_1
 10
18.13338093948923
 20
-50.67679117980445
 30
0.0
  0
VERTEX
  5
E8
  8
LAYER_1
 10
18.754258202862
 20
-50.0053975298345
 30
0.0
  0
VERTEX
  5
E9
  8
LAYER_1
 10
20.91738603395176
 20
-47.43749890476465
 30
0.0
  0
VERTEX
  5
EA
  8
LAYER_1
 10
21.15422093499316
 20
-47.17499889433384
 30
0.0
  0
VERTEX
  5
EB
  8
LAYER_1
 10
21.73927984697261
 20
-46.50737063832199
 30
0.0
  0
VERTEX
  5
EC
  8
LAYER_1
 10
22.16359569423339
 20
-46.01987061895048
 30
0.0
  0
VERTEX
  5
ED
  8
LAYER_1
 10
22.23968753055614
 20
-45.93749884516001
 30
0.0
  0
VERTEX
  5
EE
  8
LAYER_1
 10
22.71590269546634
 20
-45.33749882131815
 30
0.0
  0
VERTEX
  5
EF
  8
LAYER_1
 10
23.16538011001503
 20
-44.79134478018609
 30
0.0
  0
VERTEX
  5
F0
  8
LAYER_1
 10
23.5773108963965
 20
-44.32080424668908
 30
0.0
  0
VERTEX
  5
F1
  8
LAYER_1
 10
23.96250393241644
 20
-43.90410969590187
 30
0.0
  0
VERTEX
  5
F2
  8
LAYER_1
 10
24.71250396221876
 20
-43.08346627462906
 30
0.0
  0
VERTEX
  5
F3
  8
LAYER_1
 10
25.41257273765076
 20
-42.33778040522766
 30
0.0
  0
VERTEX
  5
F4
  8
LAYER_1
 10
26.22002010632813
 20
-41.51205849178498
 30
0.0
  0
VERTEX
  5
F5
  8
LAYER_1
 10
27.08099263368151
 20
-40.66044184641471
 30
0.0
  0
VERTEX
  5
F6
  8
LAYER_1
 10
27.94163688514152
 20
-39.83707178123058
 30
0.0
  0
VERTEX
  5
F7
  8
LAYER_1
 10
28.68750412017107
 20
-39.13664493187787
 30
0.0
  0
VERTEX
  5
F8
  8
LAYER_1
 10
28.987504132092
 20
-38.7507186807984
 30
0.0
  0
VERTEX
  5
F9
  8
LAYER_1
 10
29.34964401695325
 20
-38.26852446821484
 30
0.0
  0
VERTEX
  5
FA
  8
LAYER_1
 10
29.79904414892218
 20
-37.65114545862553
 30
0.0
  0
VERTEX
  5
FB
  8
LAYER_1
 10
30.31058415383141
 20
-36.93749848753214
 30
0.0
  0
VERTEX
  5
FC
  8
LAYER_1
 10
30.27390810207361
 20
-36.3749984651804
 30
0.0
  0
VERTEX
  5
FD
  8
LAYER_1
 10
30.25052711761173
 20
-36.14392775445467
 30
0.0
  0
VERTEX
  5
FE
  8
LAYER_1
 10
30.20909623352714
 20
-35.91052085072216
 30
0.0
  0
VERTEX
  5
FF
  8
LAYER_1
 10
30.14729513974347
 20
-35.668364212762
 30
0.0
  0
VERTEX
  5
100
  8
LAYER_1
 10
30.06280352618437
 20
-35.41104429935324
 30
0.0
  0
VERTEX
  5
101
  8
LAYER_1
 10
29.95330108277351
 20
-35.13214756927497
 30
0.0
  0
VERTEX
  5
102
  8
LAYER_1
 10
29.81646749943452
 20
-34.82526048130629
 30
0.0
  0
VERTEX
  5
103
  8
LAYER_1
 10
29.64998246609106
 20
-34.48396949422629
 30
0.0
  0
VERTEX
  5
104
  8
LAYER_1
 10
29.45152567266679
 20
-34.10186106681405
 30
0.0
  0
VERTEX
  5
105
  8
LAYER_1
 10
29.23909261090074
 20
-33.68287038406601
 30
0.0
  0
VERTEX
  5
106
  8
LAYER_1
 10
29.0010565619789
 20
-33.18086557887231
 30
0.0
  0
VERTEX
  5
107
  8
LAYER_1
 10
28.75105198994083
 20
-32.62787580793989
 30
0.0
  0
VERTEX
  5
108
  8
LAYER_1
 10
28.50271335882609
 20
-32.05593022797564
 30
0.0
  0
VERTEX
  5
109
  8
LAYER_1
 10
28.26967513267426
 20
-31.49705799568648
 30
0.0
  0
VERTEX
  5
10A
  8
LAYER_1
 10
28.0655717755249
 20
-30.98328826777933
 30
0.0
  0
VERTEX
  5
10B
  8
LAYER_1
 10
27.90403775141758
 20
-30.54665020096109
 30
0.0
  0
VERTEX
  5
10C
  8
LAYER_1
 10
27.79870752439187
 20
-30.21917295193868
 30
0.0
  0
VERTEX
  5
10D
  8
LAYER_1
 10
27.68598349237423
 20
-29.81249820441008
 30
0.0
  0
VERTEX
  5
10E
  8
LAYER_1
 10
27.3868554141945
 20
-28.72499816119671
 30
0.0
  0
VERTEX
  5
10F
  8
LAYER_1
 10
27.11659239809503
 20
-27.71407343550466
 30
0.0
  0
VERTEX
  5
110
  8
LAYER_1
 10
26.84363177308544
 20
-26.64179044063228
 30
0.0
  0
VERTEX
  5
111
  8
LAYER_1
 10
26.58814010018096
 20
-25.58923626543645
 30
0.0
  0
VERTEX
  5
112
  8
LAYER_1
 10
26.37028394039679
 20
-24.63749799877405
 30
0.0
  0
VERTEX
  5
113
  8
LAYER_1
 10
26.18713417817236
 20
-23.83013527954054
 30
0.0
  0
VERTEX
  5
114
  8
LAYER_1
 10
25.98037780217382
 20
-22.9640850782535
 30
0.0
  0
VERTEX
  5
115
  8
LAYER_1
 10
25.75389093143238
 20
-22.05411794781089
 30
0.0
  0
VERTEX
  5
116
  8
LAYER_1
 10
25.51154968497926
 20
-21.11500444111062
 30
0.0
  0
VERTEX
  5
117
  8
LAYER_1
 10
25.25723018184567
 20
-20.16151511105062
 30
0.0
  0
VERTEX
  5
118
  8
LAYER_1
 10
24.99480854106282
 20
-19.20842051052882
 30
0.0
  0
VERTEX
  5
119
  8
LAYER_1
 10
24.72816088166194
 20
-18.27049119244314
 30
0.0
  0
VERTEX
  5
11A
  8
LAYER_1
 10
24.46116332267422
 20
-17.36249770969152
 30
0.0
  0
VERTEX
  5
11B
  8
LAYER_1
 10
24.04001030662148
 20
-15.93749765306711
 30
0.0
  0
VERTEX
  5
11C
  8
LAYER_1
 10
23.70289785985527
 20
-14.79581066724889
 30
0.0
  0
VERTEX
  5
11D
  8
LAYER_1
 10
23.22156219557101
 20
-13.19999754428864
 30
0.0
  0
VERTEX
  5
11E
  8
LAYER_1
 10
22.72364398823134
 20
-11.54999747872353
 30
0.0
  0
VERTEX
  5
11F
  8
LAYER_1
 10
22.16653425893085
 20
-9.708996266922796
 30
0.0
  0
VERTEX
  5
120
  8
LAYER_1
 10
21.65897921293752
 20
-8.062497340142727
 30
0.0
  0
VERTEX
  5
121
  8
LAYER_1
 10
21.35515348538168
 20
-7.087497301399708
 30
0.0
  0
VERTEX
  5
122
  8
LAYER_1
 10
19.78006826558854
 20
-2.287497110664845
 30
0.0
  0
VERTEX
  5
123
  8
LAYER_1
 10
19.72495983633411
 20
-2.212497107684612
 30
0.0
  0
VERTEX
  5
124
  8
LAYER_1
 10
19.69309752354628
 20
-2.15082718335907
 30
0.0
  0
VERTEX
  5
125
  8
LAYER_1
 10
19.64708165307653
 20
-2.038356475764886
 30
0.0
  0
VERTEX
  5
126
  8
LAYER_1
 10
19.53722892164433
 20
-1.724997088313103
 30
0.0
  0
VERTEX
  5
127
  8
LAYER_1
 10
19.40460643620901
 20
-1.312497071921825
 30
0.0
  0
VERTEX
  5
128
  8
LAYER_1
 10
18.43577427366149
 20
1.162503026425838
 30
0.0
  0
VERTEX
  5
129
  8
LAYER_1
 10
18.25538898606486
 20
1.558475699413151
 30
0.0
  0
VERTEX
  5
12A
  8
LAYER_1
 10
18.12799187669972
 20
1.848355916365445
 30
0.0
  0
VERTEX
  5
12B
  8
LAYER_1
 10
18.07500369846821
 20
1.989255237608987
 30
0.0
  0
VERTEX
  5
12C
  8
LAYER_1
 10
18.07500369846821
 20
2.024062102817538
 30
0.0
  0
VERTEX
  5
12D
  8
LAYER_1
 10
17.72974078388017
 20
2.793282612305404
 30
0.0
  0
VERTEX
  5
12E
  8
LAYER_1
 10
17.1598733903717
 20
4.05000314116478
 30
0.0
  0
VERTEX
  5
12F
  8
LAYER_1
 10
16.93526891145129
 20
4.537503160536289
 30
0.0
  0
VERTEX
  5
130
  8
LAYER_1
 10
16.42091278274935
 20
5.562673911692784
 30
0.0
  0
VERTEX
  5
131
  8
LAYER_1
 10
15.94336026803681
 20
6.492275616680045
 30
0.0
  0
VERTEX
  5
132
  8
LAYER_1
 10
15.51748942403282
 20
7.287673980238125
 30
0.0
  0
VERTEX
  5
133
  8
LAYER_1
 10
15.1376661119163
 20
7.991225318960705
 30
0.0
  0
VERTEX
  5
134
  8
LAYER_1
 10
14.77082362067793
 20
8.700003325939178
 30
0.0
  0
VERTEX
  5
135
  8
LAYER_1
 10
14.63339531270504
 20
8.965141573887694
 30
0.0
  0
VERTEX
  5
136
  8
LAYER_1
 10
14.50688838871375
 20
9.187219311991896
 30
0.0
  0
VERTEX
  5
137
  8
LAYER_1
 10
14.38426517391505
 20
9.374354162404753
 30
0.0
  0
VERTEX
  5
138
  8
LAYER_1
 10
14.25848799351997
 20
9.534663747279232
 30
0.0
  0
VERTEX
  5
139
  8
LAYER_1
 10
14.12251917273951
 20
9.676265688768305
 30
0.0
  0
VERTEX
  5
13A
  8
LAYER_1
 10
13.96932103678469
 20
9.80727760902494
 30
0.0
  0
VERTEX
  5
13B
  8
LAYER_1
 10
13.79185591086652
 20
9.935817130202107
 30
0.0
  0
VERTEX
  5
13C
  8
LAYER_1
 10
13.583086120196
 20
10.07000187445277
 30
0.0
  0
VERTEX
  5
13D
  8
LAYER_1
 10
13.18948282797101
 20
10.31250339001417
 30
0.0
  0
VERTEX
  5
13E
  8
LAYER_1
 10
13.16196842296989
 20
10.92235317753028
 30
0.0
  0
VERTEX
  5
13F
  8
LAYER_1
 10
13.134529375142
 20
11.2565165949253
 30
0.0
  0
VERTEX
  5
140
  8
LAYER_1
 10
13.08508384822373
 20
11.54745360237768
 30
0.0
  0
VERTEX
  5
141
  8
LAYER_1
 10
13.05249987685601
 20
11.67602732850282
 30
0.0
  0
VERTEX
  5
142
  8
LAYER_1
 10
13.01488375181606
 20
11.79297260349523
 30
0.0
  0
VERTEX
  5
143
  8
LAYER_1
 10
12.97239196180401
 20
11.89801547780588
 30
0.0
  0
VERTEX
  5
144
  8
LAYER_1
 10
12.92518099551997
 20
11.99088200188575
 30
0.0
  0
VERTEX
  5
145
  8
LAYER_1
 10
12.87340734166408
 20
12.07129822618582
 30
0.0
  0
VERTEX
  5
146
  8
LAYER_1
 10
12.81722748893644
 20
12.13899020115706
 30
0.0
  0
VERTEX
  5
147
  8
LAYER_1
 10
12.7567979260372
 20
12.19368397725045
 30
0.0
  0
VERTEX
  5
148
  8
LAYER_1
 10
12.69227514166646
 20
12.23510560491697
 30
0.0
  0
VERTEX
  5
149
  8
LAYER_1
 10
12.62381562452435
 20
12.26298113460758
 30
0.0
  0
VERTEX
  5
14A
  8
LAYER_1
 10
12.55157586331099
 20
12.27703661677328
 30
0.0
  0
VERTEX
  5
14B
  8
LAYER_1
 10
12.47571234672651
 20
12.27699810186502
 30
0.0
  0
VERTEX
  5
14C
  8
LAYER_1
 10
12.39638156347102
 20
12.2625916403338
 30
0.0
  0
VERTEX
  5
14D
  8
LAYER_1
 10
12.29225326993275
 20
12.24062084583536
 30
0.0
  0
VERTEX
  5
14E
  8
LAYER_1
 10
12.17149377909914
 20
12.22453849476855
 30
0.0
  0
VERTEX
  5
14F
  8
LAYER_1
 10
11.91377180925092
 20
12.21032162750027
 30
0.0
  0
VERTEX
  5
150
  8
LAYER_1
 10
11.69059686133642
 20
12.22050604766978
 30
0.0
  0
VERTEX
  5
151
  8
LAYER_1
 10
11.61302114791995
 20
12.23492530590022
 30
0.0
  0
VERTEX
  5
152
  8
LAYER_1
 10
11.56935014276569
 20
12.25565676441791
 30
0.0
  0
VERTEX
  5
153
  8
LAYER_1
 10
11.54857120179814
 20
12.31451524686351
 30
0.0
  0
VERTEX
  5
154
  8
LAYER_1
 10
11.53803633430153
 20
12.42679752601796
 30
0.0
  0
VERTEX
  5
155
  8
LAYER_1
 10
11.53666296083832
 20
12.57484936213593
 30
0.0
  0
VERTEX
  5
156
  8
LAYER_1
 10
11.54336850197099
 20
12.74101651547209
 30
0.0
  0
VERTEX
  5
157
  8
LAYER_1
 10
11.55707037826201
 20
12.90764474628114
 30
0.0
  0
VERTEX
  5
158
  8
LAYER_1
 10
11.57668601027384
 20
13.05707981481773
 30
0.0
  0
VERTEX
  5
159
  8
LAYER_1
 10
11.60113281856895
 20
13.17166748133657
 30
0.0
  0
VERTEX
  5
15A
  8
LAYER_1
 10
11.62932822370982
 20
13.23375350609231
 30
0.0
  0
VERTEX
  5
15B
  8
LAYER_1
 10
11.6697322953655
 20
13.28577291952366
 30
0.0
  0
VERTEX
  5
15C
  8
LAYER_1
 10
11.6919936435357
 20
13.34240843834366
 30
0.0
  0
VERTEX
  5
15D
  8
LAYER_1
 10
11.69598617706607
 20
13.40403227262675
 30
0.0
  0
VERTEX
  5
15E
  8
LAYER_1
 10
11.68158380480223
 20
13.47101663244742
 30
0.0
  0
VERTEX
  5
15F
  8
LAYER_1
 10
11.64866043558983
 20
13.54373372788011
 30
0.0
  0
VERTEX
  5
160
  8
LAYER_1
 10
11.59708997827451
 20
13.62255576899929
 30
0.0
  0
VERTEX
  5
161
  8
LAYER_1
 10
11.52674634170191
 20
13.70785496587942
 30
0.0
  0
VERTEX
  5
162
  8
LAYER_1
 10
11.43750343471766
 20
13.80000352859497
 30
0.0
  0
VERTEX
  5
163
  8
LAYER_1
 10
11.30107053355541
 20
13.94452277112102
 30
0.0
  0
VERTEX
  5
164
  8
LAYER_1
 10
11.25505379648766
 20
14.00807723409142
 30
0.0
  0
VERTEX
  5
165
  8
LAYER_1
 10
11.22143807436231
 20
14.07135254994517
 30
0.0
  0
VERTEX
  5
166
  8
LAYER_1
 10
11.19842427162945
 20
14.13849193749111
 30
0.0
  0
VERTEX
  5
167
  8
LAYER_1
 10
11.18421329273918
 20
14.21363861553806
 30
0.0
  0
VERTEX
  5
168
  8
LAYER_1
 10
11.17500342428684
 20
14.40452671837031
 30
0.0
  0
VERTEX
  5
169
  8
LAYER_1
 10
11.18083501991785
 20
14.60771450642419
 30
0.0
  0
VERTEX
  5
16A
  8
LAYER_1
 10
11.1939795028369
 20
14.67489891584188
 30
0.0
  0
VERTEX
  5
16B
  8
LAYER_1
 10
11.21914754327411
 20
14.72644156431417
 30
0.0
  0
VERTEX
  5
16C
  8
LAYER_1
 10
11.26024246681635
 20
14.76781587343667
 30
0.0
  0
VERTEX
  5
16D
  8
LAYER_1
 10
11.32116759905048
 20
14.80449526480495
 30
0.0
  0
VERTEX
  5
16E
  8
LAYER_1
 10
11.51812179194182
 20
14.88566298066121
 30
0.0
  0
VERTEX
  5
16F
  8
LAYER_1
 10
11.65292258085971
 20
14.94329202227129
 30
0.0
  0
VERTEX
  5
170
  8
LAYER_1
 10
11.78170077994983
 20
15.01065625643155
 30
0.0
  0
VERTEX
  5
171
  8
LAYER_1
 10
11.90409234046481
 20
15.0872250606841
 30
0.0
  0
VERTEX
  5
172
  8
LAYER_1
 10
12.01973321365729
 20
15.17246781257109
 30
0.0
  0
VERTEX
  5
173
  8
LAYER_1
 10
12.12825935077989
 20
15.26585388963464
 30
0.0
  0
VERTEX
  5
174
  8
LAYER_1
 10
12.22930670308524
 20
15.36685266941687
 30
0.0
  0
VERTEX
  5
175
  8
LAYER_1
 10
12.32251122182598
 20
15.47493352945992
 30
0.0
  0
VERTEX
  5
176
  8
LAYER_1
 10
12.40750885825474
 20
15.58956584730593
 30
0.0
  0
VERTEX
  5
177
  8
LAYER_1
 10
12.48393556362415
 20
15.710219000497
 30
0.0
  0
VERTEX
  5
178
  8
LAYER_1
 10
12.55142728918684
 20
15.83636236657528
 30
0.0
  0
VERTEX
  5
179
  8
LAYER_1
 10
12.60961998619544
 20
15.96746532308289
 30
0.0
  0
VERTEX
  5
17A
  8
LAYER_1
 10
12.65814960590258
 20
16.10299724756196
 30
0.0
  0
VERTEX
  5
17B
  8
LAYER_1
 10
12.69665209956089
 20
16.24242751755463
 30
0.0
  0
VERTEX
  5
17C
  8
LAYER_1
 10
12.72476341842301
 20
16.38522551060301
 30
0.0
  0
VERTEX
  5
17D
  8
LAYER_1
 10
12.74211951374156
 20
16.53086060424924
 30
0.0
  0
VERTEX
  5
17E
  8
LAYER_1
 10
12.74835633676918
 20
16.67880217603545
 30
0.0
  0
VERTEX
  5
17F
  8
LAYER_1
 10
12.74308558667583
 20
16.89331339171259
 30
0.0
  0
VERTEX
  5
180
  8
LAYER_1
 10
12.72499082235376
 20
17.08917547234373
 30
0.0
  0
VERTEX
  5
181
  8
LAYER_1
 10
12.69316475554433
 20
17.26908811991559
 30
0.0
  0
VERTEX
  5
182
  8
LAYER_1
 10
12.64670009798891
 20
17.43575103641483
 30
0.0
  0
VERTEX
  5
183
  8
LAYER_1
 10
12.58468956142887
 20
17.59186392382816
 30
0.0
  0
VERTEX
  5
184
  8
LAYER_1
 10
12.50622585760558
 20
17.74012648414226
 30
0.0
  0
VERTEX
  5
185
  8
LAYER_1
 10
12.41040169826041
 20
17.88323841934382
 30
0.0
  0
VERTEX
  5
186
  8
LAYER_1
 10
12.29630979513473
 20
18.02389943141954
 30
0.0
  0
VERTEX
  5
187
  8
LAYER_1
 10
12.14022825945387
 20
18.1854986709291
 30
0.0
  0
VERTEX
  5
188
  8
LAYER_1
 10
11.97595924235528
 20
18.32481037882567
 30
0.0
  0
VERTEX
  5
189
  8
LAYER_1
 10
11.80317028731475
 20
18.44198498999532
 30
0.0
  0
VERTEX
  5
18A
  8
LAYER_1
 10
11.62152893780805
 20
18.5371729393241
 30
0.0
  0
VERTEX
  5
18B
  8
LAYER_1
 10
11.43070273731096
 20
18.61052466169809
 30
0.0
  0
VERTEX
  5
18C
  8
LAYER_1
 10
11.23035922929925
 20
18.66219059200335
 30
0.0
  0
VERTEX
  5
18D
  8
LAYER_1
 10
11.02016595724869
 20
18.69232116512595
 30
0.0
  0
VERTEX
  5
18E
  8
LAYER_1
 10
10.79979046463507
 20
18.70106681595196
 30
0.0
  0
VERTEX
  5
18F
  8
LAYER_1
 10
10.65662237119679
 20
18.69558531483933
 30
0.0
  0
VERTEX
  5
190
  8
LAYER_1
 10
10.51760345960984
 20
18.68160542181648
 30
0.0
  0
VERTEX
  5
191
  8
LAYER_1
 10
10.38278836818489
 20
18.65916089020152
 30
0.0
  0
VERTEX
  5
192
  8
LAYER_1
 10
10.25223173523256
 20
18.62828547331257
 30
0.0
  0
VERTEX
  5
193
  8
LAYER_1
 10
10.12598819906351
 20
18.58901292446775
 30
0.0
  0
VERTEX
  5
194
  8
LAYER_1
 10
10.00411239798839
 20
18.54137699698516
 30
0.0
  0
VERTEX
  5
195
  8
LAYER_1
 10
9.886658970317828
 20
18.48541144418293
 30
0.0
  0
VERTEX
  5
196
  8
LAYER_1
 10
9.773682554362484
 20
18.42115001937915
 30
0.0
  0
VERTEX
  5
197
  8
LAYER_1
 10
9.665237788432998
 20
18.34862647589195
 30
0.0
  0
VERTEX
  5
198
  8
LAYER_1
 10
9.561379310840017
 20
18.26787456703943
 30
0.0
  0
VERTEX
  5
199
  8
LAYER_1
 10
9.462161759894185
 20
18.17892804613971
 30
0.0
  0
VERTEX
  5
19A
  8
LAYER_1
 10
9.367639773906147
 20
18.08182066651091
 30
0.0
  0
VERTEX
  5
19B
  8
LAYER_1
 10
9.277867991186548
 20
17.97658618147114
 30
0.0
  0
VERTEX
  5
19C
  8
LAYER_1
 10
9.192901050046038
 20
17.8632583443385
 30
0.0
  0
VERTEX
  5
19D
  8
LAYER_1
 10
9.11279358879526
 20
17.74187090843112
 30
0.0
  0
VERTEX
  5
19E
  8
LAYER_1
 10
9.037600245744855
 20
17.6124576270671
 30
0.0
  0
VERTEX
  5
19F
  8
LAYER_1
 10
8.94649512122862
 20
17.41976387601053
 30
0.0
  0
VERTEX
  5
1A0
  8
LAYER_1
 10
8.879438646790545
 20
17.22204581780284
 30
0.0
  0
VERTEX
  5
1A1
  8
LAYER_1
 10
8.835770945601519
 20
17.02100656967941
 30
0.0
  0
VERTEX
  5
1A2
  8
LAYER_1
 10
8.814832140832433
 20
16.8183492488756
 30
0.0
  0
VERTEX
  5
1A3
  8
LAYER_1
 10
8.815962355654175
 20
16.61577697262677
 30
0.0
  0
VERTEX
  5
1A4
  8
LAYER_1
 10
8.838501713237639
 20
16.41499285816829
 30
0.0
  0
VERTEX
  5
1A5
  8
LAYER_1
 10
8.88179033675371
 20
16.21770002273552
 30
0.0
  0
VERTEX
  5
1A6
  8
LAYER_1
 10
8.945168349373283
 20
16.02560158356384
 30
0.0
  0
VERTEX
  5
1A7
  8
LAYER_1
 10
9.027975874267245
 20
15.84040065788859
 30
0.0
  0
VERTEX
  5
1A8
  8
LAYER_1
 10
9.129553034606484
 20
15.66380036294516
 30
0.0
  0
VERTEX
  5
1A9
  8
LAYER_1
 10
9.249239953561894
 20
15.4975038159689
 30
0.0
  0
VERTEX
  5
1AA
  8
LAYER_1
 10
9.386376754304365
 20
15.34321413419518
 30
0.0
  0
VERTEX
  5
1AB
  8
LAYER_1
 10
9.540303560004784
 20
15.20263443485936
 30
0.0
  0
VERTEX
  5
1AC
  8
LAYER_1
 10
9.710360493834044
 20
15.07746783519681
 30
0.0
  0
VERTEX
  5
1AD
  8
LAYER_1
 10
9.89588767896303
 20
14.9694174524429
 30
0.0
  0
VERTEX
  5
1AE
  8
LAYER_1
 10
10.09622523856264
 20
14.88018640383298
 30
0.0
  0
VERTEX
  5
1AF
  8
LAYER_1
 10
10.28058751109184
 20
14.80312528201889
 30
0.0
  0
VERTEX
  5
1B0
  8
LAYER_1
 10
10.33878466619564
 20
14.7677984045482
 30
0.0
  0
VERTEX
  5
1B1
  8
LAYER_1
 10
10.37882825933817
 20
14.72863402696377
 30
0.0
  0
VERTEX
  5
1B2
  8
LAYER_1
 10
10.40409510962887
 20
14.6811521824621
 30
0.0
  0
VERTEX
  5
1B3
  8
LAYER_1
 10
10.4179620361772
 20
14.62087290423972
 30
0.0
  0
VERTEX
  5
1B4
  8
LAYER_1
 10
10.42500339448452
 20
14.44400217941885
 30
0.0
  0
VERTEX
  5
1B5
  8
LAYER_1
 10
10.41976788645153
 20
14.33419078080532
 30
0.0
  0
VERTEX
  5
1B6
  8
LAYER_1
 10
10.40357811492418
 20
14.22990046260563
 30
0.0
  0
VERTEX
  5
1B7
  8
LAYER_1
 10
10.37570920875993
 20
14.12962597605817
 30
0.0
  0
VERTEX
  5
1B8
  8
LAYER_1
 10
10.33543629681622
 20
14.03186207240128
 30
0.0
  0
VERTEX
  5
1B9
  8
LAYER_1
 10
10.28203450795048
 20
13.93510350287334
 30
0.0
  0
VERTEX
  5
1BA
  8
LAYER_1
 10
10.21477897102017
 20
13.83784501871269
 30
0.0
  0
VERTEX
  5
1BB
  8
LAYER_1
 10
10.13294481488274
 20
13.73858137115772
 30
0.0
  0
VERTEX
  5
1BC
  8
LAYER_1
 10
10.03580716839562
 20
13.63580731144677
 30
0.0
  0
VERTEX
  5
1BD
  8
LAYER_1
 10
9.985432090034667
 20
13.57862720646814
 30
0.0
  0
VERTEX
  5
1BE
  8
LAYER_1
 10
9.946805304181048
 20
13.52046053442329
 30
0.0
  0
VERTEX
  5
1BF
  8
LAYER_1
 10
9.920163322350653
 20
13.46285659732078
 30
0.0
  0
VERTEX
  5
1C0
  8
LAYER_1
 10
9.90574265605937
 20
13.40736469716919
 30
0.0
  0
VERTEX
  5
1C1
  8
LAYER_1
 10
9.90377981682309
 20
13.35553413597707
 30
0.0
  0
VERTEX
  5
1C2
  8
LAYER_1
 10
9.914511316157697
 20
13.30891421575299
 30
0.0
  0
VERTEX
  5
1C3
  8
LAYER_1
 10
9.938173665579079
 20
13.26905423850552
 30
0.0
  0
VERTEX
  5
1C4
  8
LAYER_1
 10
9.975003376603127
 20
13.23750350624323
 30
0.0
  0
VERTEX
  5
1C5
  8
LAYER_1
 10
9.990069295170542
 20
13.21853419992488
 30
0.0
  0
VERTEX
  5
1C6
  8
LAYER_1
 10
10.00412447151029
 20
13.18216735582907
 30
0.0
  0
VERTEX
  5
1C7
  8
LAYER_1
 10
10.02797212870792
 20
13.06576493973999
 30
0.0
  0
VERTEX
  5
1C8
  8
LAYER_1
 10
10.0440854105982
 20
12.90534402884593
 30
0.0
  0
VERTEX
  5
1C9
  8
LAYER_1
 10
10.05000337958336
 20
12.71795239401682
 30
0.0
  0
VERTEX
  5
1CA
  8
LAYER_1
 10
10.05000337958336
 20
12.2447538327885
 30
0.0
  0
VERTEX
  5
1CB
  8
LAYER_1
 10
9.761771477805041
 20
12.20609382218163
 30
0.0
  0
VERTEX
  5
1CC
  8
LAYER_1
 10
9.622296996818532
 20
12.17889201519893
 30
0.0
  0
VERTEX
  5
1CD
  8
LAYER_1
 10
9.455610185880229
 20
12.13340643224537
 30
0.0
  0
VERTEX
  5
1CE
  8
LAYER_1
 10
9.28262901457134
 20
12.07597506718682
 30
0.0
  0
VERTEX
  5
1CF
  8
LAYER_1
 10
9.124271452473067
 20
12.01293591388912
 30
0.0
  0
VERTEX
  5
1D0
  8
LAYER_1
 10
8.77500332891941
 20
11.85843801620348
 30
0.0
  0
VERTEX
  5
1D1
  8
LAYER_1
 10
8.77615178705382
 20
11.46047071800997
 30
0.0
  0
VERTEX
  5
1D2
  8
LAYER_1
 10
8.780962858448902
 20
11.29908715604017
 30
0.0
  0
VERTEX
  5
1D3
  8
LAYER_1
 10
8.793213332490351
 20
11.15386689722508
 30
0.0
  0
VERTEX
  5
1D4
  8
LAYER_1
 10
8.811050315903817
 20
11.04072105069171
 30
0.0
  0
VERTEX
  5
1D5
  8
LAYER_1
 10
8.83262091541495
 20
10.97556072556712
 30
0.0
  0
VERTEX
  5
1D6
  8
LAYER_1
 10
8.871932658111461
 20
10.93735790834081
 30
0.0
  0
VERTEX
  5
1D7
  8
LAYER_1
 10
8.94261966471317
 20
10.89219642786245
 30
0.0
  0
VERTEX
  5
1D8
  8
LAYER_1
 10
9.15307526380001
 20
10.79150354354993
 30
0.0
  0
VERTEX
  5
1D9
  8
LAYER_1
 10
9.413899301011131
 20
10.69449420543021
 30
0.0
  0
VERTEX
  5
1DA
  8
LAYER_1
 10
9.675003364682198
 20
10.62218054630397
 30
0.0
  0
VERTEX
  5
1DB
  8
LAYER_1
 10
9.862503372132778
 20
10.58157364817144
 30
0.0
  0
VERTEX
  5
1DC
  8
LAYER_1
 10
9.786671250737783
 20
-8.287497349083424
 30
0.0
  0
VERTEX
  5
1DD
  8
LAYER_1
 10
9.612225035838492
 20
-8.81249736994505
 30
0.0
  0
VERTEX
  5
1DE
  8
LAYER_1
 10
9.328821147789977
 20
-9.705293949748285
 30
0.0
  0
VERTEX
  5
1DF
  8
LAYER_1
 10
9.04263938509541
 20
-10.68228244302423
 30
0.0
  0
VERTEX
  5
1E0
  8
LAYER_1
 10
8.759353971771802
 20
-11.72047631603492
 30
0.0
  0
VERTEX
  5
1E1
  8
LAYER_1
 10
8.48463913183616
 20
-12.79688903504237
 30
0.0
  0
VERTEX
  5
1E2
  8
LAYER_1
 10
8.22416908930549
 20
-13.88853406630863
 30
0.0
  0
VERTEX
  5
1E3
  8
LAYER_1
 10
7.983618068196805
 20
-14.97242487609571
 30
0.0
  0
VERTEX
  5
1E4
  8
LAYER_1
 10
7.768660292527108
 20
-16.02557493066565
 30
0.0
  0
VERTEX
  5
1E5
  8
LAYER_1
 10
7.584969986313411
 20
-17.02499769628048
 30
0.0
  0
VERTEX
  5
1E6
  8
LAYER_1
 10
7.358943997460244
 20
-18.33749774843454
 30
0.0
  0
VERTEX
  5
1E7
  8
LAYER_1
 10
7.270733483116359
 20
-19.12499777972698
 30
0.0
  0
VERTEX
  5
1E8
  8
LAYER_1
 10
7.236763963643396
 20
-19.52249779552221
 30
0.0
  0
VERTEX
  5
1E9
  8
LAYER_1
 10
7.209480792080386
 20
-20.02265406539664
 30
0.0
  0
VERTEX
  5
1EA
  8
LAYER_1
 10
7.191661537210578
 20
-20.56148221180774
 30
0.0
  0
VERTEX
  5
1EB
  8
LAYER_1
 10
7.186083767817223
 20
-21.07499785721302
 30
0.0
  0
VERTEX
  5
1EC
  8
LAYER_1
 10
7.199585594791042
 20
-21.78210813694169
 30
0.0
  0
VERTEX
  5
1ED
  8
LAYER_1
 10
7.217538856760051
 20
-22.10884592980965
 30
0.0
  0
VERTEX
  5
1EE
  8
LAYER_1
 10
7.245514206340285
 20
-22.44397671000292
 30
0.0
  0
VERTEX
  5
1EF
  8
LAYER_1
 10
7.285427034999121
 20
-22.80720389151369
 30
0.0
  0
VERTEX
  5
1F0
  8
LAYER_1
 10
7.339192734203928
 20
-23.21823088833416
 30
0.0
  0
VERTEX
  5
1F1
  8
LAYER_1
 10
7.495944310120947
 20
-24.26249798387289
 30
0.0
  0
VERTEX
  5
1F2
  8
LAYER_1
 10
7.566594568599015
 20
-24.71249800175428
 30
0.0
  0
VERTEX
  5
1F3
  8
LAYER_1
 10
7.645798927897587
 20
-25.91121807294943
 30
0.0
  0
VERTEX
  5
1F4
  8
LAYER_1
 10
7.690503945874017
 20
-26.66605338121435
 30
0.0
  0
VERTEX
  5
1F5
  8
LAYER_1
 10
7.717480109408755
 20
-27.34980073831496
 30
0.0
  0
VERTEX
  5
1F6
  8
LAYER_1
 10
7.725348275309165
 20
-28.00269336556037
 30
0.0
  0
VERTEX
  5
1F7
  8
LAYER_1
 10
7.712729300382616
 20
-28.66496448425965
 30
0.0
  0
VERTEX
  5
1F8
  8
LAYER_1
 10
7.678244041436473
 20
-29.37684731572192
 30
0.0
  0
VERTEX
  5
1F9
  8
LAYER_1
 10
7.620513355278104
 20
-30.17857508125625
 30
0.0
  0
VERTEX
  5
1FA
  8
LAYER_1
 10
7.538158098714874
 20
-31.11038100217175
 30
0.0
  0
VERTEX
  5
1FB
  8
LAYER_1
 10
7.429799128554151
 20
-32.21249829977751
 30
0.0
  0
VERTEX
  5
1FC
  8
LAYER_1
 10
7.346095218437711
 20
-33.03749833256006
 30
0.0
  0
VERTEX
  5
1FD
  8
LAYER_1
 10
7.240788359606583
 20
-34.42499838769436
 30
0.0
  0
VERTEX
  5
1FE
  8
LAYER_1
 10
7.190408970386266
 20
-34.99023889310544
 30
0.0
  0
VERTEX
  5
1FF
  8
LAYER_1
 10
7.127351178886544
 20
-35.51850764431589
 30
0.0
  0
VERTEX
  5
200
  8
LAYER_1
 10
7.050403755782822
 20
-36.01537593700112
 30
0.0
  0
VERTEX
  5
201
  8
LAYER_1
 10
6.958355471750506
 20
-36.48641506683656
 30
0.0
  0
VERTEX
  5
202
  8
LAYER_1
 10
6.849995097465001
 20
-36.9371963294976
 30
0.0
  0
VERTEX
  5
203
  8
LAYER_1
 10
6.724111403601714
 20
-37.37329102065966
 30
0.0
  0
VERTEX
  5
204
  8
LAYER_1
 10
6.579493160836048
 20
-37.80027043599816
 30
0.0
  0
VERTEX
  5
205
  8
LAYER_1
 10
6.414929139843409
 20
-38.2237058711885
 30
0.0
  0
VERTEX
  5
206
  8
LAYER_1
 10
5.842502209364298
 20
-39.6374985948205
 30
0.0
  0
VERTEX
  5
207
  8
LAYER_1
 10
5.544263459817103
 20
-40.38749862462282
 30
0.0
  0
VERTEX
  5
208
  8
LAYER_1
 10
5.414145732228988
 20
-40.62531750630643
 30
0.0
  0
VERTEX
  5
209
  8
LAYER_1
 10
5.180244063967436
 20
-41.46802060123079
 30
0.0
  0
VERTEX
  5
20A
  8
LAYER_1
 10
4.991749645419953
 20
-42.18287859106906
 30
0.0
  0
VERTEX
  5
20B
  8
LAYER_1
 10
4.92186496347907
 20
-42.48844989775901
 30
0.0
  0
VERTEX
  5
20C
  8
LAYER_1
 10
4.869070361939007
 20
-42.76448563612496
 30
0.0
  0
VERTEX
  5
20D
  8
LAYER_1
 10
4.834002137433949
 20
-43.01476297403849
 30
0.0
  0
VERTEX
  5
20E
  8
LAYER_1
 10
4.817296586598085
 20
-43.24305907937118
 30
0.0
  0
VERTEX
  5
20F
  8
LAYER_1
 10
4.819590006065598
 20
-43.45315111999462
 30
0.0
  0
VERTEX
  5
210
  8
LAYER_1
 10
4.841518692470673
 20
-43.6488162637804
 30
0.0
  0
VERTEX
  5
211
  8
LAYER_1
 10
4.8837189424475
 20
-43.83383167860009
 30
0.0
  0
VERTEX
  5
212
  8
LAYER_1
 10
4.946827052630262
 20
-44.0119745323253
 30
0.0
  0
VERTEX
  5
213
  8
LAYER_1
 10
5.031479319653145
 20
-44.18702199282758
 30
0.0
  0
VERTEX
  5
214
  8
LAYER_1
 10
5.138312040150337
 20
-44.36275122797855
 30
0.0
  0
VERTEX
  5
215
  8
LAYER_1
 10
5.267961510756022
 20
-44.54293940564978
 30
0.0
  0
VERTEX
  5
216
  8
LAYER_1
 10
5.421064028104387
 20
-44.73136369371284
 30
0.0
  0
VERTEX
  5
217
  8
LAYER_1
 10
5.800173389565899
 20
-45.14802927250085
 30
0.0
  0
VERTEX
  5
218
  8
LAYER_1
 10
6.301681186487414
 20
-45.67499883472919
 30
0.0
  0
VERTEX
  5
219
  8
LAYER_1
 10
6.448203432498602
 20
-45.67499883472919
 30
0.0
  0
VERTEX
  5
21A
  8
LAYER_1
 10
6.510413106332006
 20
-45.66464238900517
 30
0.0
  0
VERTEX
  5
21B
  8
LAYER_1
 10
6.571481850009015
 20
-45.63644414569717
 30
0.0
  0
VERTEX
  5
21C
  8
LAYER_1
 10
6.624390526233633
 20
-45.59471074560133
 30
0.0
  0
VERTEX
  5
21D
  8
LAYER_1
 10
6.662119997709866
 20
-45.54374882951379
 30
0.0
  0
VERTEX
  5
21E
  8
LAYER_1
 10
6.72951431690997
 20
-45.41249882429838
 30
0.0
  0
VERTEX
  5
21F
  8
LAYER_1
 10
6.827965038691588
 20
-42.7953912612825
 30
0.0
  0
VERTEX
  5
220
  8
LAYER_1
 10
6.922425523053036
 20
-42.2046678440225
 30
0.0
  0
VERTEX
  5
221
  8
LAYER_1
 10
9.337503351271152
 20
-42.28584852380815
 30
0.0
  0
VERTEX
  5
222
  8
LAYER_1
 10
9.824619373247799
 20
-42.46453861634491
 30
0.0
  0
SEQEND
  5
E65
  8
LAYER_1
  0
POLYLINE
  5
71
  8
LAYER_1
 66
     1
 10
0.0
 20
0.0
 30
0.0
 70
     1
  0
VERTEX
  5
223
  8
LAYER_1
 10
-53.73749915510416
 20
-69.66720540646882
 30
0.0
  0
VERTEX
  5
224
  8
LAYER_1
 10
-53.43055578353233
 20
-69.69249590531476
 30
0.0
  0
VERTEX
  5
225
  8
LAYER_1
 10
-53.03835850232281
 20
-69.71465519628364
 30
0.0
  0
VERTEX
  5
226
  8
LAYER_1
 10
-52.61135653223027
 20
-69.73129395657084
 30
0.0
  0
VERTEX
  5
227
  8
LAYER_1
 10
-52.1999990940094
 20
-69.74002286337172
 30
0.0
  0
VERTEX
  5
228
  8
LAYER_1
 10
-51.75017485738499
 20
-69.73497168624114
 30
0.0
  0
VERTEX
  5
229
  8
LAYER_1
 10
-51.21843655500561
 20
-69.71409041602185
 30
0.0
  0
VERTEX
  5
22A
  8
LAYER_1
 10
-50.67122950201156
 20
-69.68072006184114
 30
0.0
  0
VERTEX
  5
22B
  8
LAYER_1
 10
-50.17499901354313
 20
-69.63820163282628
 30
0.0
  0
VERTEX
  5
22C
  8
LAYER_1
 10
-49.08749897032976
 20
-69.52673788319512
 30
0.0
  0
VERTEX
  5
22D
  8
LAYER_1
 10
-48.59999895095825
 20
-69.44810545465116
 30
0.0
  0
VERTEX
  5
22E
  8
LAYER_1
 10
-47.86832139312816
 20
-69.31676210463607
 30
0.0
  0
VERTEX
  5
22F
  8
LAYER_1
 10
-47.06361726126281
 20
-69.14980669604338
 30
0.0
  0
VERTEX
  5
230
  8
LAYER_1
 10
-46.25835394369781
 20
-68.9631556597123
 30
0.0
  0
VERTEX
  5
231
  8
LAYER_1
 10
-45.52499882876873
 20
-68.77272542648205
 30
0.0
  0
VERTEX
  5
232
  8
LAYER_1
 10
-44.69999879598618
 20
-68.54356638831555
 30
0.0
  0
VERTEX
  5
233
  8
LAYER_1
 10
-43.49999874830246
 20
-68.19935440550611
 30
0.0
  0
VERTEX
  5
234
  8
LAYER_1
 10
-42.81096300091527
 20
-68.00259194409169
 30
0.0
  0
VERTEX
  5
235
  8
LAYER_1
 10
-42.04955794170586
 20
-67.79348306264511
 30
0.0
  0
VERTEX
  5
236
  8
LAYER_1
 10
-41.23661716044125
 20
-67.57558203359989
 30
0.0
  0
VERTEX
  5
237
  8
LAYER_1
 10
-41.17632169029314
 20
-67.5383173836807
 30
0.0
  0
VERTEX
  5
238
  8
LAYER_1
 10
-40.99368864759555
 20
-67.48120910087945
 30
0.0
  0
VERTEX
  5
239
  8
LAYER_1
 10
-40.63926241791359
 20
-67.39623529105234
 30
0.0
  0
VERTEX
  5
23A
  8
LAYER_1
 10
-40.16249861568213
 20
-67.29141784834316
 30
0.0
  0
VERTEX
  5
23B
  8
LAYER_1
 10
-39.11249857395887
 20
-67.06476056874757
 30
0.0
  0
VERTEX
  5
23C
  8
LAYER_1
 10
-38.61624811873072
 20
-66.96258713908199
 30
0.0
  0
VERTEX
  5
23D
  8
LAYER_1
 10
-38.1271596783474
 20
-66.87200948960212
 30
0.0
  0
VERTEX
  5
23E
  8
LAYER_1
 10
-37.64256748620984
 20
-66.7926791789947
 30
0.0
  0
VERTEX
  5
23F
  8
LAYER_1
 10
-37.15980577571899
 20
-66.72424776594646
 30
0.0
  0
VERTEX
  5
240
  8
LAYER_1
 10
-36.67620878027581
 20
-66.66636680914411
 30
0.0
  0
VERTEX
  5
241
  8
LAYER_1
 10
-36.18911073328125
 20
-66.61868786727433
 30
0.0
  0
VERTEX
  5
242
  8
LAYER_1
 10
-35.69584586813625
 20
-66.58086249902388
 30
0.0
  0
VERTEX
  5
243
  8
LAYER_1
 10
-35.19374841824174
 20
-66.55254226307949
 30
0.0
  0
VERTEX
  5
244
  8
LAYER_1
 10
-34.12499837577343
 20
-66.50265664222209
 30
0.0
  0
VERTEX
  5
245
  8
LAYER_1
 10
-34.12499837577343
 20
3.052992699537157
 30
0.0
  0
VERTEX
  5
246
  8
LAYER_1
 10
-34.6988142232759
 20
3.101497902469575
 30
0.0
  0
VERTEX
  5
247
  8
LAYER_1
 10
-35.22742733447028
 20
3.13579879844286
 30
0.0
  0
VERTEX
  5
248
  8
LAYER_1
 10
-35.69256426276397
 20
3.150153220813962
 30
0.0
  0
VERTEX
  5
249
  8
LAYER_1
 10
-36.11249845474958
 20
3.15030333622596
 30
0.0
  0
VERTEX
  5
24A
  8
LAYER_1
 10
-38.66249855607748
 20
3.521448425882198
 30
0.0
  0
VERTEX
  5
24B
  8
LAYER_1
 10
-39.26249857991934
 20
3.669941712086199
 30
0.0
  0
VERTEX
  5
24C
  8
LAYER_1
 10
-40.12499861419201
 20
3.868281093164569
 30
0.0
  0
VERTEX
  5
24D
  8
LAYER_1
 10
-40.86632676864974
 20
4.048439353801884
 30
0.0
  0
VERTEX
  5
24E
  8
LAYER_1
 10
-41.43749866634607
 20
4.203066679351807
 30
0.0
  0
VERTEX
  5
24F
  8
LAYER_1
 10
-41.83203037277814
 20
4.314862714009326
 30
0.0
  0
VERTEX
  5
250
  8
LAYER_1
 10
-42.14867040781326
 20
4.392043615692529
 30
0.0
  0
VERTEX
  5
251
  8
LAYER_1
 10
-42.45468500167139
 20
4.467701188788357
 30
0.0
  0
VERTEX
  5
252
  8
LAYER_1
 10
-42.82367043463535
 20
4.575834752586843
 30
0.0
  0
VERTEX
  5
253
  8
LAYER_1
 10
-43.7187913797661
 20
4.84446992021163
 30
0.0
  0
VERTEX
  5
254
  8
LAYER_1
 10
-45.26249881833792
 20
5.286851856859855
 30
0.0
  0
VERTEX
  5
255
  8
LAYER_1
 10
-45.96714660369421
 20
5.47409380954534
 30
0.0
  0
VERTEX
  5
256
  8
LAYER_1
 10
-46.74765319862423
 20
5.661068230937413
 30
0.0
  0
VERTEX
  5
257
  8
LAYER_1
 10
-47.51683263246836
 20
5.827871446300999
 30
0.0
  0
VERTEX
  5
258
  8
LAYER_1
 10
-48.18749893456697
 20
5.95459978090102
 30
0.0
  0
VERTEX
  5
259
  8
LAYER_1
 10
-49.38749898225069
 20
6.165439903314081
 30
0.0
  0
VERTEX
  5
25A
  8
LAYER_1
 10
-49.91249900311232
 20
6.262262491396925
 30
0.0
  0
VERTEX
  5
25B
  8
LAYER_1
 10
-53.88749916106462
 20
6.262503229081631
 30
0.0
  0
VERTEX
  5
25C
  8
LAYER_1
 10
-54.56249918788671
 20
6.162967639148462
 30
0.0
  0
VERTEX
  5
25D
  8
LAYER_1
 10
-55.23307679067543
 20
6.058998624810707
 30
0.0
  0
VERTEX
  5
25E
  8
LAYER_1
 10
-55.87501690722699
 20
5.95052029189112
 30
0.0
  0
VERTEX
  5
25F
  8
LAYER_1
 10
-56.41382318608763
 20
5.850676239786448
 30
0.0
  0
VERTEX
  5
260
  8
LAYER_1
 10
-56.77499927580357
 20
5.772610067893439
 30
0.0
  0
VERTEX
  5
261
  8
LAYER_1
 10
-57.03749928623438
 20
5.706015983253153
 30
0.0
  0
VERTEX
  5
262
  8
LAYER_1
 10
-58.12499932944775
 20
5.433308865270945
 30
0.0
  0
VERTEX
  5
263
  8
LAYER_1
 10
-59.11335874372162
 20
5.17468094743178
 30
0.0
  0
VERTEX
  5
264
  8
LAYER_1
 10
-59.96249940246344
 20
4.935823821282824
 30
0.0
  0
VERTEX
  5
265
  8
LAYER_1
 10
-61.17775823982157
 20
4.578060064277997
 30
0.0
  0
VERTEX
  5
266
  8
LAYER_1
 10
-62.36249949783087
 20
4.246013724673844
 30
0.0
  0
VERTEX
  5
267
  8
LAYER_1
 10
-63.2756363178726
 20
4.008254023830085
 30
0.0
  0
VERTEX
  5
268
  8
LAYER_1
 10
-64.83749959617853
 20
3.636691121328042
 30
0.0
  0
VERTEX
  5
269
  8
LAYER_1
 10
-65.39765586843714
 20
3.52800960428614
 30
0.0
  0
VERTEX
  5
26A
  8
LAYER_1
 10
-66.11249964684248
 20
3.414876685003804
 30
0.0
  0
VERTEX
  5
26B
  8
LAYER_1
 10
-67.43944684438624
 20
3.22428846658218
 30
0.0
  0
VERTEX
  5
26C
  8
LAYER_1
 10
-67.91305884943638
 20
3.171824430248671
 30
0.0
  0
VERTEX
  5
26D
  8
LAYER_1
 10
-68.14983126996283
 20
3.155864684682617
 30
0.0
  0
VERTEX
  5
26E
  8
LAYER_1
 10
-68.34688105574335
 20
3.150003105401993
 30
0.0
  0
VERTEX
  5
26F
  8
LAYER_1
 10
-68.8018382276983
 20
3.135752712174018
 30
0.0
  0
VERTEX
  5
270
  8
LAYER_1
 10
-69.32626408632761
 20
3.101491128455692
 30
0.0
  0
VERTEX
  5
271
  8
LAYER_1
 10
-69.90016007031593
 20
3.052979151509405
 30
0.0
  0
VERTEX
  5
272
  8
LAYER_1
 10
-69.86249979585409
 20
-66.48708069925728
 30
0.0
  0
VERTEX
  5
273
  8
LAYER_1
 10
-67.0874996855855
 20
-66.66386960632326
 30
0.0
  0
VERTEX
  5
274
  8
LAYER_1
 10
-66.56249966472387
 20
-66.74947491142473
 30
0.0
  0
VERTEX
  5
275
  8
LAYER_1
 10
-65.78586609707867
 20
-66.88066427364751
 30
0.0
  0
VERTEX
  5
276
  8
LAYER_1
 10
-65.10876565254418
 20
-67.00594497947705
 30
0.0
  0
VERTEX
  5
277
  8
LAYER_1
 10
-64.47415718690492
 20
-67.1364397129214
 30
0.0
  0
VERTEX
  5
278
  8
LAYER_1
 10
-63.8249995559454
 20
-67.28327115798861
 30
0.0
  0
VERTEX
  5
279
  8
LAYER_1
 10
-62.88749951869249
 20
-67.50355253321314
 30
0.0
  0
VERTEX
  5
27A
  8
LAYER_1
 10
-62.13749948889017
 20
-67.72682542712775
 30
0.0
  0
VERTEX
  5
27B
  8
LAYER_1
 10
-60.93749944120646
 20
-68.0701549010659
 30
0.0
  0
VERTEX
  5
27C
  8
LAYER_1
 10
-59.66507804738983
 20
-68.42921451681369
 30
0.0
  0
VERTEX
  5
27D
  8
LAYER_1
 10
-58.55886842490195
 20
-68.72945754033722
 30
0.0
  0
VERTEX
  5
27E
  8
LAYER_1
 10
-57.58896773922899
 20
-68.9775167959526
 30
0.0
  0
VERTEX
  5
27F
  8
LAYER_1
 10
-56.72547315585713
 20
-69.18002510797585
 30
0.0
  0
VERTEX
  5
280
  8
LAYER_1
 10
-55.93848184027254
 20
-69.34361530072303
 30
0.0
  0
VERTEX
  5
281
  8
LAYER_1
 10
-55.1980909579614
 20
-69.47492019851023
 30
0.0
  0
VERTEX
  5
282
  8
LAYER_1
 10
-54.47439767440988
 20
-69.58057262565347
 30
0.0
  0
SEQEND
  5
E66
  8
LAYER_1
  0
POLYLINE
  5
72
  8
LAYER_1
 66
     1
 10
0.0
 20
0.0
 30
0.0
 70
     1
  0
VERTEX
  5
283
  8
LAYER_1
 10
37.67261675792294
 20
-69.15383959933499
 30
0.0
  0
VERTEX
  5
284
  8
LAYER_1
 10
37.98750448971987
 20
-69.29688724769255
 30
0.0
  0
VERTEX
  5
285
  8
LAYER_1
 10
39.15000453591347
 20
-69.25560541966018
 30
0.0
  0
VERTEX
  5
286
  8
LAYER_1
 10
40.24979058680381
 20
-69.20765316746986
 30
0.0
  0
VERTEX
  5
287
  8
LAYER_1
 10
41.26151017620447
 20
-69.15033393667474
 30
0.0
  0
VERTEX
  5
288
  8
LAYER_1
 10
42.21051577030187
 20
-69.08634428172167
 30
0.0
  0
VERTEX
  5
289
  8
LAYER_1
 10
42.42401022239807
 20
-68.9757931614967
 30
0.0
  0
VERTEX
  5
28A
  8
LAYER_1
 10
42.51065256992138
 20
-68.92406297314051
 30
0.0
  0
VERTEX
  5
28B
  8
LAYER_1
 10
42.60403504545447
 20
-68.85511948111356
 30
0.0
  0
VERTEX
  5
28C
  8
LAYER_1
 10
42.70413531355158
 20
-68.76898537422312
 30
0.0
  0
VERTEX
  5
28D
  8
LAYER_1
 10
42.81093103876695
 20
-68.66568334127649
 30
0.0
  0
VERTEX
  5
28E
  8
LAYER_1
 10
43.04451951876931
 20
-68.40766625244376
 30
0.0
  0
VERTEX
  5
28F
  8
LAYER_1
 10
43.30462180189538
 20
-68.08124972507358
 30
0.0
  0
VERTEX
  5
290
  8
LAYER_1
 10
43.42585831490473
 20
-67.93515356454161
 30
0.0
  0
VERTEX
  5
291
  8
LAYER_1
 10
43.47940425076924
 20
-67.8858533321773
 30
0.0
  0
VERTEX
  5
292
  8
LAYER_1
 10
43.5328932033174
 20
-67.84982396723166
 30
0.0
  0
VERTEX
  5
293
  8
LAYER_1
 10
43.58981859538206
 20
-67.82514469631772
 30
0.0
  0
VERTEX
  5
294
  8
LAYER_1
 10
43.65367384979604
 20
-67.80989474604868
 30
0.0
  0
VERTEX
  5
295
  8
LAYER_1
 10
43.81614763700327
 20
-67.7999997138977
 30
0.0
  0
VERTEX
  5
296
  8
LAYER_1
 10
43.90053302117671
 20
-67.80288991981097
 30
0.0
  0
VERTEX
  5
297
  8
LAYER_1
 10
43.97723119906136
 20
-67.81242015212865
 30
0.0
  0
VERTEX
  5
298
  8
LAYER_1
 10
44.04907857830446
 20
-67.82987983271767
 30
0.0
  0
VERTEX
  5
299
  8
LAYER_1
 10
44.11891156655325
 20
-67.85655838344488
 30
0.0
  0
VERTEX
  5
29A
  8
LAYER_1
 10
44.18956657145501
 20
-67.89374522617719
 30
0.0
  0
VERTEX
  5
29B
  8
LAYER_1
 10
44.26388000065698
 20
-67.94272978278148
 30
0.0
  0
VERTEX
  5
29C
  8
LAYER_1
 10
44.43482776255055
 20
-68.08124972507358
 30
0.0
  0
VERTEX
  5
29D
  8
LAYER_1
 10
44.58578549903167
 20
-68.20021634301018
 30
0.0
  0
VERTEX
  5
29E
  8
LAYER_1
 10
44.76000285439393
 20
-68.31622615462553
 30
0.0
  0
VERTEX
  5
29F
  8
LAYER_1
 10
44.93591745040057
 20
-68.415990985458
 30
0.0
  0
VERTEX
  5
2A0
  8
LAYER_1
 10
45.09196690881478
 20
-68.48622266104601
 30
0.0
  0
VERTEX
  5
2A1
  8
LAYER_1
 10
45.24959504059716
 20
-68.53288736993024
 30
0.0
  0
VERTEX
  5
2A2
  8
LAYER_1
 10
45.33369890881437
 20
-68.54739355154042
 30
0.0
  0
VERTEX
  5
2A3
  8
LAYER_1
 10
45.42518107296907
 20
-68.55535108736906
 30
0.0
  0
VERTEX
  5
2A4
  8
LAYER_1
 10
45.64183557225125
 20
-68.54962663000094
 30
0.0
  0
VERTEX
  5
2A5
  8
LAYER_1
 10
45.92266910476441
 20
-68.51172681446437
 30
0.0
  0
VERTEX
  5
2A6
  8
LAYER_1
 10
46.29079223682928
 20
-68.4376644573978
 30
0.0
  0
VERTEX
  5
2A7
  8
LAYER_1
 10
46.76931553476658
 20
-68.32345237543976
 30
0.0
  0
VERTEX
  5
2A8
  8
LAYER_1
 10
48.15000489354134
 20
-67.958630303403
 30
0.0
  0
VERTEX
  5
2A9
  8
LAYER_1
 10
48.60041014786422
 20
-67.83136299751126
 30
0.0
  0
VERTEX
  5
2AA
  8
LAYER_1
 10
49.06659072914169
 20
-67.68952766510338
 30
0.0
  0
VERTEX
  5
2AB
  8
LAYER_1
 10
49.55104869498474
 20
-67.53224220846073
 30
0.0
  0
VERTEX
  5
2AC
  8
LAYER_1
 10
50.05628610300442
 20
-67.35862452986466
 30
0.0
  0
VERTEX
  5
2AD
  8
LAYER_1
 10
50.58480501081175
 20
-67.1677925315965
 30
0.0
  0
VERTEX
  5
2AE
  8
LAYER_1
 10
51.13910747601774
 20
-66.9588641159376
 30
0.0
  0
VERTEX
  5
2AF
  8
LAYER_1
 10
52.33507130906986
 20
-66.48318964157296
 30
0.0
  0
VERTEX
  5
2B0
  8
LAYER_1
 10
52.95763758303737
 20
-66.22808143869193
 30
0.0
  0
VERTEX
  5
2B1
  8
LAYER_1
 10
53.05113740500315
 20
-66.13279054127709
 30
0.0
  0
VERTEX
  5
2B2
  8
LAYER_1
 10
53.12673639069112
 20
-66.04649166329253
 30
0.0
  0
VERTEX
  5
2B3
  8
LAYER_1
 10
53.21590009499629
 20
-65.92965740495731
 30
0.0
  0
VERTEX
  5
2B4
  8
LAYER_1
 10
53.41537956133425
 20
-65.63505497698218
 30
0.0
  0
VERTEX
  5
2B5
  8
LAYER_1
 10
53.6104916077691
 20
-65.31032771684647
 30
0.0
  0
VERTEX
  5
2B6
  8
LAYER_1
 10
53.76215203805293
 20
-65.01682008404502
 30
0.0
  0
VERTEX
  5
2B7
  8
LAYER_1
 10
53.8197230198849
 20
-64.89109199282075
 30
0.0
  0
VERTEX
  5
2B8
  8
LAYER_1
 10
53.87504593060477
 20
-64.79496814862281
 30
0.0
  0
VERTEX
  5
2B9
  8
LAYER_1
 10
53.90787848470839
 20
-64.75533207659213
 30
0.0
  0
VERTEX
  5
2BA
  8
LAYER_1
 10
53.94736597152687
 20
-64.71988617523814
 30
0.0
  0
VERTEX
  5
2BB
  8
LAYER_1
 10
53.99591404122449
 20
-64.6875601475342
 30
0.0
  0
VERTEX
  5
2BC
  8
LAYER_1
 10
54.05592834396556
 20
-64.65728369645367
 30
0.0
  0
VERTEX
  5
2BD
  8
LAYER_1
 10
54.2199782492352
 20
-64.59859833605638
 30
0.0
  0
VERTEX
  5
2BE
  8
LAYER_1
 10
54.45876088865013
 20
-64.5352677178332
 30
0.0
  0
VERTEX
  5
2BF
  8
LAYER_1
 10
55.23750517517328
 20
-64.36042120305694
 30
0.0
  0
VERTEX
  5
2C0
  8
LAYER_1
 10
55.91250520199537
 20
-64.21183484575543
 30
0.0
  0
VERTEX
  5
2C1
  8
LAYER_1
 10
57.22500525414944
 20
-63.93954201878866
 30
0.0
  0
VERTEX
  5
2C2
  8
LAYER_1
 10
58.44534337185748
 20
-63.67934442257173
 30
0.0
  0
VERTEX
  5
2C3
  8
LAYER_1
 10
59.53626260289661
 20
-63.43613161847161
 30
0.0
  0
VERTEX
  5
2C4
  8
LAYER_1
 10
60.53501989948973
 20
-63.20501404512133
 30
0.0
  0
VERTEX
  5
2C5
  8
LAYER_1
 10
60.59492657150952
 20
-63.27125679084761
 30
0.0
  0
VERTEX
  5
2C6
  8
LAYER_1
 10
60.70765728530233
 20
-63.44856477353533
 30
0.0
  0
VERTEX
  5
2C7
  8
LAYER_1
 10
60.89456644073394
 20
-63.78183670599869
 30
0.0
  0
VERTEX
  5
2C8
  8
LAYER_1
 10
61.05137077666573
 20
-64.06293764679229
 30
0.0
  0
VERTEX
  5
2C9
  8
LAYER_1
 10
61.20127401214146
 20
-64.31196738386572
 30
0.0
  0
VERTEX
  5
2CA
  8
LAYER_1
 10
61.34484284587497
 20
-64.52964727196891
 30
0.0
  0
VERTEX
  5
2CB
  8
LAYER_1
 10
61.48264397658012
 20
-64.71669866585187
 30
0.0
  0
VERTEX
  5
2CC
  8
LAYER_1
 10
61.61524410297076
 20
-64.87384292026452
 30
0.0
  0
VERTEX
  5
2CD
  8
LAYER_1
 10
61.74320992376076
 20
-65.00180138995685
 30
0.0
  0
VERTEX
  5
2CE
  8
LAYER_1
 10
61.86710813766395
 20
-65.10129542967884
 30
0.0
  0
VERTEX
  5
2CF
  8
LAYER_1
 10
61.98750544339418
 20
-65.17304639418045
 30
0.0
  0
VERTEX
  5
2D0
  8
LAYER_1
 10
62.16777102935764
 20
-65.25159818671736
 30
0.0
  0
VERTEX
  5
2D1
  8
LAYER_1
 10
62.24749571697505
 20
-65.27283711814435
 30
0.0
  0
VERTEX
  5
2D2
  8
LAYER_1
 10
62.33179724694086
 20
-65.28258334976616
 30
0.0
  0
VERTEX
  5
2D3
  8
LAYER_1
 10
62.4293123036985
 20
-65.28123583914962
 30
0.0
  0
VERTEX
  5
2D4
  8
LAYER_1
 10
62.54867757169144
 20
-65.2691935438616
 30
0.0
  0
VERTEX
  5
2D5
  8
LAYER_1
 10
62.88750547915697
 20
-65.21462042953847
 30
0.0
  0
VERTEX
  5
2D6
  8
LAYER_1
 10
63.49864045946618
 20
-65.10134676010941
 30
0.0
  0
VERTEX
  5
2D7
  8
LAYER_1
 10
63.933528103778
 20
-65.00440539480132
 30
0.0
  0
VERTEX
  5
2D8
  8
LAYER_1
 10
64.09769815110943
 20
-64.95877753390383
 30
0.0
  0
VERTEX
  5
2D9
  8
LAYER_1
 10
64.23318913585094
 20
-64.91329459829001
 30
0.0
  0
VERTEX
  5
2DA
  8
LAYER_1
 10
64.34512864847237
 20
-64.86664387104429
 30
0.0
  0
VERTEX
  5
2DB
  8
LAYER_1
 10
64.43864427944351
 20
-64.81751263525115
 30
0.0
  0
VERTEX
  5
2DC
  8
LAYER_1
 10
64.52531344477319
 20
-64.75679866756565
 30
0.0
  0
VERTEX
  5
2DD
  8
LAYER_1
 10
64.61411780310411
 20
-64.67671114377302
 30
0.0
  0
VERTEX
  5
2DE
  8
LAYER_1
 10
64.703271227924
 20
-64.5796884513513
 30
0.0
  0
VERTEX
  5
2DF
  8
LAYER_1
 10
64.79098759272065
 20
-64.4681689777785
 30
0.0
  0
VERTEX
  5
2E0
  8
LAYER_1
 10
64.87548077098185
 20
-64.34459111053269
 30
0.0
  0
VERTEX
  5
2E1
  8
LAYER_1
 10
64.95496463619534
 20
-64.21139323709187
 30
0.0
  0
VERTEX
  5
2E2
  8
LAYER_1
 10
65.02765306184895
 20
-64.07101374493408
 30
0.0
  0
VERTEX
  5
2E3
  8
LAYER_1
 10
65.09175992143037
 20
-63.92589102153737
 30
0.0
  0
VERTEX
  5
2E4
  8
LAYER_1
 10
65.11980495568815
 20
-63.86900493308499
 30
0.0
  0
VERTEX
  5
2E5
  8
LAYER_1
 10
65.15561075292698
 20
-63.81665188694607
 30
0.0
  0
VERTEX
  5
2E6
  8
LAYER_1
 10
65.19822784191948
 20
-63.76908384328545
 30
0.0
  0
VERTEX
  5
2E7
  8
LAYER_1
 10
65.24670675143832
 20
-63.72655276226799
 30
0.0
  0
VERTEX
  5
2E8
  8
LAYER_1
 10
65.35745214714555
 20
-63.65760932882188
 30
0.0
  0
VERTEX
  5
2E9
  8
LAYER_1
 10
65.48025117022974
 20
-63.61183726792652
 30
0.0
  0
VERTEX
  5
2EA
  8
LAYER_1
 10
65.60750805087204
 20
-63.59125226090065
 30
0.0
  0
VERTEX
  5
2EB
  8
LAYER_1
 10
65.73162701925358
 20
-63.597869989063
 30
0.0
  0
VERTEX
  5
2EC
  8
LAYER_1
 10
65.79013610827815
 20
-63.61200977925188
 30
0.0
  0
VERTEX
  5
2ED
  8
LAYER_1
 10
65.84501230555546
 20
-63.63370613373235
 30
0.0
  0
VERTEX
  5
2EE
  8
LAYER_1
 10
65.89530613985814
 20
-63.66321101266927
 30
0.0
  0
VERTEX
  5
2EF
  8
LAYER_1
 10
65.94006813995881
 20
-63.70077637622745
 30
0.0
  0
VERTEX
  5
2F0
  8
LAYER_1
 10
66.10989193532397
 20
-63.83450702660019
 30
0.0
  0
VERTEX
  5
2F1
  8
LAYER_1
 10
66.37667530016535
 20
-64.01451325560907
 30
0.0
  0
VERTEX
  5
2F2
  8
LAYER_1
 10
66.48593518830738
 20
-64.07893523145799
 30
0.0
  0
VERTEX
  5
2F3
  8
LAYER_1
 10
66.5947750208289
 20
-64.13204858849258
 30
0.0
  0
VERTEX
  5
2F4
  8
LAYER_1
 10
66.70558422434145
 20
-64.17339411438616
 30
0.0
  0
VERTEX
  5
2F5
  8
LAYER_1
 10
66.82075222545654
 20
-64.20251259681213
 30
0.0
  0
VERTEX
  5
2F6
  8
LAYER_1
 10
66.94266845078573
 20
-64.21894482344386
 30
0.0
  0
VERTEX
  5
2F7
  8
LAYER_1
 10
67.07372232694057
 20
-64.22223158195473
 30
0.0
  0
VERTEX
  5
2F8
  8
LAYER_1
 10
67.21630328053257
 20
-64.2119136600181
 30
0.0
  0
VERTEX
  5
2F9
  8
LAYER_1
 10
67.37280073817328
 20
-64.18753184530738
 30
0.0
  0
VERTEX
  5
2FA
  8
LAYER_1
 10
67.54560412647425
 20
-64.14862692549589
 30
0.0
  0
VERTEX
  5
2FB
  8
LAYER_1
 10
67.73710287204699
 20
-64.09473968825705
 30
0.0
  0
VERTEX
  5
2FC
  8
LAYER_1
 10
68.185744141454
 20
-63.94018141219075
 30
0.0
  0
VERTEX
  5
2FD
  8
LAYER_1
 10
68.73783995928662
 20
-63.72018331849547
 30
0.0
  0
VERTEX
  5
2FE
  8
LAYER_1
 10
69.41250573843718
 20
-63.43107170855819
 30
0.0
  0
VERTEX
  5
2FF
  8
LAYER_1
 10
70.26369345876972
 20
-63.04796483439794
 30
0.0
  0
VERTEX
  5
300
  8
LAYER_1
 10
70.57877101969034
 20
-62.89481402015768
 30
0.0
  0
VERTEX
  5
301
  8
LAYER_1
 10
70.83489496871073
 20
-62.75900560330187
 30
0.0
  0
VERTEX
  5
302
  8
LAYER_1
 10
71.04310824652855
 20
-62.63434507044893
 30
0.0
  0
VERTEX
  5
303
  8
LAYER_1
 10
71.21445379384147
 20
-62.5146379082173
 30
0.0
  0
VERTEX
  5
304
  8
LAYER_1
 10
71.35997455134715
 20
-62.39368960322538
 30
0.0
  0
VERTEX
  5
305
  8
LAYER_1
 10
71.49071345974323
 20
-62.2653056420916
 30
0.0
  0
VERTEX
  5
306
  8
LAYER_1
 10
71.69231438539268
 20
-62.04363460501606
 30
0.0
  0
VERTEX
  5
307
  8
LAYER_1
 10
71.85000822996415
 20
-61.84433491518778
 30
0.0
  0
VERTEX
  5
308
  8
LAYER_1
 10
71.91396876709376
 20
-61.74835142545634
 30
0.0
  0
VERTEX
  5
309
  8
LAYER_1
 10
71.96884705825161
 20
-61.65229329249469
 30
0.0
  0
VERTEX
  5
30A
  8
LAYER_1
 10
72.01527461153695
 20
-61.55427135628881
 30
0.0
  0
VERTEX
  5
30B
  8
LAYER_1
 10
72.053882935049
 20
-61.4523964568247
 30
0.0
  0
VERTEX
  5
30C
  8
LAYER_1
 10
72.08530353688701
 20
-61.34477943408835
 30
0.0
  0
VERTEX
  5
30D
  8
LAYER_1
 10
72.11016792515025
 20
-61.22953112806575
 30
0.0
  0
VERTEX
  5
30E
  8
LAYER_1
 10
72.14275409334928
 20
-60.96858402610576
 30
0.0
  0
VERTEX
  5
30F
  8
LAYER_1
 10
72.15669350444006
 20
-60.65444187083265
 30
0.0
  0
VERTEX
  5
310
  8
LAYER_1
 10
72.15703822321652
 20
-60.27199138213435
 30
0.0
  0
VERTEX
  5
311
  8
LAYER_1
 10
72.14710434208132
 20
-59.84026392138388
 30
0.0
  0
VERTEX
  5
312
  8
LAYER_1
 10
72.12819648354892
 20
-59.38449671557817
 30
0.0
  0
VERTEX
  5
313
  8
LAYER_1
 10
72.1030289669113
 20
-58.95896340363988
 30
0.0
  0
VERTEX
  5
314
  8
LAYER_1
 10
72.07431611146043
 20
-58.61793762449166
 30
0.0
  0
VERTEX
  5
315
  8
LAYER_1
 10
72.04636955563258
 20
-58.28340716218342
 30
0.0
  0
VERTEX
  5
316
  8
LAYER_1
 10
72.0232884983645
 20
-57.87555911886888
 30
0.0
  0
VERTEX
  5
317
  8
LAYER_1
 10
72.00746859969898
 20
-57.44596611062631
 30
0.0
  0
VERTEX
  5
318
  8
LAYER_1
 10
72.00130551967888
 20
-57.04620075353403
 30
0.0
  0
VERTEX
  5
319
  8
LAYER_1
 10
72.00000584125519
 20
-56.1549021850709
 30
0.0
  0
VERTEX
  5
31A
  8
LAYER_1
 10
71.91002353474983
 20
-55.8545680133941
 30
0.0
  0
VERTEX
  5
31B
  8
LAYER_1
 10
71.86100331539159
 20
-55.73349355974204
 30
0.0
  0
VERTEX
  5
31C
  8
LAYER_1
 10
71.7876027917612
 20
-55.61278315497695
 30
0.0
  0
VERTEX
  5
31D
  8
LAYER_1
 10
71.69187183063131
 20
-55.49426465373978
 30
0.0
  0
VERTEX
  5
31E
  8
LAYER_1
 10
71.57586029877457
 20
-55.37976591067151
 30
0.0
  0
VERTEX
  5
31F
  8
LAYER_1
 10
71.44161806296361
 20
-55.27111478041311
 30
0.0
  0
VERTEX
  5
320
  8
LAYER_1
 10
71.2911949899711
 20
-55.17013911760556
 30
0.0
  0
VERTEX
  5
321
  8
LAYER_1
 10
71.12664094656967
 20
-55.07866677688982
 30
0.0
  0
VERTEX
  5
322
  8
LAYER_1
 10
70.95000579953194
 20
-54.99852561290686
 30
0.0
  0
VERTEX
  5
323
  8
LAYER_1
 10
70.68750578910112
 20
-54.89198324613436
 30
0.0
  0
VERTEX
  5
324
  8
LAYER_1
 10
70.67847825451668
 20
-50.21249901503325
 30
0.0
  0
VERTEX
  5
325
  8
LAYER_1
 10
70.47650790872851
 20
-49.27499897778034
 30
0.0
  0
VERTEX
  5
326
  8
LAYER_1
 10
70.3101353253955
 20
-48.48070207121782
 30
0.0
  0
VERTEX
  5
327
  8
LAYER_1
 10
70.19375108933994
 20
-47.88749892264605
 30
0.0
  0
VERTEX
  5
328
  8
LAYER_1
 10
70.04398518826423
 20
-47.0775573077448
 30
0.0
  0
VERTEX
  5
329
  8
LAYER_1
 10
69.97500576078892
 20
-46.71761571072495
 30
0.0
  0
VERTEX
  5
32A
  8
LAYER_1
 10
69.9747788349269
 20
-45.80255725708086
 30
0.0
  0
VERTEX
  5
32B
  8
LAYER_1
 10
69.96647113486743
 20
-45.42638069138162
 30
0.0
  0
VERTEX
  5
32C
  8
LAYER_1
 10
69.94237351599871
 20
-45.04244070875423
 30
0.0
  0
VERTEX
  5
32D
  8
LAYER_1
 10
69.90344873828403
 20
-44.65684574169441
 30
0.0
  0
VERTEX
  5
32E
  8
LAYER_1
 10
69.85065956168665
 20
-44.27570422269793
 30
0.0
  0
VERTEX
  5
32F
  8
LAYER_1
 10
69.78496874616988
 20
-43.90512458426054
 30
0.0
  0
VERTEX
  5
330
  8
LAYER_1
 10
69.70733905169698
 20
-43.55121525887799
 30
0.0
  0
VERTEX
  5
331
  8
LAYER_1
 10
69.61873323823121
 20
-43.22008467904602
 30
0.0
  0
VERTEX
  5
332
  8
LAYER_1
 10
69.52011406573587
 20
-42.91784127726039
 30
0.0
  0
VERTEX
  5
333
  8
LAYER_1
 10
69.39883792163184
 20
-42.56373277391089
 30
0.0
  0
VERTEX
  5
334
  8
LAYER_1
 10
69.26731680039435
 20
-42.13909886781672
 30
0.0
  0
VERTEX
  5
335
  8
LAYER_1
 10
69.11323840975562
 20
-41.6025005085004
 30
0.0
  0
VERTEX
  5
336
  8
LAYER_1
 10
68.92429045744782
 20
-40.91249864548445
 30
0.0
  0
VERTEX
  5
337
  8
LAYER_1
 10
68.75852793996526
 20
-40.35656112339348
 30
0.0
  0
VERTEX
  5
338
  8
LAYER_1
 10
68.58720915455984
 20
-39.8624986037612
 30
0.0
  0
VERTEX
  5
339
  8
LAYER_1
 10
68.51167819458007
 20
-39.65226422040723
 30
0.0
  0
VERTEX
  5
33A
  8
LAYER_1
 10
68.43559398310501
 20
-39.4124985858798
 30
0.0
  0
VERTEX
  5
33B
  8
LAYER_1
 10
68.36781606478479
 20
-39.17273295135237
 30
0.0
  0
VERTEX
  5
33C
  8
LAYER_1
 10
68.31720398426958
 20
-38.96249856799841
 30
0.0
  0
VERTEX
  5
33D
  8
LAYER_1
 10
68.2224743356328
 20
-38.51249855011702
 30
0.0
  0
VERTEX
  5
33E
  8
LAYER_1
 10
68.22816131632118
 20
-27.78749812394381
 30
0.0
  0
VERTEX
  5
33F
  8
LAYER_1
 10
68.3180561122928
 20
-27.0749980956316
 30
0.0
  0
VERTEX
  5
340
  8
LAYER_1
 10
68.55612330171373
 20
-25.21126604796755
 30
0.0
  0
VERTEX
  5
341
  8
LAYER_1
 10
68.6991216223758
 20
-24.14999797940254
 30
0.0
  0
VERTEX
  5
342
  8
LAYER_1
 10
68.85162564042457
 20
-22.94999793171883
 30
0.0
  0
VERTEX
  5
343
  8
LAYER_1
 10
69.04613083048764
 20
-21.41249787062407
 30
0.0
  0
VERTEX
  5
344
  8
LAYER_1
 10
69.15824084740348
 20
-20.58749783784151
 30
0.0
  0
VERTEX
  5
345
  8
LAYER_1
 10
69.26964123570298
 20
-20.06249781697989
 30
0.0
  0
VERTEX
  5
346
  8
LAYER_1
 10
69.72775704548741
 20
-20.0883142749538
 30
0.0
  0
VERTEX
  5
347
  8
LAYER_1
 10
69.9158581984388
 20
-20.09329547392723
 30
0.0
  0
VERTEX
  5
348
  8
LAYER_1
 10
70.07020886106305
 20
-20.08173461292664
 30
0.0
  0
VERTEX
  5
349
  8
LAYER_1
 10
70.19708937698854
 20
-20.04888237566906
 30
0.0
  0
VERTEX
  5
34A
  8
LAYER_1
 10
70.25219093732312
 20
-20.02298782960547
 30
0.0
  0
VERTEX
  5
34B
  8
LAYER_1
 10
70.30278008984362
 20
-19.98998944587151
 30
0.0
  0
VERTEX
  5
34C
  8
LAYER_1
 10
70.34964187750361
 20
-19.94929355993181
 30
0.0
  0
VERTEX
  5
34D
  8
LAYER_1
 10
70.39356134325665
 20
-19.90030650725101
 30
0.0
  0
VERTEX
  5
34E
  8
LAYER_1
 10
70.47571348085596
 20
-19.77508424352458
 30
0.0
  0
VERTEX
  5
34F
  8
LAYER_1
 10
70.55551684626991
 20
-19.60957333840924
 30
0.0
  0
VERTEX
  5
350
  8
LAYER_1
 10
70.63925178312687
 20
-19.39902447562203
 30
0.0
  0
VERTEX
  5
351
  8
LAYER_1
 10
70.75828733106874
 20
-19.0516065441894
 30
0.0
  0
VERTEX
  5
352
  8
LAYER_1
 10
70.86053633056976
 20
-18.68985913723515
 30
0.0
  0
VERTEX
  5
353
  8
LAYER_1
 10
70.94625183146627
 20
-18.31211336102647
 30
0.0
  0
VERTEX
  5
354
  8
LAYER_1
 10
71.01568688359467
 20
-17.91670032183052
 30
0.0
  0
VERTEX
  5
355
  8
LAYER_1
 10
71.06909453679134
 20
-17.50195112591449
 30
0.0
  0
VERTEX
  5
356
  8
LAYER_1
 10
71.10672784089266
 20
-17.06619687954556
 30
0.0
  0
VERTEX
  5
357
  8
LAYER_1
 10
71.12883984573503
 20
-16.6077686889909
 30
0.0
  0
VERTEX
  5
358
  8
LAYER_1
 10
71.13568360115482
 20
-16.12499766051769
 30
0.0
  0
VERTEX
  5
359
  8
LAYER_1
 10
71.13392032933294
 20
-14.88749761134386
 30
0.0
  0
VERTEX
  5
35A
  8
LAYER_1
 10
71.03793207168866
 20
-14.46244387459824
 30
0.0
  0
VERTEX
  5
35B
  8
LAYER_1
 10
70.99029128068366
 20
-14.29129693442556
 30
0.0
  0
VERTEX
  5
35C
  8
LAYER_1
 10
70.92900787186063
 20
-14.13531395637607
 30
0.0
  0
VERTEX
  5
35D
  8
LAYER_1
 10
70.85598815009644
 20
-13.99685455240518
 30
0.0
  0
VERTEX
  5
35E
  8
LAYER_1
 10
70.77313842026794
 20
-13.87827833446834
 30
0.0
  0
VERTEX
  5
35F
  8
LAYER_1
 10
70.68236498725204
 20
-13.78194491452098
 30
0.0
  0
VERTEX
  5
360
  8
LAYER_1
 10
70.58557415592563
 20
-13.71021390451851
 30
0.0
  0
VERTEX
  5
361
  8
LAYER_1
 10
70.48467223116558
 20
-13.66544491641639
 30
0.0
  0
VERTEX
  5
362
  8
LAYER_1
 10
70.43327532902197
 20
-13.65390855931402
 30
0.0
  0
VERTEX
  5
363
  8
LAYER_1
 10
70.38156551784877
 20
-13.64999756217003
 30
0.0
  0
VERTEX
  5
364
  8
LAYER_1
 10
70.29482673466997
 20
-13.63865066853082
 30
0.0
  0
VERTEX
  5
365
  8
LAYER_1
 10
70.1865334770847
 20
-13.60775566109734
 30
0.0
  0
VERTEX
  5
366
  8
LAYER_1
 10
70.07050055388056
 20
-13.56203105009578
 30
0.0
  0
VERTEX
  5
367
  8
LAYER_1
 10
69.96054277384522
 20
-13.50619534575237
 30
0.0
  0
VERTEX
  5
368
  8
LAYER_1
 10
69.82280886542324
 20
-13.44046574153979
 30
0.0
  0
VERTEX
  5
369
  8
LAYER_1
 10
69.63114786987934
 20
-13.36780229426084
 30
0.0
  0
VERTEX
  5
36A
  8
LAYER_1
 10
69.4109250652312
 20
-13.2970378091368
 30
0.0
  0
VERTEX
  5
36B
  8
LAYER_1
 10
69.18750572949648
 20
-13.23700509138899
 30
0.0
  0
VERTEX
  5
36C
  8
LAYER_1
 10
68.56336507969536
 20
-13.0745278188567
 30
0.0
  0
VERTEX
  5
36D
  8
LAYER_1
 10
67.80000567436218
 20
-12.85996779137309
 30
0.0
  0
VERTEX
  5
36E
  8
LAYER_1
 10
66.99258376727812
 20
-12.63512984996779
 30
0.0
  0
VERTEX
  5
36F
  8
LAYER_1
 10
66.26250561326742
 20
-12.44794184821954
 30
0.0
  0
VERTEX
  5
370
  8
LAYER_1
 10
65.6756305899471
 20
-12.30375882839261
 30
0.0
  0
VERTEX
  5
371
  8
LAYER_1
 10
65.21250557154417
 20
-12.18231584352157
 30
0.0
  0
VERTEX
  5
372
  8
LAYER_1
 10
64.83750555664301
 20
-12.077066519907
 30
0.0
  0
VERTEX
  5
373
  8
LAYER_1
 10
60.8625053986907
 20
-11.11321441073013
 30
0.0
  0
VERTEX
  5
374
  8
LAYER_1
 10
60.03750536590815
 20
-10.91890600520469
 30
0.0
  0
VERTEX
  5
375
  8
LAYER_1
 10
58.1029166738675
 20
-10.46229751237929
 30
0.0
  0
VERTEX
  5
376
  8
LAYER_1
 10
56.9933280146094
 20
-10.19999742507935
 30
0.0
  0
VERTEX
  5
377
  8
LAYER_1
 10
56.5492876540242
 20
-10.19999742507935
 30
0.0
  0
VERTEX
  5
378
  8
LAYER_1
 10
56.34120131321232
 20
-10.20798345783235
 30
0.0
  0
VERTEX
  5
379
  8
LAYER_1
 10
56.13721121229409
 20
-10.23182793059166
 30
0.0
  0
VERTEX
  5
37A
  8
LAYER_1
 10
55.9375555223226
 20
-10.27136040510769
 30
0.0
  0
VERTEX
  5
37B
  8
LAYER_1
 10
55.74247241435096
 20
-10.32641044313089
 30
0.0
  0
VERTEX
  5
37C
  8
LAYER_1
 10
55.55220005943228
 20
-10.39680760641167
 30
0.0
  0
VERTEX
  5
37D
  8
LAYER_1
 10
55.36697662861966
 20
-10.48238145670047
 30
0.0
  0
VERTEX
  5
37E
  8
LAYER_1
 10
55.1870402929662
 20
-10.58296155574772
 30
0.0
  0
VERTEX
  5
37F
  8
LAYER_1
 10
55.01262922352502
 20
-10.69837746530385
 30
0.0
  0
VERTEX
  5
380
  8
LAYER_1
 10
54.84398159134922
 20
-10.82845874711929
 30
0.0
  0
VERTEX
  5
381
  8
LAYER_1
 10
54.68133556749191
 20
-10.97303496294446
 30
0.0
  0
VERTEX
  5
382
  8
LAYER_1
 10
54.52492932300618
 20
-11.1319356745298
 30
0.0
  0
VERTEX
  5
383
  8
LAYER_1
 10
54.37500102894515
 20
-11.30499044362574
 30
0.0
  0
VERTEX
  5
384
  8
LAYER_1
 10
54.23178885636192
 20
-11.4920288319827
 30
0.0
  0
VERTEX
  5
385
  8
LAYER_1
 10
54.09553097630959
 20
-11.69288040135113
 30
0.0
  0
VERTEX
  5
386
  8
LAYER_1
 10
53.96646555984128
 20
-11.90737471348143
 30
0.0
  0
VERTEX
  5
387
  8
LAYER_1
 10
53.84483077801008
 20
-12.13534133012406
 30
0.0
  0
VERTEX
  5
388
  8
LAYER_1
 10
53.58750510960817
 20
-12.64773431641006
 30
0.0
  0
VERTEX
  5
389
  8
LAYER_1
 10
52.53750506788492
 20
-12.7373729167504
 30
0.0
  0
VERTEX
  5
38A
  8
LAYER_1
 10
51.60867690597661
 20
-12.80064585996809
 30
0.0
  0
VERTEX
  5
38B
  8
LAYER_1
 10
51.18038587333285
 20
-12.81986700530524
 30
0.0
  0
VERTEX
  5
38C
  8
LAYER_1
 10
50.8500050008297
 20
-12.82689468892847
 30
0.0
  0
VERTEX
  5
38D
  8
LAYER_1
 10
50.58550565038992
 20
-12.8329385116552
 30
0.0
  0
VERTEX
  5
38E
  8
LAYER_1
 10
50.33291788826136
 20
-12.85115392229379
 30
0.0
  0
VERTEX
  5
38F
  8
LAYER_1
 10
50.09228269187872
 20
-12.88151815132949
 30
0.0
  0
VERTEX
  5
390
  8
LAYER_1
 10
49.86364103867665
 20
-12.92400842924759
 30
0.0
  0
VERTEX
  5
391
  8
LAYER_1
 10
49.64703390608982
 20
-12.97860198653334
 30
0.0
  0
VERTEX
  5
392
  8
LAYER_1
 10
49.44250227155291
 20
-13.04527605367202
 30
0.0
  0
VERTEX
  5
393
  8
LAYER_1
 10
49.25008711250059
 20
-13.12400786114889
 30
0.0
  0
VERTEX
  5
394
  8
LAYER_1
 10
49.06982940636755
 20
-13.21477463944923
 30
0.0
  0
VERTEX
  5
395
  8
LAYER_1
 10
48.90177013058843
 20
-13.3175536190583
 30
0.0
  0
VERTEX
  5
396
  8
LAYER_1
 10
48.74595026259792
 20
-13.43232203046137
 30
0.0
  0
VERTEX
  5
397
  8
LAYER_1
 10
48.60241077983069
 20
-13.55905710414372
 30
0.0
  0
VERTEX
  5
398
  8
LAYER_1
 10
48.47119265972141
 20
-13.6977360705906
 30
0.0
  0
VERTEX
  5
399
  8
LAYER_1
 10
48.35233687970476
 20
-13.8483361602873
 30
0.0
  0
VERTEX
  5
39A
  8
LAYER_1
 10
48.2458844172154
 20
-14.01083460371906
 30
0.0
  0
VERTEX
  5
39B
  8
LAYER_1
 10
48.15187624968801
 20
-14.18520863137118
 30
0.0
  0
VERTEX
  5
39C
  8
LAYER_1
 10
48.07035335455726
 20
-14.37143547372891
 30
0.0
  0
VERTEX
  5
39D
  8
LAYER_1
 10
47.89758209763136
 20
-14.81249760836363
 30
0.0
  0
VERTEX
  5
39E
  8
LAYER_1
 10
47.91712921822324
 20
-17.66249772161245
 30
0.0
  0
VERTEX
  5
39F
  8
LAYER_1
 10
48.06463608406102
 20
-19.31005351250937
 30
0.0
  0
VERTEX
  5
3A0
  8
LAYER_1
 10
47.97607048358576
 20
-19.36637719394422
 30
0.0
  0
VERTEX
  5
3A1
  8
LAYER_1
 10
47.92225864526294
 20
-19.38833724390102
 30
0.0
  0
VERTEX
  5
3A2
  8
LAYER_1
 10
47.84121184928975
 20
-19.40649315353458
 30
0.0
  0
VERTEX
  5
3A3
  8
LAYER_1
 10
47.74391324357096
 20
-19.41895911826527
 30
0.0
  0
VERTEX
  5
3A4
  8
LAYER_1
 10
47.64134597601137
 20
-19.42384933351349
 30
0.0
  0
VERTEX
  5
3A5
  8
LAYER_1
 10
47.51957709069893
 20
-19.43255771636953
 30
0.0
  0
VERTEX
  5
3A6
  8
LAYER_1
 10
47.39115607395748
 20
-19.4557159411081
 30
0.0
  0
VERTEX
  5
3A7
  8
LAYER_1
 10
47.2629946600232
 20
-19.4904991655259
 30
0.0
  0
VERTEX
  5
3A8
  8
LAYER_1
 10
47.14200458313228
 20
-19.53408254741958
 30
0.0
  0
VERTEX
  5
3A9
  8
LAYER_1
 10
47.03509757752089
 20
-19.58364124458582
 30
0.0
  0
VERTEX
  5
3AA
  8
LAYER_1
 10
46.94918537742522
 20
-19.6363504148213
 30
0.0
  0
VERTEX
  5
3AB
  8
LAYER_1
 10
46.89117971708144
 20
-19.68938521592268
 30
0.0
  0
VERTEX
  5
3AC
  8
LAYER_1
 10
46.87480175626533
 20
-19.71514196485955
 30
0.0
  0
VERTEX
  5
3AD
  8
LAYER_1
 10
46.86799233072574
 20
-19.73992080568665
 30
0.0
  0
VERTEX
  5
3AE
  8
LAYER_1
 10
46.84552671708708
 20
-20.14247279651056
 30
0.0
  0
VERTEX
  5
3AF
  8
LAYER_1
 10
46.84661560006641
 20
-20.42850194247838
 30
0.0
  0
VERTEX
  5
3B0
  8
LAYER_1
 10
46.85645748588255
 20
-20.53604358494604
 30
0.0
  0
VERTEX
  5
3B1
  8
LAYER_1
 10
46.87274540556684
 20
-20.62432227976543
 30
0.0
  0
VERTEX
  5
3B2
  8
LAYER_1
 10
46.89566516235718
 20
-20.69662728145845
 30
0.0
  0
VERTEX
  5
3B3
  8
LAYER_1
 10
46.92540255949143
 20
-20.75624784454703
 30
0.0
  0
VERTEX
  5
3B4
  8
LAYER_1
 10
46.96009611035956
 20
-20.80722089746602
 30
0.0
  0
VERTEX
  5
3B5
  8
LAYER_1
 10
46.9982991204436
 20
-20.84685971629726
 30
0.0
  0
VERTEX
  5
3B6
  8
LAYER_1
 10
47.04582441156065
 20
-20.87656294635879
 30
0.0
  0
VERTEX
  5
3B7
  8
LAYER_1
 10
47.10848480552774
 20
-20.89772923296867
 30
0.0
  0
VERTEX
  5
3B8
  8
LAYER_1
 10
47.19209312416194
 20
-20.91175722144494
 30
0.0
  0
VERTEX
  5
3B9
  8
LAYER_1
 10
47.30246218928032
 20
-20.92004555710565
 30
0.0
  0
VERTEX
  5
3BA
  8
LAYER_1
 10
47.62673384623785
 20
-20.92499785125256
 30
0.0
  0
VERTEX
  5
3BB
  8
LAYER_1
 10
48.22500489652157
 20
-20.92499785125256
 30
0.0
  0
VERTEX
  5
3BC
  8
LAYER_1
 10
48.22500489652157
 20
-21.36122340632526
 30
0.0
  0
VERTEX
  5
3BD
  8
LAYER_1
 10
48.23047465880214
 20
-21.56275783850892
 30
0.0
  0
VERTEX
  5
3BE
  8
LAYER_1
 10
48.24536757590269
 20
-21.78901802014149
 30
0.0
  0
VERTEX
  5
3BF
  8
LAYER_1
 10
48.2674090932115
 20
-22.01231840324785
 30
0.0
  0
VERTEX
  5
3C0
  8
LAYER_1
 10
48.29432465611687
 20
-22.20497343985287
 30
0.0
  0
VERTEX
  5
3C1
  8
LAYER_1
 10
48.32393586117367
 20
-22.42978470483598
 30
0.0
  0
VERTEX
  5
3C2
  8
LAYER_1
 10
48.35331699820175
 20
-22.74063917511039
 30
0.0
  0
VERTEX
  5
3C3
  8
LAYER_1
 10
48.37907255248682
 20
-23.09647940575167
 30
0.0
  0
VERTEX
  5
3C4
  8
LAYER_1
 10
48.39780700931458
 20
-23.45624795183539
 30
0.0
  0
VERTEX
  5
3C5
  8
LAYER_1
 10
48.43196960291699
 20
-24.29999798536301
 30
0.0
  0
VERTEX
  5
3C6
  8
LAYER_1
 10
48.18217882662341
 20
-24.29999798536301
 30
0.0
  0
VERTEX
  5
3C7
  8
LAYER_1
 10
48.01460552596993
 20
-24.30679423280874
 30
0.0
  0
VERTEX
  5
3C8
  8
LAYER_1
 10
47.84289857574085
 20
-24.32585428861189
 30
0.0
  0
VERTEX
  5
3C9
  8
LAYER_1
 10
47.67435516770529
 20
-24.3551851229714
 30
0.0
  0
VERTEX
  5
3CA
  8
LAYER_1
 10
47.51627249363237
 20
-24.39279370608619
 30
0.0
  0
VERTEX
  5
3CB
  8
LAYER_1
 10
47.37594774529123
 20
-24.4366870081552
 30
0.0
  0
VERTEX
  5
3CC
  8
LAYER_1
 10
47.26067811445095
 20
-24.48487199937735
 30
0.0
  0
VERTEX
  5
3CD
  8
LAYER_1
 10
47.17776079288068
 20
-24.5353556499516
 30
0.0
  0
VERTEX
  5
3CE
  8
LAYER_1
 10
47.15071462049966
 20
-24.56083665068292
 30
0.0
  0
VERTEX
  5
3CF
  8
LAYER_1
 10
47.13449297234953
 20
-24.58614493007686
 30
0.0
  0
VERTEX
  5
3D0
  8
LAYER_1
 10
47.11228758811063
 20
-24.66869006047033
 30
0.0
  0
VERTEX
  5
3D1
  8
LAYER_1
 10
47.09086030592857
 20
-24.8000373341742
 30
0.0
  0
VERTEX
  5
3D2
  8
LAYER_1
 10
47.06010364672348
 20
-25.13685731145696
 30
0.0
  0
VERTEX
  5
3D3
  8
LAYER_1
 10
47.05677081849764
 20
-25.34683954919073
 30
0.0
  0
VERTEX
  5
3D4
  8
LAYER_1
 10
47.07385715787276
 20
-25.51413258139718
 30
0.0
  0
VERTEX
  5
3D5
  8
LAYER_1
 10
47.09164930562016
 20
-25.58318571568094
 30
0.0
  0
VERTEX
  5
3D6
  8
LAYER_1
 10
47.11645639351918
 20
-25.64326463288679
 30
0.0
  0
VERTEX
  5
3D7
  8
LAYER_1
 10
47.1489151376536
 20
-25.69493536111604
 30
0.0
  0
VERTEX
  5
3D8
  8
LAYER_1
 10
47.18966225410725
 20
-25.73876392846999
 30
0.0
  0
VERTEX
  5
3D9
  8
LAYER_1
 10
47.23933445896388
 20
-25.77531636304996
 30
0.0
  0
VERTEX
  5
3DA
  8
LAYER_1
 10
47.29856846830729
 20
-25.80515869295725
 30
0.0
  0
VERTEX
  5
3DB
  8
LAYER_1
 10
47.3680009982213
 20
-25.82885694629317
 30
0.0
  0
VERTEX
  5
3DC
  8
LAYER_1
 10
47.44826876478967
 20
-25.84697715115902
 30
0.0
  0
VERTEX
  5
3DD
  8
LAYER_1
 10
47.64385687222472
 20
-25.86874752788574
 30
0.0
  0
VERTEX
  5
3DE
  8
LAYER_1
 10
47.89042651928277
 20
-25.87499804794788
 30
0.0
  0
VERTEX
  5
3DF
  8
LAYER_1
 10
48.45000490546227
 20
-25.87499804794788
 30
0.0
  0
VERTEX
  5
3E0
  8
LAYER_1
 10
48.46007712632846
 20
-26.68124807998538
 30
0.0
  0
VERTEX
  5
3E1
  8
LAYER_1
 10
48.46178619353304
 20
-27.44210728991054
 30
0.0
  0
VERTEX
  5
3E2
  8
LAYER_1
 10
48.45119308283022
 20
-27.7092997987113
 30
0.0
  0
VERTEX
  5
3E3
  8
LAYER_1
 10
48.42954600625214
 20
-27.92490511279003
 30
0.0
  0
VERTEX
  5
3E4
  8
LAYER_1
 10
48.39427831154494
 20
-28.10685138418611
 30
0.0
  0
VERTEX
  5
3E5
  8
LAYER_1
 10
48.34282334645477
 20
-28.27306676493894
 30
0.0
  0
VERTEX
  5
3E6
  8
LAYER_1
 10
48.27261445872774
 20
-28.44147940708789
 30
0.0
  0
VERTEX
  5
3E7
  8
LAYER_1
 10
48.18108499610997
 20
-28.63001746267236
 30
0.0
  0
VERTEX
  5
3E8
  8
LAYER_1
 10
48.00048694613106
 20
-29.01643710456212
 30
0.0
  0
VERTEX
  5
3E9
  8
LAYER_1
 10
47.94549555144407
 20
-29.15578700084637
 30
0.0
  0
VERTEX
  5
3EA
  8
LAYER_1
 10
47.92523597177343
 20
-29.23285609071341
 30
0.0
  0
VERTEX
  5
3EB
  8
LAYER_1
 10
47.91046507703288
 20
-29.27657096817865
 30
0.0
  0
VERTEX
  5
3EC
  8
LAYER_1
 10
47.87041812151195
 20
-29.32510493960653
 30
0.0
  0
VERTEX
  5
3ED
  8
LAYER_1
 10
47.8112077278854
 20
-29.37254743103796
 30
0.0
  0
VERTEX
  5
3EE
  8
LAYER_1
 10
47.73894651882803
 20
-29.41298786851387
 30
0.0
  0
VERTEX
  5
3EF
  8
LAYER_1
 10
47.66431206321813
 20
-29.45392338249641
 30
0.0
  0
VERTEX
  5
3F0
  8
LAYER_1
 10
47.60244175123047
 20
-29.50430962795622
 30
0.0
  0
VERTEX
  5
3F1
  8
LAYER_1
 10
47.55228814011796
 20
-29.56673420768049
 30
0.0
  0
VERTEX
  5
3F2
  8
LAYER_1
 10
47.51280378713349
 20
-29.64378472445644
 30
0.0
  0
VERTEX
  5
3F3
  8
LAYER_1
 10
47.48294124952999
 20
-29.73804878107127
 30
0.0
  0
VERTEX
  5
3F4
  8
LAYER_1
 10
47.46165308456035
 20
-29.85211398031219
 30
0.0
  0
VERTEX
  5
3F5
  8
LAYER_1
 10
47.44789184947749
 20
-29.98856792496641
 30
0.0
  0
VERTEX
  5
3F6
  8
LAYER_1
 10
47.4406101015343
 20
-30.14999821782112
 30
0.0
  0
VERTEX
  5
3F7
  8
LAYER_1
 10
47.44485155904874
 20
-30.32001473703817
 30
0.0
  0
VERTEX
  5
3F8
  8
LAYER_1
 10
47.47030259005111
 20
-30.45210590391881
 30
0.0
  0
VERTEX
  5
3F9
  8
LAYER_1
 10
47.49238553281032
 20
-30.50833415036878
 30
0.0
  0
VERTEX
  5
3FA
  8
LAYER_1
 10
47.5214554735816
 20
-30.56036666289761
 30
0.0
  0
VERTEX
  5
3FB
  8
LAYER_1
 10
47.60280248868042
 20
-30.65889195840913
 30
0.0
  0
VERTEX
  5
3FC
  8
LAYER_1
 10
47.67289918399039
 20
-30.7415067376803
 30
0.0
  0
VERTEX
  5
3FD
  8
LAYER_1
 10
47.73759046350173
 20
-30.83974812524684
 30
0.0
  0
VERTEX
  5
3FE
  8
LAYER_1
 10
47.78968428299427
 20
-30.94131143311982
 30
0.0
  0
VERTEX
  5
3FF
  8
LAYER_1
 10
47.82198859824781
 20
-31.03389197331029
 30
0.0
  0
VERTEX
  5
400
  8
LAYER_1
 10
47.8583582900785
 20
-31.14845629112666
 30
0.0
  0
VERTEX
  5
401
  8
LAYER_1
 10
47.92152120421176
 20
-31.30987641926817
 30
0.0
  0
VERTEX
  5
402
  8
LAYER_1
 10
48.09269631196116
 20
-31.68749827891588
 30
0.0
  0
VERTEX
  5
403
  8
LAYER_1
 10
48.21164759885575
 20
-31.94547196918913
 30
0.0
  0
VERTEX
  5
404
  8
LAYER_1
 10
48.24857302779122
 20
-32.04950595112381
 30
0.0
  0
VERTEX
  5
405
  8
LAYER_1
 10
48.27248977337126
 20
-32.14804350873892
 30
0.0
  0
VERTEX
  5
406
  8
LAYER_1
 10
48.2849164303352
 20
-32.24943875539577
 30
0.0
  0
VERTEX
  5
407
  8
LAYER_1
 10
48.28737159342239
 20
-32.36204580445568
 30
0.0
  0
VERTEX
  5
408
  8
LAYER_1
 10
48.26844181692381
 20
-32.65431176322982
 30
0.0
  0
VERTEX
  5
409
  8
LAYER_1
 10
48.23631280395507
 20
-32.92402520432432
 30
0.0
  0
VERTEX
  5
40A
  8
LAYER_1
 10
48.21546892760587
 20
-33.02875663074516
 30
0.0
  0
VERTEX
  5
40B
  8
LAYER_1
 10
48.18954850033596
 20
-33.11890844769671
 30
0.0
  0
VERTEX
  5
40C
  8
LAYER_1
 10
48.1571337938872
 20
-33.19860859514021
 30
0.0
  0
VERTEX
  5
40D
  8
LAYER_1
 10
48.11680708000146
 20
-33.2719850130369
 30
0.0
  0
VERTEX
  5
40E
  8
LAYER_1
 10
48.00674671688655
 20
-33.4162784200348
 30
0.0
  0
VERTEX
  5
40F
  8
LAYER_1
 10
47.814508667029
 20
-33.6575042293985
 30
0.0
  0
VERTEX
  5
410
  8
LAYER_1
 10
47.65458155215056
 20
-33.89321499309033
 30
0.0
  0
VERTEX
  5
411
  8
LAYER_1
 10
47.59473514945168
 20
-33.98321213464775
 30
0.0
  0
VERTEX
  5
412
  8
LAYER_1
 10
47.53300114398881
 20
-34.05691200711027
 30
0.0
  0
VERTEX
  5
413
  8
LAYER_1
 10
47.47665154650088
 20
-34.10670921823359
 30
0.0
  0
VERTEX
  5
414
  8
LAYER_1
 10
47.43295836772678
 20
-34.12499837577343
 30
0.0
  0
VERTEX
  5
415
  8
LAYER_1
 10
47.39097849645297
 20
-34.13535482149746
 30
0.0
  0
VERTEX
  5
416
  8
LAYER_1
 10
47.33929384512915
 20
-34.16355306480546
 30
0.0
  0
VERTEX
  5
417
  8
LAYER_1
 10
47.28446395998917
 20
-34.20528646490129
 30
0.0
  0
VERTEX
  5
418
  8
LAYER_1
 10
47.23304838726689
 20
-34.25624838098884
 30
0.0
  0
VERTEX
  5
419
  8
LAYER_1
 10
47.205208013084
 20
-34.29741460766087
 30
0.0
  0
VERTEX
  5
41A
  8
LAYER_1
 10
47.18087510470616
 20
-34.35217449589875
 30
0.0
  0
VERTEX
  5
41B
  8
LAYER_1
 10
47.14281679920342
 20
-34.49453630081553
 30
0.0
  0
VERTEX
  5
41C
  8
LAYER_1
 10
47.11904369843408
 20
-34.66745588322608
 30
0.0
  0
VERTEX
  5
41D
  8
LAYER_1
 10
47.10972603007363
 20
-34.85505533061736
 30
0.0
  0
VERTEX
  5
41E
  8
LAYER_1
 10
47.11503402179749
 20
-35.0414567304763
 30
0.0
  0
VERTEX
  5
41F
  8
LAYER_1
 10
47.1351379012811
 20
-35.21078217028983
 30
0.0
  0
VERTEX
  5
420
  8
LAYER_1
 10
47.17020789619991
 20
-35.34715373754489
 30
0.0
  0
VERTEX
  5
421
  8
LAYER_1
 10
47.1934083830961
 20
-35.39801997130266
 30
0.0
  0
VERTEX
  5
422
  8
LAYER_1
 10
47.22041423422938
 20
-35.43469351972841
 30
0.0
  0
VERTEX
  5
423
  8
LAYER_1
 10
47.26896712047724
 20
-35.50934601581424
 30
0.0
  0
VERTEX
  5
424
  8
LAYER_1
 10
47.31844511361923
 20
-35.62988730306935
 30
0.0
  0
VERTEX
  5
425
  8
LAYER_1
 10
47.36305400659256
 20
-35.77966987133002
 30
0.0
  0
VERTEX
  5
426
  8
LAYER_1
 10
47.39699959233438
 20
-35.94204621043252
 30
0.0
  0
VERTEX
  5
427
  8
LAYER_1
 10
47.43065522773873
 20
-36.11207584317484
 30
0.0
  0
VERTEX
  5
428
  8
LAYER_1
 10
47.47769871275715
 20
-36.29714127819366
 30
0.0
  0
VERTEX
  5
429
  8
LAYER_1
 10
47.53605204240893
 20
-36.49149589756287
 30
0.0
  0
VERTEX
  5
42A
  8
LAYER_1
 10
47.60363721171338
 20
-36.68939308335636
 30
0.0
  0
VERTEX
  5
42B
  8
LAYER_1
 10
47.67837621568978
 20
-36.88508621764804
 30
0.0
  0
VERTEX
  5
42C
  8
LAYER_1
 10
47.75819104935745
 20
-37.07282868251177
 30
0.0
  0
VERTEX
  5
42D
  8
LAYER_1
 10
47.84100370773567
 20
-37.24687386002147
 30
0.0
  0
VERTEX
  5
42E
  8
LAYER_1
 10
47.92473618584373
 20
-37.40147513225103
 30
0.0
  0
VERTEX
  5
42F
  8
LAYER_1
 10
48.06431337140955
 20
-37.64045176802923
 30
0.0
  0
VERTEX
  5
430
  8
LAYER_1
 10
47.48840910788851
 20
-37.87956665123377
 30
0.0
  0
VERTEX
  5
431
  8
LAYER_1
 10
46.93486903728813
 20
-38.11939122383275
 30
0.0
  0
VERTEX
  5
432
  8
LAYER_1
 10
46.44613373279413
 20
-38.35260283440187
 30
0.0
  0
VERTEX
  5
433
  8
LAYER_1
 10
46.02036832350394
 20
-38.58041834828491
 30
0.0
  0
VERTEX
  5
434
  8
LAYER_1
 10
45.655737938515
 20
-38.80405463082565
 30
0.0
  0
VERTEX
  5
435
  8
LAYER_1
 10
45.49577498297643
 20
-38.91468583076258
 30
0.0
  0
VERTEX
  5
436
  8
LAYER_1
 10
45.35040770692473
 20
-39.02472854736786
 30
0.0
  0
VERTEX
  5
437
  8
LAYER_1
 10
45.21940675149705
 20
-39.13433488880945
 30
0.0
  0
VERTEX
  5
438
  8
LAYER_1
 10
45.10254275783057
 20
-39.24365696325532
 30
0.0
  0
VERTEX
  5
439
  8
LAYER_1
 10
44.99958636706248
 20
-39.35284687887346
 30
0.0
  0
VERTEX
  5
43A
  8
LAYER_1
 10
44.91030822032995
 20
-39.46205674383182
 30
0.0
  0
VERTEX
  5
43B
  8
LAYER_1
 10
44.83447895877018
 20
-39.57143866629838
 30
0.0
  0
VERTEX
  5
43C
  8
LAYER_1
 10
44.77186922352031
 20
-39.68114475444113
 30
0.0
  0
VERTEX
  5
43D
  8
LAYER_1
 10
44.70960970734775
 20
-39.82713281173786
 30
0.0
  0
VERTEX
  5
43E
  8
LAYER_1
 10
44.66526758689481
 20
-39.98359712067371
 30
0.0
  0
VERTEX
  5
43F
  8
LAYER_1
 10
44.63883437261048
 20
-40.14710222389625
 30
0.0
  0
VERTEX
  5
440
  8
LAYER_1
 10
44.63030157494369
 20
-40.31421266405306
 30
0.0
  0
VERTEX
  5
441
  8
LAYER_1
 10
44.63966070434338
 20
-40.48149298379172
 30
0.0
  0
VERTEX
  5
442
  8
LAYER_1
 10
44.66690327125852
 20
-40.64550772575981
 30
0.0
  0
VERTEX
  5
443
  8
LAYER_1
 10
44.71202078613803
 20
-40.8028214326049
 30
0.0
  0
VERTEX
  5
444
  8
LAYER_1
 10
44.77500475943089
 20
-40.94999864697456
 30
0.0
  0
VERTEX
  5
445
  8
LAYER_1
 10
44.88094226364046
 20
-41.16698783541823
 30
0.0
  0
VERTEX
  5
446
  8
LAYER_1
 10
44.92500476539135
 20
-41.2758000564663
 30
0.0
  0
VERTEX
  5
447
  8
LAYER_1
 10
44.89097644372669
 20
-41.30178254084795
 30
0.0
  0
VERTEX
  5
448
  8
LAYER_1
 10
44.79832507285755
 20
-41.34903625259214
 30
0.0
  0
VERTEX
  5
449
  8
LAYER_1
 10
44.49375474825501
 20
-41.48049159388231
 30
0.0
  0
VERTEX
  5
44A
  8
LAYER_1
 10
44.16671637876077
 20
-41.61899924097314
 30
0.0
  0
VERTEX
  5
44B
  8
LAYER_1
 10
43.87630802540336
 20
-41.75825985139184
 30
0.0
  0
VERTEX
  5
44C
  8
LAYER_1
 10
43.61920755651609
 20
-41.90063166020965
 30
0.0
  0
VERTEX
  5
44D
  8
LAYER_1
 10
43.39209284043233
 20
-42.04847290249778
 30
0.0
  0
VERTEX
  5
44E
  8
LAYER_1
 10
43.19164174548538
 20
-42.20414181332744
 30
0.0
  0
VERTEX
  5
44F
  8
LAYER_1
 10
43.0145321400086
 20
-42.36999662776986
 30
0.0
  0
VERTEX
  5
450
  8
LAYER_1
 10
42.8574418923353
 20
-42.54839558089627
 30
0.0
  0
VERTEX
  5
451
  8
LAYER_1
 10
42.71704887079885
 20
-42.74169690777786
 30
0.0
  0
VERTEX
  5
452
  8
LAYER_1
 10
42.6045286823079
 20
-42.9284868369457
 30
0.0
  0
VERTEX
  5
453
  8
LAYER_1
 10
42.52059829633976
 20
-43.10321983057548
 30
0.0
  0
VERTEX
  5
454
  8
LAYER_1
 10
42.46813214666236
 20
-43.25893205423734
 30
0.0
  0
VERTEX
  5
455
  8
LAYER_1
 10
42.45459642098518
 20
-43.32747917907098
 30
0.0
  0
VERTEX
  5
456
  8
LAYER_1
 10
42.45000466704369
 20
-43.38865967350144
 30
0.0
  0
VERTEX
  5
457
  8
LAYER_1
 10
42.44290564498368
 20
-43.52785960634714
 30
0.0
  0
VERTEX
  5
458
  8
LAYER_1
 10
42.42746548468947
 20
-43.57224506624812
 30
0.0
  0
VERTEX
  5
459
  8
LAYER_1
 10
42.39826144024649
 20
-43.60391501582758
 30
0.0
  0
VERTEX
  5
45A
  8
LAYER_1
 10
42.35091592317526
 20
-43.62594007560532
 30
0.0
  0
VERTEX
  5
45B
  8
LAYER_1
 10
42.28105134499634
 20
-43.64139086610113
 30
0.0
  0
VERTEX
  5
45C
  8
LAYER_1
 10
42.05625465139747
 20
-43.66485212132619
 30
0.0
  0
VERTEX
  5
45D
  8
LAYER_1
 10
41.9143094747794
 20
-43.68140673210591
 30
0.0
  0
VERTEX
  5
45E
  8
LAYER_1
 10
41.77855554832857
 20
-43.70618207592322
 30
0.0
  0
VERTEX
  5
45F
  8
LAYER_1
 10
41.64952761886957
 20
-43.73874026923987
 30
0.0
  0
VERTEX
  5
460
  8
LAYER_1
 10
41.527760433227
 20
-43.77864342851758
 30
0.0
  0
VERTEX
  5
461
  8
LAYER_1
 10
41.41378873822545
 20
-43.82545367021814
 30
0.0
  0
VERTEX
  5
462
  8
LAYER_1
 10
41.3081472806895
 20
-43.87873311080327
 30
0.0
  0
VERTEX
  5
463
  8
LAYER_1
 10
41.21137080744375
 20
-43.93804386673474
 30
0.0
  0
VERTEX
  5
464
  8
LAYER_1
 10
41.12399406531279
 20
-44.00294805447432
 30
0.0
  0
VERTEX
  5
465
  8
LAYER_1
 10
41.04655180112123
 20
-44.07300779048371
 30
0.0
  0
VERTEX
  5
466
  8
LAYER_1
 10
40.97957876169363
 20
-44.1477851912247
 30
0.0
  0
VERTEX
  5
467
  8
LAYER_1
 10
40.9236096938546
 20
-44.22684237315903
 30
0.0
  0
VERTEX
  5
468
  8
LAYER_1
 10
40.87917934442873
 20
-44.30974145274844
 30
0.0
  0
VERTEX
  5
469
  8
LAYER_1
 10
40.84682246024061
 20
-44.3960445464547
 30
0.0
  0
VERTEX
  5
46A
  8
LAYER_1
 10
40.82707378811483
 20
-44.48531377073954
 30
0.0
  0
VERTEX
  5
46B
  8
LAYER_1
 10
40.82046807487599
 20
-44.57711124206472
 30
0.0
  0
VERTEX
  5
46C
  8
LAYER_1
 10
40.82754006734868
 20
-44.670999076892
 30
0.0
  0
VERTEX
  5
46D
  8
LAYER_1
 10
40.86224741850401
 20
-44.90449936822863
 30
0.0
  0
VERTEX
  5
46E
  8
LAYER_1
 10
40.39987599285494
 20
-44.94793757515275
 30
0.0
  0
VERTEX
  5
46F
  8
LAYER_1
 10
40.19911400658647
 20
-44.97199713359795
 30
0.0
  0
VERTEX
  5
470
  8
LAYER_1
 10
40.01561348589115
 20
-45.00501902742729
 30
0.0
  0
VERTEX
  5
471
  8
LAYER_1
 10
39.84844413434288
 20
-45.0473706622418
 30
0.0
  0
VERTEX
  5
472
  8
LAYER_1
 10
39.69667565551558
 20
-45.09941944364246
 30
0.0
  0
VERTEX
  5
473
  8
LAYER_1
 10
39.55937775298311
 20
-45.16153277723025
 30
0.0
  0
VERTEX
  5
474
  8
LAYER_1
 10
39.43562013031938
 20
-45.23407806860618
 30
0.0
  0
VERTEX
  5
475
  8
LAYER_1
 10
39.32447249109828
 20
-45.31742272337125
 30
0.0
  0
VERTEX
  5
476
  8
LAYER_1
 10
39.2250045388937
 20
-45.41193414712643
 30
0.0
  0
VERTEX
  5
477
  8
LAYER_1
 10
39.17138311332432
 20
-45.47316521728619
 30
0.0
  0
VERTEX
  5
478
  8
LAYER_1
 10
39.12857064186451
 20
-45.53294626212179
 30
0.0
  0
VERTEX
  5
479
  8
LAYER_1
 10
39.09534370401149
 20
-45.59562826353051
 30
0.0
  0
VERTEX
  5
47A
  8
LAYER_1
 10
39.07047887926248
 20
-45.66556220340966
 30
0.0
  0
VERTEX
  5
47B
  8
LAYER_1
 10
39.0527527471147
 20
-45.74709906365652
 30
0.0
  0
VERTEX
  5
47C
  8
LAYER_1
 10
39.04094188706537
 20
-45.84458982616841
 30
0.0
  0
VERTEX
  5
47D
  8
LAYER_1
 10
39.03017230125094
 20
-46.10483698557643
 30
0.0
  0
VERTEX
  5
47E
  8
LAYER_1
 10
39.0204166409952
 20
-46.37783787726474
 30
0.0
  0
VERTEX
  5
47F
  8
LAYER_1
 10
39.00898654195203
 20
-46.47190178723665
 30
0.0
  0
VERTEX
  5
480
  8
LAYER_1
 10
38.99048356145622
 20
-46.5454398725922
 30
0.0
  0
VERTEX
  5
481
  8
LAYER_1
 10
38.96287917287596
 20
-46.60427603280528
 30
0.0
  0
VERTEX
  5
482
  8
LAYER_1
 10
38.92414484957943
 20
-46.65423416734975
 30
0.0
  0
VERTEX
  5
483
  8
LAYER_1
 10
38.80517229231025
 20
-46.75081195732829
 30
0.0
  0
VERTEX
  5
484
  8
LAYER_1
 10
38.60629151216128
 20
-46.90580457814563
 30
0.0
  0
VERTEX
  5
485
  8
LAYER_1
 10
38.40974593199435
 20
-47.08742699486316
 30
0.0
  0
VERTEX
  5
486
  8
LAYER_1
 10
38.22038066026807
 20
-47.2893735277088
 30
0.0
  0
VERTEX
  5
487
  8
LAYER_1
 10
38.04304080544104
 20
-47.50533849691043
 30
0.0
  0
VERTEX
  5
488
  8
LAYER_1
 10
37.88257147597187
 20
-47.72901622269595
 30
0.0
  0
VERTEX
  5
489
  8
LAYER_1
 10
37.74381778031915
 20
-47.95410102529328
 30
0.0
  0
VERTEX
  5
48A
  8
LAYER_1
 10
37.63162482694149
 20
-48.17428722493031
 30
0.0
  0
VERTEX
  5
48B
  8
LAYER_1
 10
37.55083772429751
 20
-48.38326914183493
 30
0.0
  0
VERTEX
  5
48C
  8
LAYER_1
 10
37.51275514387351
 20
-48.50403934612265
 30
0.0
  0
VERTEX
  5
48D
  8
LAYER_1
 10
36.96262978550425
 20
-48.78818413048963
 30
0.0
  0
VERTEX
  5
48E
  8
LAYER_1
 10
36.50800999852963
 20
-49.03839839336504
 30
0.0
  0
VERTEX
  5
48F
  8
LAYER_1
 10
36.31827603197462
 20
-49.15306630158594
 30
0.0
  0
VERTEX
  5
490
  8
LAYER_1
 10
36.18750441819429
 20
-49.24096554095444
 30
0.0
  0
VERTEX
  5
491
  8
LAYER_1
 10
35.9625044092536
 20
-49.40960216705228
 30
0.0
  0
VERTEX
  5
492
  8
LAYER_1
 10
34.38750434666872
 20
-50.16458852203623
 30
0.0
  0
VERTEX
  5
493
  8
LAYER_1
 10
31.61250423640013
 20
-51.28253742866042
 30
0.0
  0
VERTEX
  5
494
  8
LAYER_1
 10
31.12500421702862
 20
-51.4694211195047
 30
0.0
  0
VERTEX
  5
495
  8
LAYER_1
 10
30.72048777769405
 20
-51.61691462785501
 30
0.0
  0
VERTEX
  5
496
  8
LAYER_1
 10
30.31789470044996
 20
-51.74601142447414
 30
0.0
  0
VERTEX
  5
497
  8
LAYER_1
 10
29.8957031496142
 20
-51.86120784281162
 30
0.0
  0
VERTEX
  5
498
  8
LAYER_1
 10
29.43239128950462
 20
-51.96700021631699
 30
0.0
  0
VERTEX
  5
499
  8
LAYER_1
 10
28.90643728443906
 20
-52.06788487843977
 30
0.0
  0
VERTEX
  5
49A
  8
LAYER_1
 10
28.29631929873538
 20
-52.16835816262947
 30
0.0
  0
VERTEX
  5
49B
  8
LAYER_1
 10
27.58051549671142
 20
-52.27291640233565
 30
0.0
  0
VERTEX
  5
49C
  8
LAYER_1
 10
26.73750404268503
 20
-52.38605593100782
 30
0.0
  0
VERTEX
  5
49D
  8
LAYER_1
 10
25.95867588673718
 20
-52.49210484798284
 30
0.0
  0
VERTEX
  5
49E
  8
LAYER_1
 10
25.35000398755074
 20
-52.58258705860143
 30
0.0
  0
VERTEX
  5
49F
  8
LAYER_1
 10
25.01476801659995
 20
-52.6462120003884
 30
0.0
  0
VERTEX
  5
4A0
  8
LAYER_1
 10
24.68545564450428
 20
-52.72661044879938
 30
0.0
  0
VERTEX
  5
4A1
  8
LAYER_1
 10
24.36303417331845
 20
-52.82315232565423
 30
0.0
  0
VERTEX
  5
4A2
  8
LAYER_1
 10
24.04847090509715
 20
-52.93520755277287
 30
0.0
  0
VERTEX
  5
4A3
  8
LAYER_1
 10
23.74273314189513
 20
-53.06214605197515
 30
0.0
  0
VERTEX
  5
4A4
  8
LAYER_1
 10
23.44678818576708
 20
-53.20333774508097
 30
0.0
  0
VERTEX
  5
4A5
  8
LAYER_1
 10
23.16160333876772
 20
-53.35815255391023
 30
0.0
  0
VERTEX
  5
4A6
  8
LAYER_1
 10
22.88814590295177
 20
-53.5259604002828
 30
0.0
  0
VERTEX
  5
4A7
  8
LAYER_1
 10
22.62738318037395
 20
-53.70613120601855
 30
0.0
  0
VERTEX
  5
4A8
  8
LAYER_1
 10
22.38028247308898
 20
-53.8980348929374
 30
0.0
  0
VERTEX
  5
4A9
  8
LAYER_1
 10
22.14781108315156
 20
-54.10104138285921
 30
0.0
  0
VERTEX
  5
4AA
  8
LAYER_1
 10
21.93093631261642
 20
-54.31452059760386
 30
0.0
  0
VERTEX
  5
4AB
  8
LAYER_1
 10
21.73062546353827
 20
-54.53784245899125
 30
0.0
  0
VERTEX
  5
4AC
  8
LAYER_1
 10
21.54784583797182
 20
-54.77037688884125
 30
0.0
  0
VERTEX
  5
4AD
  8
LAYER_1
 10
21.3835647379718
 20
-55.01149380897376
 30
0.0
  0
VERTEX
  5
4AE
  8
LAYER_1
 10
21.23874946559292
 20
-55.26056314120865
 30
0.0
  0
VERTEX
  5
4AF
  8
LAYER_1
 10
21.13934478514521
 20
-55.45506981590882
 30
0.0
  0
VERTEX
  5
4B0
  8
LAYER_1
 10
21.05260554103896
 20
-55.64385451985392
 30
0.0
  0
VERTEX
  5
4B1
  8
LAYER_1
 10
20.97617221356804
 20
-55.83439221608067
 30
0.0
  0
VERTEX
  5
4B2
  8
LAYER_1
 10
20.90768528302633
 20
-56.03415786762579
 30
0.0
  0
VERTEX
  5
4B3
  8
LAYER_1
 10
20.84478522970771
 20
-56.25062643752602
 30
0.0
  0
VERTEX
  5
4B4
  8
LAYER_1
 10
20.78511253390605
 20
-56.49127288881806
 30
0.0
  0
VERTEX
  5
4B5
  8
LAYER_1
 10
20.66601113602916
 20
-57.07499928772449
 30
0.0
  0
VERTEX
  5
4B6
  8
LAYER_1
 10
20.62255758506468
 20
-57.28863520731199
 30
0.0
  0
VERTEX
  5
4B7
  8
LAYER_1
 10
20.57755259577438
 20
-57.46573089710961
 30
0.0
  0
VERTEX
  5
4B8
  8
LAYER_1
 10
20.52958069182162
 20
-57.60876919837089
 30
0.0
  0
VERTEX
  5
4B9
  8
LAYER_1
 10
20.47722639686979
 20
-57.72023295234941
 30
0.0
  0
VERTEX
  5
4BA
  8
LAYER_1
 10
20.41907423458227
 20
-57.80260500029871
 30
0.0
  0
VERTEX
  5
4BB
  8
LAYER_1
 10
20.35370872862242
 20
-57.85836818347239
 30
0.0
  0
VERTEX
  5
4BC
  8
LAYER_1
 10
20.27971440265364
 20
-57.89000534312397
 30
0.0
  0
VERTEX
  5
4BD
  8
LAYER_1
 10
20.1956757803393
 20
-57.89999932050705
 30
0.0
  0
VERTEX
  5
4BE
  8
LAYER_1
 10
20.12796971991237
 20
-57.91450330132083
 30
0.0
  0
VERTEX
  5
4BF
  8
LAYER_1
 10
20.01803163281393
 20
-57.95399433819001
 30
0.0
  0
VERTEX
  5
4C0
  8
LAYER_1
 10
19.73228006609679
 20
-58.08381214666183
 30
0.0
  0
VERTEX
  5
4C1
  8
LAYER_1
 10
19.59457795171578
 20
-58.16061156930898
 30
0.0
  0
VERTEX
  5
4C2
  8
LAYER_1
 10
19.46437469949232
 20
-58.2476153042895
 30
0.0
  0
VERTEX
  5
4C3
  8
LAYER_1
 10
19.34177976873186
 20
-58.34471285284104
 30
0.0
  0
VERTEX
  5
4C4
  8
LAYER_1
 10
19.22690261873984
 20
-58.45179371620129
 30
0.0
  0
VERTEX
  5
4C5
  8
LAYER_1
 10
19.11985270882171
 20
-58.56874739560794
 30
0.0
  0
VERTEX
  5
4C6
  8
LAYER_1
 10
19.02073949828289
 20
-58.69546339229865
 30
0.0
  0
VERTEX
  5
4C7
  8
LAYER_1
 10
18.92967244642884
 20
-58.83183120751111
 30
0.0
  0
VERTEX
  5
4C8
  8
LAYER_1
 10
18.84676101256498
 20
-58.97774034248299
 30
0.0
  0
VERTEX
  5
4C9
  8
LAYER_1
 10
18.72396510121018
 20
-59.21249937266111
 30
0.0
  0
VERTEX
  5
4CA
  8
LAYER_1
 10
18.60290356532828
 20
-62.51249950379133
 30
0.0
  0
VERTEX
  5
4CB
  8
LAYER_1
 10
18.64297276509667
 20
-62.73749951273203
 30
0.0
  0
VERTEX
  5
4CC
  8
LAYER_1
 10
18.67329381502823
 20
-62.87720833753962
 30
0.0
  0
VERTEX
  5
4CD
  8
LAYER_1
 10
18.71492638511685
 20
-63.02032166107487
 30
0.0
  0
VERTEX
  5
4CE
  8
LAYER_1
 10
18.76751446998666
 20
-63.16632864152088
 30
0.0
  0
VERTEX
  5
4CF
  8
LAYER_1
 10
18.83070206426181
 20
-63.31471843706075
 30
0.0
  0
VERTEX
  5
4D0
  8
LAYER_1
 10
18.90413316256643
 20
-63.46498020587755
 30
0.0
  0
VERTEX
  5
4D1
  8
LAYER_1
 10
18.98745175952469
 20
-63.61660310615439
 30
0.0
  0
VERTEX
  5
4D2
  8
LAYER_1
 10
19.0803018497607
 20
-63.76907629607437
 30
0.0
  0
VERTEX
  5
4D3
  8
LAYER_1
 10
19.18232742789863
 20
-63.92188893382057
 30
0.0
  0
VERTEX
  5
4D4
  8
LAYER_1
 10
19.41248102637676
 20
-64.22648918552406
 30
0.0
  0
VERTEX
  5
4D5
  8
LAYER_1
 10
19.67506451195223
 20
-64.5263171267296
 30
0.0
  0
VERTEX
  5
4D6
  8
LAYER_1
 10
19.96722984161816
 20
-64.81728602290195
 30
0.0
  0
VERTEX
  5
4D7
  8
LAYER_1
 10
20.28612897236771
 20
-65.0953091395059
 30
0.0
  0
VERTEX
  5
4D8
  8
LAYER_1
 10
20.490747129806
 20
-65.25183762905317
 30
0.0
  0
VERTEX
  5
4D9
  8
LAYER_1
 10
20.57505670339759
 20
-65.30499061628736
 30
0.0
  0
VERTEX
  5
4DA
  8
LAYER_1
 10
20.65343392292416
 20
-65.34396856006673
 30
0.0
  0
VERTEX
  5
4DB
  8
LAYER_1
 10
20.73042927540068
 20
-65.37069580656994
 30
0.0
  0
VERTEX
  5
4DC
  8
LAYER_1
 10
20.81059324784215
 20
-65.38709670197564
 30
0.0
  0
VERTEX
  5
4DD
  8
LAYER_1
 10
20.99862900067991
 20
-65.39661682420899
 30
0.0
  0
VERTEX
  5
4DE
  8
LAYER_1
 10
21.14796164922282
 20
-65.387652187615
 30
0.0
  0
VERTEX
  5
4DF
  8
LAYER_1
 10
21.30405310017755
 20
-65.36574419571073
 30
0.0
  0
VERTEX
  5
4E0
  8
LAYER_1
 10
21.44840121047573
 20
-65.3341855173401
 30
0.0
  0
VERTEX
  5
4E1
  8
LAYER_1
 10
21.56250383704901
 20
-65.29626882134697
 30
0.0
  0
VERTEX
  5
4E2
  8
LAYER_1
 10
21.69024325770985
 20
-65.24988771508598
 30
0.0
  0
VERTEX
  5
4E3
  8
LAYER_1
 10
21.74312165617295
 20
-65.24118913304065
 30
0.0
  0
VERTEX
  5
4E4
  8
LAYER_1
 10
21.79375262427802
 20
-65.24285449350214
 30
0.0
  0
VERTEX
  5
4E5
  8
LAYER_1
 10
21.84594624519018
 20
-65.25541076780803
 30
0.0
  0
VERTEX
  5
4E6
  8
LAYER_1
 10
21.90351260207456
 20
-65.27938492729587
 30
0.0
  0
VERTEX
  5
4E7
  8
LAYER_1
 10
22.05000385642052
 20
-65.36369478716755
 30
0.0
  0
VERTEX
  5
4E8
  8
LAYER_1
 10
22.28447353981436
 20
-65.49535896246172
 30
0.0
  0
VERTEX
  5
4E9
  8
LAYER_1
 10
22.39399548857935
 20
-65.54752339935877
 30
0.0
  0
VERTEX
  5
4EA
  8
LAYER_1
 10
22.47958148736906
 20
-65.58106607523611
 30
0.0
  0
VERTEX
  5
4EB
  8
LAYER_1
 10
22.52140394268026
 20
-65.60084261970476
 30
0.0
  0
VERTEX
  5
4EC
  8
LAYER_1
 10
22.56575444731577
 20
-65.6342570527329
 30
0.0
  0
VERTEX
  5
4ED
  8
LAYER_1
 10
22.66089812775522
 20
-65.74047877967419
 30
0.0
  0
VERTEX
  5
4EE
  8
LAYER_1
 10
22.76272957507839
 20
-65.89668964647296
 30
0.0
  0
VERTEX
  5
4EF
  8
LAYER_1
 10
22.86896583567622
 20
-66.0998480435422
 30
0.0
  0
VERTEX
  5
4F0
  8
LAYER_1
 10
22.96951440159919
 20
-66.29407953007907
 30
0.0
  0
VERTEX
  5
4F1
  8
LAYER_1
 10
23.07894885274019
 20
-66.47859168679845
 30
0.0
  0
VERTEX
  5
4F2
  8
LAYER_1
 10
23.18405689479673
 20
-66.63254085442946
 30
0.0
  0
VERTEX
  5
4F3
  8
LAYER_1
 10
23.27162623346631
 20
-66.7350833737013
 30
0.0
  0
VERTEX
  5
4F4
  8
LAYER_1
 10
23.35202395056091
 20
-66.79841670079874
 30
0.0
  0
VERTEX
  5
4F5
  8
LAYER_1
 10
23.46253322216062
 20
-66.86723960894042
 30
0.0
  0
VERTEX
  5
4F6
  8
LAYER_1
 10
23.598324984996
 20
-66.93940651458729
 30
0.0
  0
VERTEX
  5
4F7
  8
LAYER_1
 10
23.75457017579764
 20
-67.01277183420022
 30
0.0
  0
VERTEX
  5
4F8
  8
LAYER_1
 10
24.10910458822193
 20
-67.15451538116803
 30
0.0
  0
VERTEX
  5
4F9
  8
LAYER_1
 10
24.29773568330573
 20
-67.21860244144473
 30
0.0
  0
VERTEX
  5
4FA
  8
LAYER_1
 10
24.48750395327806
 20
-67.2753055815312
 30
0.0
  0
VERTEX
  5
4FB
  8
LAYER_1
 10
24.71250396221876
 20
-67.33765271057139
 30
0.0
  0
VERTEX
  5
4FC
  8
LAYER_1
 10
26.21250402182341
 20
-67.78390139532878
 30
0.0
  0
VERTEX
  5
4FD
  8
LAYER_1
 10
26.42363650480114
 20
-67.86695055759348
 30
0.0
  0
VERTEX
  5
4FE
  8
LAYER_1
 10
26.51926568709957
 20
-67.9001119962721
 30
0.0
  0
VERTEX
  5
4FF
  8
LAYER_1
 10
26.61733312494962
 20
-67.92551507259807
 30
0.0
  0
VERTEX
  5
500
  8
LAYER_1
 10
26.71737067103405
 20
-67.94326263406595
 30
0.0
  0
VERTEX
  5
501
  8
LAYER_1
 10
26.81891017803559
 20
-67.9534575281702
 30
0.0
  0
VERTEX
  5
502
  8
LAYER_1
 10
27.02462248552099
 20
-67.9516007042659
 30
0.0
  0
VERTEX
  5
503
  8
LAYER_1
 10
27.23072486886781
 20
-67.92076738084114
 30
0.0
  0
VERTEX
  5
504
  8
LAYER_1
 10
27.43347214953799
 20
-67.86178033785197
 30
0.0
  0
VERTEX
  5
505
  8
LAYER_1
 10
27.6291191489935
 20
-67.77546235525435
 30
0.0
  0
VERTEX
  5
506
  8
LAYER_1
 10
27.81392068869631
 20
-67.66263621300429
 30
0.0
  0
VERTEX
  5
507
  8
LAYER_1
 10
27.9010840428473
 20
-67.59653970074585
 30
0.0
  0
VERTEX
  5
508
  8
LAYER_1
 10
27.98413159010836
 20
-67.5241246910578
 30
0.0
  0
VERTEX
  5
509
  8
LAYER_1
 10
28.04702406008444
 20
-67.46789744024773
 30
0.0
  0
VERTEX
  5
50A
  8
LAYER_1
 10
28.10380581025175
 20
-67.42540845348103
 30
0.0
  0
VERTEX
  5
50B
  8
LAYER_1
 10
28.16043910574152
 20
-67.39548792638904
 30
0.0
  0
VERTEX
  5
50C
  8
LAYER_1
 10
28.22288621168496
 20
-67.37696605460306
 30
0.0
  0
VERTEX
  5
50D
  8
LAYER_1
 10
28.29710939321331
 20
-67.36867303375442
 30
0.0
  0
VERTEX
  5
50E
  8
LAYER_1
 10
28.38907091545778
 20
-67.36943905947444
 30
0.0
  0
VERTEX
  5
50F
  8
LAYER_1
 10
28.65005804262002
 20
-67.39346903314579
 30
0.0
  0
VERTEX
  5
510
  8
LAYER_1
 10
28.90390981286976
 20
-67.42862858190841
 30
0.0
  0
VERTEX
  5
511
  8
LAYER_1
 10
28.99255006891562
 20
-67.44921152365691
 30
0.0
  0
VERTEX
  5
512
  8
LAYER_1
 10
29.06193442257074
 20
-67.47473243830706
 30
0.0
  0
VERTEX
  5
513
  8
LAYER_1
 10
29.11676376158153
 20
-67.50739322185146
 30
0.0
  0
VERTEX
  5
514
  8
LAYER_1
 10
29.16173897369445
 20
-67.54939577028273
 30
0.0
  0
VERTEX
  5
515
  8
LAYER_1
 10
29.24093056821238
 20
-67.67023374577636
 30
0.0
  0
VERTEX
  5
516
  8
LAYER_1
 10
29.31470055284037
 20
-67.79750038196119
 30
0.0
  0
VERTEX
  5
517
  8
LAYER_1
 10
29.39391845994407
 20
-67.9181943248536
 30
0.0
  0
VERTEX
  5
518
  8
LAYER_1
 10
29.47792873076401
 20
-68.03157934342856
 30
0.0
  0
VERTEX
  5
519
  8
LAYER_1
 10
29.56607580654072
 20
-68.13691920666095
 30
0.0
  0
VERTEX
  5
51A
  8
LAYER_1
 10
29.65770412851476
 20
-68.2334776835257
 30
0.0
  0
VERTEX
  5
51B
  8
LAYER_1
 10
29.75215813792666
 20
-68.32051854299772
 30
0.0
  0
VERTEX
  5
51C
  8
LAYER_1
 10
29.84878227601696
 20
-68.39730555405191
 30
0.0
  0
VERTEX
  5
51D
  8
LAYER_1
 10
29.94692098402621
 20
-68.46310248566321
 30
0.0
  0
VERTEX
  5
51E
  8
LAYER_1
 10
30.18750417977571
 20
-68.60952476180279
 30
0.0
  0
VERTEX
  5
51F
  8
LAYER_1
 10
32.06250425428152
 20
-68.91531476027647
 30
0.0
  0
VERTEX
  5
520
  8
LAYER_1
 10
32.73750428110361
 20
-69.00955925802643
 30
0.0
  0
VERTEX
  5
521
  8
LAYER_1
 10
34.61250435560942
 20
-69.2194362946398
 30
0.0
  0
VERTEX
  5
522
  8
LAYER_1
 10
34.90160235505068
 20
-69.13299514214606
 30
0.0
  0
VERTEX
  5
523
  8
LAYER_1
 10
34.97515797017803
 20
-69.10648324308028
 30
0.0
  0
VERTEX
  5
524
  8
LAYER_1
 10
35.05023430488881
 20
-69.07044409006356
 30
0.0
  0
VERTEX
  5
525
  8
LAYER_1
 10
35.20541162991616
 20
-68.96943305282561
 30
0.0
  0
VERTEX
  5
526
  8
LAYER_1
 10
35.36805932384377
 20
-68.82926009172897
 30
0.0
  0
VERTEX
  5
527
  8
LAYER_1
 10
35.53910238038266
 20
-68.64922326807043
 30
0.0
  0
VERTEX
  5
528
  8
LAYER_1
 10
35.74269782712889
 20
-68.42625368290663
 30
0.0
  0
VERTEX
  5
529
  8
LAYER_1
 10
35.82037838180595
 20
-68.35587609828583
 30
0.0
  0
VERTEX
  5
52A
  8
LAYER_1
 10
35.89199152280408
 20
-68.30743284845047
 30
0.0
  0
VERTEX
  5
52B
  8
LAYER_1
 10
35.96504527421206
 20
-68.27682108050908
 30
0.0
  0
VERTEX
  5
52C
  8
LAYER_1
 10
36.04704766011871
 20
-68.25993794157014
 30
0.0
  0
VERTEX
  5
52D
  8
LAYER_1
 10
36.26793043178331
 20
-68.25094613913383
 30
0.0
  0
VERTEX
  5
52E
  8
LAYER_1
 10
36.3893772580451
 20
-68.25218422616011
 30
0.0
  0
VERTEX
  5
52F
  8
LAYER_1
 10
36.48777918284486
 20
-68.25908422570157
 30
0.0
  0
VERTEX
  5
530
  8
LAYER_1
 10
36.57043611583917
 20
-68.27541419946552
 30
0.0
  0
VERTEX
  5
531
  8
LAYER_1
 10
36.64464796668463
 20
-68.30494220915925
 30
0.0
  0
VERTEX
  5
532
  8
LAYER_1
 10
36.71771464503783
 20
-68.35143631649008
 30
0.0
  0
VERTEX
  5
533
  8
LAYER_1
 10
36.79693606055534
 20
-68.41866458316534
 30
0.0
  0
VERTEX
  5
534
  8
LAYER_1
 10
37.00304274170966
 20
-68.63039584137826
 30
0.0
  0
VERTEX
  5
535
  8
LAYER_1
 10
37.16560738566781
 20
-68.78938387181178
 30
0.0
  0
VERTEX
  5
536
  8
LAYER_1
 10
37.34603820129406
 20
-68.9410708404877
 30
0.0
  0
VERTEX
  5
537
  8
LAYER_1
 10
37.52236479118145
 20
-69.06828124909809
 30
0.0
  0
SEQEND
  5
E67
  8
LAYER_1
  0
POLYLINE
  5
73
  8
LAYER_1
 66
     1
 10
0.0
 20
0.0
 30
0.0
 70
     1
  0
VERTEX
  5
538
  8
LAYER_1
 10
-16.53749767690897
 20
-67.1580108388606
 30
0.0
  0
VERTEX
  5
539
  8
LAYER_1
 10
-15.86249765008688
 20
-67.25433251447099
 30
0.0
  0
VERTEX
  5
53A
  8
LAYER_1
 10
-12.85110789454789
 20
-67.27499969303608
 30
0.0
  0
VERTEX
  5
53B
  8
LAYER_1
 10
-12.0693026814203
 20
-67.16434308351911
 30
0.0
  0
VERTEX
  5
53C
  8
LAYER_1
 10
-11.250068160622
 20
-67.04387335301132
 30
0.0
  0
VERTEX
  5
53D
  8
LAYER_1
 10
-10.61889685576263
 20
-66.93567298268714
 30
0.0
  0
VERTEX
  5
53E
  8
LAYER_1
 10
-10.01122714033363
 20
-66.80847246092306
 30
0.0
  0
VERTEX
  5
53F
  8
LAYER_1
 10
-9.262497387826443
 20
-66.63100227609553
 30
0.0
  0
VERTEX
  5
540
  8
LAYER_1
 10
-8.737497366964817
 20
-66.50305575219859
 30
0.0
  0
VERTEX
  5
541
  8
LAYER_1
 10
-7.687497325241566
 20
-66.21027346356405
 30
0.0
  0
VERTEX
  5
542
  8
LAYER_1
 10
-5.22439937920535
 20
-65.52756249514238
 30
0.0
  0
VERTEX
  5
543
  8
LAYER_1
 10
-3.64213305980706
 20
-65.10479083787747
 30
0.0
  0
VERTEX
  5
544
  8
LAYER_1
 10
-3.053144122528024
 20
-64.95801652933754
 30
0.0
  0
VERTEX
  5
545
  8
LAYER_1
 10
-2.530561926825534
 20
-64.83678818267728
 30
0.0
  0
VERTEX
  5
546
  8
LAYER_1
 10
-1.479549540039613
 20
-64.6183842204497
 30
0.0
  0
VERTEX
  5
547
  8
LAYER_1
 10
-0.1874970272183418
 20
-64.36313021123875
 30
0.0
  0
VERTEX
  5
548
  8
LAYER_1
 10
0.3375029936432838
 20
-64.31522863120692
 30
0.0
  0
VERTEX
  5
549
  8
LAYER_1
 10
0.7578545728465542
 20
-64.27108967662288
 30
0.0
  0
VERTEX
  5
54A
  8
LAYER_1
 10
1.031253021210432
 20
-64.23223440883787
 30
0.0
  0
VERTEX
  5
54B
  8
LAYER_1
 10
1.200003027915955
 20
-64.19714176650066
 30
0.0
  0
VERTEX
  5
54C
  8
LAYER_1
 10
1.200003027915955
 20
0.7969227026858903
 30
0.0
  0
VERTEX
  5
54D
  8
LAYER_1
 10
0.3187529928982258
 20
0.9252253586356431
 30
0.0
  0
VERTEX
  5
54E
  8
LAYER_1
 10
-1.162497065961361
 20
1.155876798955902
 30
0.0
  0
VERTEX
  5
54F
  8
LAYER_1
 10
-1.762497089803219
 20
1.258225583326421
 30
0.0
  0
VERTEX
  5
550
  8
LAYER_1
 10
-2.999997138977051
 20
1.560762424898812
 30
0.0
  0
VERTEX
  5
551
  8
LAYER_1
 10
-4.281559689901769
 20
1.887456949324083
 30
0.0
  0
VERTEX
  5
552
  8
LAYER_1
 10
-5.624997243285179
 20
2.248075028393814
 30
0.0
  0
VERTEX
  5
553
  8
LAYER_1
 10
-7.012497298419476
 20
2.632850790316411
 30
0.0
  0
VERTEX
  5
554
  8
LAYER_1
 10
-7.237497307360172
 20
2.701848926440206
 30
0.0
  0
VERTEX
  5
555
  8
LAYER_1
 10
-8.51249735802412
 20
3.065318149529404
 30
0.0
  0
VERTEX
  5
556
  8
LAYER_1
 10
-8.899797342023364
 20
3.168547537365974
 30
0.0
  0
VERTEX
  5
557
  8
LAYER_1
 10
-9.31210131914277
 20
3.269010586895841
 30
0.0
  0
VERTEX
  5
558
  8
LAYER_1
 10
-9.750138841768425
 20
3.366851033542726
 30
0.0
  0
VERTEX
  5
559
  8
LAYER_1
 10
-10.21463946228642
 20
3.462212612730346
 30
0.0
  0
VERTEX
  5
55A
  8
LAYER_1
 10
-11.22594820654375
 20
3.646074110422672
 30
0.0
  0
VERTEX
  5
55B
  8
LAYER_1
 10
-12.35186397100347
 20
3.821744963362576
 30
0.0
  0
VERTEX
  5
55C
  8
LAYER_1
 10
-12.89123045285262
 20
3.900003135204315
 30
0.0
  0
VERTEX
  5
55D
  8
LAYER_1
 10
-14.23163255433784
 20
3.900003135204315
 30
0.0
  0
VERTEX
  5
55E
  8
LAYER_1
 10
-14.84803371432872
 20
3.890752214211116
 30
0.0
  0
VERTEX
  5
55F
  8
LAYER_1
 10
-15.45946001980372
 20
3.862864741722872
 30
0.0
  0
VERTEX
  5
560
  8
LAYER_1
 10
-16.06753655362873
 20
3.816138653476611
 30
0.0
  0
VERTEX
  5
561
  8
LAYER_1
 10
-16.67388839866965
 20
3.750371885209363
 30
0.0
  0
VERTEX
  5
562
  8
LAYER_1
 10
-17.28014063779237
 20
3.665362372658158
 30
0.0
  0
VERTEX
  5
563
  8
LAYER_1
 10
-17.88791835386279
 20
3.560908051560024
 30
0.0
  0
VERTEX
  5
564
  8
LAYER_1
 10
-18.49884662974682
 20
3.436806857651992
 30
0.0
  0
VERTEX
  5
565
  8
LAYER_1
 10
-19.11455054831033
 20
3.29285672667109
 30
0.0
  0
VERTEX
  5
566
  8
LAYER_1
 10
-19.76249780505896
 20
3.131620263434783
 30
0.0
  0
VERTEX
  5
567
  8
LAYER_1
 10
-22.16249790042639
 20
2.457334394035129
 30
0.0
  0
VERTEX
  5
568
  8
LAYER_1
 10
-22.40624791011214
 20
2.391168733327277
 30
0.0
  0
VERTEX
  5
569
  8
LAYER_1
 10
-22.89374792948365
 20
2.254874353642506
 30
0.0
  0
VERTEX
  5
56A
  8
LAYER_1
 10
-23.75470719844508
 20
2.013237331445784
 30
0.0
  0
VERTEX
  5
56B
  8
LAYER_1
 10
-24.57900550692143
 20
1.794545123175084
 30
0.0
  0
VERTEX
  5
56C
  8
LAYER_1
 10
-25.37247022969415
 20
1.597514528617375
 30
0.0
  0
VERTEX
  5
56D
  8
LAYER_1
 10
-26.14092874154464
 20
1.420862347559625
 30
0.0
  0
VERTEX
  5
56E
  8
LAYER_1
 10
-26.89020841725434
 20
1.263305379788803
 30
0.0
  0
VERTEX
  5
56F
  8
LAYER_1
 10
-27.62613663160464
 20
1.123560425091878
 30
0.0
  0
VERTEX
  5
570
  8
LAYER_1
 10
-28.354540759377
 20
1.000344283255818
 30
0.0
  0
VERTEX
  5
571
  8
LAYER_1
 10
-29.08124817535281
 20
0.8923737540675916
 30
0.0
  0
VERTEX
  5
572
  8
LAYER_1
 10
-29.77499820291996
 20
0.7963132570736775
 30
0.0
  0
VERTEX
  5
573
  8
LAYER_1
 10
-29.77499820291996
 20
-64.19714176650075
 30
0.0
  0
VERTEX
  5
574
  8
LAYER_1
 10
-29.60624819621444
 20
-64.23169442660583
 30
0.0
  0
VERTEX
  5
575
  8
LAYER_1
 10
-29.34386537328828
 20
-64.2696845575143
 30
0.0
  0
VERTEX
  5
576
  8
LAYER_1
 10
-28.94999817013741
 20
-64.31250177508281
 30
0.0
  0
VERTEX
  5
577
  8
LAYER_1
 10
-28.6317289137516
 20
-64.34792690329589
 30
0.0
  0
VERTEX
  5
578
  8
LAYER_1
 10
-28.27264159383299
 20
-64.3973116351917
 30
0.0
  0
VERTEX
  5
579
  8
LAYER_1
 10
-27.4571241703534
 20
-64.53337015888587
 30
0.0
  0
VERTEX
  5
57A
  8
LAYER_1
 10
-26.55366871361072
 20
-64.71149784387421
 30
0.0
  0
VERTEX
  5
57B
  8
LAYER_1
 10
-25.61249803751707
 20
-64.92251518786557
 30
0.0
  0
VERTEX
  5
57C
  8
LAYER_1
 10
-24.78749800473452
 20
-65.11877769238248
 30
0.0
  0
VERTEX
  5
57D
  8
LAYER_1
 10
-21.0374978557229
 20
-66.16681786963426
 30
0.0
  0
VERTEX
  5
57E
  8
LAYER_1
 10
-20.58749783784151
 20
-66.28979682955402
 30
0.0
  0
VERTEX
  5
57F
  8
LAYER_1
 10
-19.53749779611826
 20
-66.55853872325658
 30
0.0
  0
VERTEX
  5
580
  8
LAYER_1
 10
-18.75238167406437
 20
-66.75062359294014
 30
0.0
  0
VERTEX
  5
581
  8
LAYER_1
 10
-18.03014400467508
 20
-66.90667730231463
 30
0.0
  0
VERTEX
  5
582
  8
LAYER_1
 10
-17.31158320120505
 20
-67.03852975106112
 30
0.0
  0
SEQEND
  5
E68
  8
LAYER_1
  0
POLYLINE
  5
74
  8
LAYER_1
 66
     1
 10
0.0
 20
0.0
 30
0.0
 70
     1
  0
VERTEX
  5
583
  8
LAYER_1
 10
33.79587296901107
 20
-34.78124840185046
 30
0.0
  0
VERTEX
  5
584
  8
LAYER_1
 10
33.86156290530469
 20
-34.93927712538111
 30
0.0
  0
VERTEX
  5
585
  8
LAYER_1
 10
33.89310576983186
 20
-34.99483626684929
 30
0.0
  0
VERTEX
  5
586
  8
LAYER_1
 10
33.92572473784904
 20
-35.03682254956264
 30
0.0
  0
VERTEX
  5
587
  8
LAYER_1
 10
33.96087793878354
 20
-35.0667839396036
 30
0.0
  0
VERTEX
  5
588
  8
LAYER_1
 10
34.0000235020627
 20
-35.08626840305458
 30
0.0
  0
VERTEX
  5
589
  8
LAYER_1
 10
34.04461955711383
 20
-35.09682390599805
 30
0.0
  0
VERTEX
  5
58A
  8
LAYER_1
 10
34.09612423336428
 20
-35.09999841451645
 30
0.0
  0
VERTEX
  5
58B
  8
LAYER_1
 10
34.17922640368558
 20
-35.08953511171194
 30
0.0
  0
VERTEX
  5
58C
  8
LAYER_1
 10
34.24821007645763
 20
-35.05859334391048
 30
0.0
  0
VERTEX
  5
58D
  8
LAYER_1
 10
34.30206443908229
 20
-35.00784532203015
 30
0.0
  0
VERTEX
  5
58E
  8
LAYER_1
 10
34.33977867896144
 20
-34.93796325698903
 30
0.0
  0
VERTEX
  5
58F
  8
LAYER_1
 10
34.37250234981431
 20
-34.85860989630049
 30
0.0
  0
VERTEX
  5
590
  8
LAYER_1
 10
34.39754353166479
 20
-34.82723905310903
 30
0.0
  0
VERTEX
  5
591
  8
LAYER_1
 10
34.40897456264025
 20
-34.82892350809671
 30
0.0
  0
VERTEX
  5
592
  8
LAYER_1
 10
34.42063461947642
 20
-34.84185531148505
 30
0.0
  0
VERTEX
  5
593
  8
LAYER_1
 10
34.44750800821269
 20
-34.90046325549891
 30
0.0
  0
VERTEX
  5
594
  8
LAYER_1
 10
34.47532563709797
 20
-34.95171277785024
 30
0.0
  0
VERTEX
  5
595
  8
LAYER_1
 10
34.51210402475613
 20
-34.98898762270555
 30
0.0
  0
VERTEX
  5
596
  8
LAYER_1
 10
34.55482845790473
 20
-35.0121686818978
 30
0.0
  0
VERTEX
  5
597
  8
LAYER_1
 10
34.60048422326132
 20
-35.02113684725991
 30
0.0
  0
VERTEX
  5
598
  8
LAYER_1
 10
34.64605660754341
 20
-35.01577301062483
 30
0.0
  0
VERTEX
  5
599
  8
LAYER_1
 10
34.68853089746858
 20
-34.9959580638255
 30
0.0
  0
VERTEX
  5
59A
  8
LAYER_1
 10
34.72489237975435
 20
-34.96157289869487
 30
0.0
  0
VERTEX
  5
59B
  8
LAYER_1
 10
34.75212634111827
 20
-34.91249840706587
 30
0.0
  0
VERTEX
  5
59C
  8
LAYER_1
 10
34.77742517797247
 20
-34.86881676470512
 30
0.0
  0
VERTEX
  5
59D
  8
LAYER_1
 10
34.81439525162736
 20
-34.83304527890868
 30
0.0
  0
VERTEX
  5
59E
  8
LAYER_1
 10
34.85807015582239
 20
-34.80887535607326
 30
0.0
  0
VERTEX
  5
59F
  8
LAYER_1
 10
34.90348348429701
 20
-34.79999840259552
 30
0.0
  0
VERTEX
  5
5A0
  8
LAYER_1
 10
34.96054597064195
 20
-34.78210588075068
 30
0.0
  0
VERTEX
  5
5A1
  8
LAYER_1
 10
35.03593887893933
 20
-34.73338861830184
 30
0.0
  0
VERTEX
  5
5A2
  8
LAYER_1
 10
35.11985159866572
 20
-34.66128706987757
 30
0.0
  0
VERTEX
  5
5A3
  8
LAYER_1
 10
35.20247351929764
 20
-34.57324169010641
 30
0.0
  0
VERTEX
  5
5A4
  8
LAYER_1
 10
35.39327671342343
 20
-34.34648497761729
 30
0.0
  0
VERTEX
  5
5A5
  8
LAYER_1
 10
35.47453135873998
 20
-34.64824169308664
 30
0.0
  0
VERTEX
  5
5A6
  8
LAYER_1
 10
35.51741259613397
 20
-34.77271753232689
 30
0.0
  0
VERTEX
  5
5A7
  8
LAYER_1
 10
35.5691662534725
 20
-34.86499858921276
 30
0.0
  0
VERTEX
  5
5A8
  8
LAYER_1
 10
35.62793477855085
 20
-34.92478854609932
 30
0.0
  0
VERTEX
  5
5A9
  8
LAYER_1
 10
35.65936913142848
 20
-34.94240676277882
 30
0.0
  0
VERTEX
  5
5AA
  8
LAYER_1
 10
35.69186061916428
 20
-34.95179108534165
 30
0.0
  0
VERTEX
  5
5AB
  8
LAYER_1
 10
35.72517704773266
 20
-34.9529044740822
 30
0.0
  0
VERTEX
  5
5AC
  8
LAYER_1
 10
35.75908622310803
 20
-34.94570988929485
 30
0.0
  0
VERTEX
  5
5AD
  8
LAYER_1
 10
35.82775403817735
 20
-34.90624864031398
 30
0.0
  0
VERTEX
  5
5AE
  8
LAYER_1
 10
35.89600651216749
 20
-34.83311102075412
 30
0.0
  0
VERTEX
  5
5AF
  8
LAYER_1
 10
35.96198609287372
 20
-34.72600071297034
 30
0.0
  0
VERTEX
  5
5B0
  8
LAYER_1
 10
36.07781980305199
 20
-34.5020030173847
 30
0.0
  0
VERTEX
  5
5B1
  8
LAYER_1
 10
36.37148918912362
 20
-33.43225066156133
 30
0.0
  0
VERTEX
  5
5B2
  8
LAYER_1
 10
36.66072191116889
 20
-32.33734535033137
 30
0.0
  0
VERTEX
  5
5B3
  8
LAYER_1
 10
36.94372442415589
 20
-31.20711886767936
 30
0.0
  0
VERTEX
  5
5B4
  8
LAYER_1
 10
37.22229027311656
 20
-30.05173942962077
 30
0.0
  0
VERTEX
  5
5B5
  8
LAYER_1
 10
40.95000460743904
 20
-22.50200520858255
 30
0.0
  0
VERTEX
  5
5B6
  8
LAYER_1
 10
40.95000460743904
 20
-22.41975155798141
 30
0.0
  0
VERTEX
  5
5B7
  8
LAYER_1
 10
40.95848058302178
 20
-22.36585389594277
 30
0.0
  0
VERTEX
  5
5B8
  8
LAYER_1
 10
40.9685303970747
 20
-22.35151442865988
 30
0.0
  0
VERTEX
  5
5B9
  8
LAYER_1
 10
40.9819701793682
 20
-22.3450883539205
 30
0.0
  0
VERTEX
  5
5BA
  8
LAYER_1
 10
41.01756590087561
 20
-22.35449783222979
 30
0.0
  0
VERTEX
  5
5BB
  8
LAYER_1
 10
41.06236025194129
 20
-22.39112523118587
 30
0.0
  0
VERTEX
  5
5BC
  8
LAYER_1
 10
41.11344573696256
 20
-22.45201345110392
 30
0.0
  0
VERTEX
  5
5BD
  8
LAYER_1
 10
41.16791486033672
 20
-22.53420539229915
 30
0.0
  0
VERTEX
  5
5BE
  8
LAYER_1
 10
41.22286012646105
 20
-22.63474395508677
 30
0.0
  0
VERTEX
  5
5BF
  8
LAYER_1
 10
41.27537403973287
 20
-22.75067203978198
 30
0.0
  0
VERTEX
  5
5C0
  8
LAYER_1
 10
41.42024502454255
 20
-23.10368002302232
 30
0.0
  0
VERTEX
  5
5C1
  8
LAYER_1
 10
40.97226559983189
 20
-23.57058899897726
 30
0.0
  0
VERTEX
  5
5C2
  8
LAYER_1
 10
40.77333651368279
 20
-23.79466155218014
 30
0.0
  0
VERTEX
  5
5C3
  8
LAYER_1
 10
40.60707411705727
 20
-24.02020657310959
 30
0.0
  0
VERTEX
  5
5C4
  8
LAYER_1
 10
40.53561824630678
 20
-24.13508845373041
 30
0.0
  0
VERTEX
  5
5C5
  8
LAYER_1
 10
40.4716394307263
 20
-24.25220708499325
 30
0.0
  0
VERTEX
  5
5C6
  8
LAYER_1
 10
40.41490779791222
 20
-24.37218534480155
 30
0.0
  0
VERTEX
  5
5C7
  8
LAYER_1
 10
40.36519347546091
 20
-24.49564611105878
 30
0.0
  0
VERTEX
  5
5C8
  8
LAYER_1
 10
40.32226659096874
 20
-24.62321226166839
 30
0.0
  0
VERTEX
  5
5C9
  8
LAYER_1
 10
40.28589727203209
 20
-24.75550667453383
 30
0.0
  0
VERTEX
  5
5CA
  8
LAYER_1
 10
40.23191184121085
 20
-25.03677179864605
 30
0.0
  0
VERTEX
  5
5CB
  8
LAYER_1
 10
40.20139820376818
 20
-25.3444245066231
 30
0.0
  0
VERTEX
  5
5CC
  8
LAYER_1
 10
40.19251738047511
 20
-25.68344782169261
 30
0.0
  0
VERTEX
  5
5CD
  8
LAYER_1
 10
40.20466625947366
 20
-25.99192542370826
 30
0.0
  0
VERTEX
  5
5CE
  8
LAYER_1
 10
40.23997851506718
 20
-26.26885858983308
 30
0.0
  0
VERTEX
  5
5CF
  8
LAYER_1
 10
40.26692208168912
 20
-26.39677335995289
 30
0.0
  0
VERTEX
  5
5D0
  8
LAYER_1
 10
40.30037789958224
 20
-26.51833484171975
 30
0.0
  0
VERTEX
  5
5D1
  8
LAYER_1
 10
40.34058643778741
 20
-26.63405397534024
 30
0.0
  0
VERTEX
  5
5D2
  8
LAYER_1
 10
40.38778816534542
 20
-26.74444170102097
 30
0.0
  0
VERTEX
  5
5D3
  8
LAYER_1
 10
40.4422235512971
 20
-26.85000895896849
 30
0.0
  0
VERTEX
  5
5D4
  8
LAYER_1
 10
40.50413306468326
 20
-26.95126668938942
 30
0.0
  0
VERTEX
  5
5D5
  8
LAYER_1
 10
40.57375717454474
 20
-27.04872583249033
 30
0.0
  0
VERTEX
  5
5D6
  8
LAYER_1
 10
40.65133634992233
 20
-27.14289732847782
 30
0.0
  0
VERTEX
  5
5D7
  8
LAYER_1
 10
40.73711105985689
 20
-27.23429211755846
 30
0.0
  0
VERTEX
  5
5D8
  8
LAYER_1
 10
40.83132177338921
 20
-27.32342113993884
 30
0.0
  0
VERTEX
  5
5D9
  8
LAYER_1
 10
41.04601308741044
 20
-27.49692564542519
 30
0.0
  0
VERTEX
  5
5DA
  8
LAYER_1
 10
41.28320409391718
 20
-27.66428501401958
 30
0.0
  0
VERTEX
  5
5DB
  8
LAYER_1
 10
41.51052832096297
 20
-27.81020642483499
 30
0.0
  0
VERTEX
  5
5DC
  8
LAYER_1
 10
41.72552766643231
 20
-27.9335700167591
 30
0.0
  0
VERTEX
  5
5DD
  8
LAYER_1
 10
41.92574402820971
 20
-28.03325592867959
 30
0.0
  0
VERTEX
  5
5DE
  8
LAYER_1
 10
42.10871930417962
 20
-28.10814429948415
 30
0.0
  0
VERTEX
  5
5DF
  8
LAYER_1
 10
42.27199539222654
 20
-28.15711526806043
 30
0.0
  0
VERTEX
  5
5E0
  8
LAYER_1
 10
42.41311419023497
 20
-28.17904897329612
 30
0.0
  0
VERTEX
  5
5E1
  8
LAYER_1
 10
42.47459644856366
 20
-28.17952689556365
 30
0.0
  0
VERTEX
  5
5E2
  8
LAYER_1
 10
42.52961759608939
 20
-28.1728255540789
 30
0.0
  0
VERTEX
  5
5E3
  8
LAYER_1
 10
42.75756578301997
 20
-28.12723591669279
 30
0.0
  0
VERTEX
  5
5E4
  8
LAYER_1
 10
43.38583396767889
 20
-27.63664846166719
 30
0.0
  0
VERTEX
  5
5E5
  8
LAYER_1
 10
43.6451450793724
 20
-27.42508046933059
 30
0.0
  0
VERTEX
  5
5E6
  8
LAYER_1
 10
43.85102354896633
 20
-27.23243564016799
 30
0.0
  0
VERTEX
  5
5E7
  8
LAYER_1
 10
43.93569228538424
 20
-27.13965776531831
 30
0.0
  0
VERTEX
  5
5E8
  8
LAYER_1
 10
44.00912295216719
 20
-27.04734870551175
 30
0.0
  0
VERTEX
  5
5E9
  8
LAYER_1
 10
44.07202224627851
 20
-26.95408780216487
 30
0.0
  0
VERTEX
  5
5EA
  8
LAYER_1
 10
44.1250968646815
 20
-26.85845439669421
 30
0.0
  0
VERTEX
  5
5EB
  8
LAYER_1
 10
44.16905350433946
 20
-26.7590278305163
 30
0.0
  0
VERTEX
  5
5EC
  8
LAYER_1
 10
44.20459886221573
 20
-26.6543874450477
 30
0.0
  0
VERTEX
  5
5ED
  8
LAYER_1
 10
44.23243963527361
 20
-26.54311258170493
 30
0.0
  0
VERTEX
  5
5EE
  8
LAYER_1
 10
44.25328252047641
 20
-26.42378258190456
 30
0.0
  0
VERTEX
  5
5EF
  8
LAYER_1
 10
44.27680141517004
 20
-26.15527453859713
 30
0.0
  0
VERTEX
  5
5F0
  8
LAYER_1
 10
44.28080912200312
 20
-25.83749804645777
 30
0.0
  0
VERTEX
  5
5F1
  8
LAYER_1
 10
44.27217615371801
 20
-25.57596230854443
 30
0.0
  0
VERTEX
  5
5F2
  8
LAYER_1
 10
44.25212606375763
 20
-25.32913560585352
 30
0.0
  0
VERTEX
  5
5F3
  8
LAYER_1
 10
44.22042597350728
 20
-25.09664434495865
 30
0.0
  0
VERTEX
  5
5F4
  8
LAYER_1
 10
44.17684300435221
 20
-24.87811493243348
 30
0.0
  0
VERTEX
  5
5F5
  8
LAYER_1
 10
44.12114427767772
 20
-24.67317377485162
 30
0.0
  0
VERTEX
  5
5F6
  8
LAYER_1
 10
44.0530969148691
 20
-24.48144727878669
 30
0.0
  0
VERTEX
  5
5F7
  8
LAYER_1
 10
43.97246803731163
 20
-24.30256185081232
 30
0.0
  0
VERTEX
  5
5F8
  8
LAYER_1
 10
43.87902476639057
 20
-24.13614389750214
 30
0.0
  0
VERTEX
  5
5F9
  8
LAYER_1
 10
43.77253422349123
 20
-23.98181982542979
 30
0.0
  0
VERTEX
  5
5FA
  8
LAYER_1
 10
43.65276352999888
 20
-23.83921604116888
 30
0.0
  0
VERTEX
  5
5FB
  8
LAYER_1
 10
43.51947980729879
 20
-23.70795895129305
 30
0.0
  0
VERTEX
  5
5FC
  8
LAYER_1
 10
43.37245017677627
 20
-23.58767496237592
 30
0.0
  0
VERTEX
  5
5FD
  8
LAYER_1
 10
43.21144175981658
 20
-23.47799048099112
 30
0.0
  0
VERTEX
  5
5FE
  8
LAYER_1
 10
43.03622167780502
 20
-23.37853191371228
 30
0.0
  0
VERTEX
  5
5FF
  8
LAYER_1
 10
42.84655705212684
 20
-23.28892566711302
 30
0.0
  0
VERTEX
  5
600
  8
LAYER_1
 10
42.64221500416735
 20
-23.20879814776697
 30
0.0
  0
VERTEX
  5
601
  8
LAYER_1
 10
42.18750465661287
 20
-23.04664919655481
 30
0.0
  0
VERTEX
  5
602
  8
LAYER_1
 10
41.39137628001761
 20
-21.56249787658453
 30
0.0
  0
VERTEX
  5
603
  8
LAYER_1
 10
43.31019796643699
 20
-17.69999772310257
 30
0.0
  0
VERTEX
  5
604
  8
LAYER_1
 10
43.35841798208877
 20
-17.69999772310257
 30
0.0
  0
VERTEX
  5
605
  8
LAYER_1
 10
43.38483197316431
 20
-17.70926488723672
 30
0.0
  0
VERTEX
  5
606
  8
LAYER_1
 10
43.42110544472049
 20
-17.7344972648297
 30
0.0
  0
VERTEX
  5
607
  8
LAYER_1
 10
43.50410889672827
 20
-17.81744297153536
 30
0.0
  0
VERTEX
  5
608
  8
LAYER_1
 10
43.56538216464098
 20
-17.88004299100075
 30
0.0
  0
VERTEX
  5
609
  8
LAYER_1
 10
43.64184669749363
 20
-17.94039159474184
 30
0.0
  0
VERTEX
  5
60A
  8
LAYER_1
 10
43.72957339684161
 20
-17.99661010872301
 30
0.0
  0
VERTEX
  5
60B
  8
LAYER_1
 10
43.82463316424032
 20
-18.04681985890867
 30
0.0
  0
VERTEX
  5
60C
  8
LAYER_1
 10
43.92309690124517
 20
-18.0891421712632
 30
0.0
  0
VERTEX
  5
60D
  8
LAYER_1
 10
44.02103550941153
 20
-18.121698371751
 30
0.0
  0
VERTEX
  5
60E
  8
LAYER_1
 10
44.11451989029482
 20
-18.14260978633645
 30
0.0
  0
VERTEX
  5
60F
  8
LAYER_1
 10
44.19962094545041
 20
-18.14999774098396
 30
0.0
  0
VERTEX
  5
610
  8
LAYER_1
 10
44.27090936422881
 20
-18.14505697258213
 30
0.0
  0
VERTEX
  5
611
  8
LAYER_1
 10
44.35548422195098
 20
-18.13000273314728
 30
0.0
  0
VERTEX
  5
612
  8
LAYER_1
 10
44.5685568881094
 20
-18.06816223580232
 30
0.0
  0
VERTEX
  5
613
  8
LAYER_1
 10
44.84696621169137
 20
-17.96169303819677
 30
0.0
  0
VERTEX
  5
614
  8
LAYER_1
 10
45.19883946046257
 20
-17.80781192957827
 30
0.0
  0
VERTEX
  5
615
  8
LAYER_1
 10
45.38730376445241
 20
-17.7316681462548
 30
0.0
  0
VERTEX
  5
616
  8
LAYER_1
 10
45.46140869294089
 20
-17.70850493783229
 30
0.0
  0
VERTEX
  5
617
  8
LAYER_1
 10
45.50854581922903
 20
-17.69999772310257
 30
0.0
  0
VERTEX
  5
618
  8
LAYER_1
 10
45.56019508346992
 20
-17.67752129733136
 30
0.0
  0
VERTEX
  5
619
  8
LAYER_1
 10
45.64658553608722
 20
-17.61632310835036
 30
0.0
  0
VERTEX
  5
61A
  8
LAYER_1
 10
45.75567860258964
 20
-17.52574978865848
 30
0.0
  0
VERTEX
  5
61B
  8
LAYER_1
 10
45.87543570848597
 20
-17.41514797075463
 30
0.0
  0
VERTEX
  5
61C
  8
LAYER_1
 10
45.95087861719126
 20
-17.33650240929783
 30
0.0
  0
VERTEX
  5
61D
  8
LAYER_1
 10
46.02149472394876
 20
-17.25169030808662
 30
0.0
  0
VERTEX
  5
61E
  8
LAYER_1
 10
46.14821771837203
 20
-17.06365818991032
 30
0.0
  0
VERTEX
  5
61F
  8
LAYER_1
 10
46.25554706525912
 20
-16.85123502324437
 30
0.0
  0
VERTEX
  5
620
  8
LAYER_1
 10
46.34342513811339
 20
-16.61460421510742
 30
0.0
  0
VERTEX
  5
621
  8
LAYER_1
 10
46.41179431043818
 20
-16.35394917251809
 30
0.0
  0
VERTEX
  5
622
  8
LAYER_1
 10
46.46059695573688
 20
-16.06945330249503
 30
0.0
  0
VERTEX
  5
623
  8
LAYER_1
 10
46.4897754475128
 20
-15.76130001205687
 30
0.0
  0
VERTEX
  5
624
  8
LAYER_1
 10
46.49927215926932
 20
-15.42967270822226
 30
0.0
  0
VERTEX
  5
625
  8
LAYER_1
 10
46.49167709532274
 20
-15.05980172834159
 30
0.0
  0
VERTEX
  5
626
  8
LAYER_1
 10
46.48074314702444
 20
-14.9154123002473
 30
0.0
  0
VERTEX
  5
627
  8
LAYER_1
 10
46.46346266199577
 20
-14.78892264040889
 30
0.0
  0
VERTEX
  5
628
  8
LAYER_1
 10
46.43864394585145
 20
-14.67348454409526
 30
0.0
  0
VERTEX
  5
629
  8
LAYER_1
 10
46.40509530420622
 20
-14.56224980657533
 30
0.0
  0
VERTEX
  5
62A
  8
LAYER_1
 10
46.30704146687191
 20
-14.32499758899212
 30
0.0
  0
VERTEX
  5
62B
  8
LAYER_1
 10
46.21845306408182
 20
-14.14990939530117
 30
0.0
  0
VERTEX
  5
62C
  8
LAYER_1
 10
46.11880861285924
 20
-13.97811760528929
 30
0.0
  0
VERTEX
  5
62D
  8
LAYER_1
 10
46.02031044460867
 20
-13.8293626352638
 30
0.0
  0
VERTEX
  5
62E
  8
LAYER_1
 10
45.93516089073461
 20
-13.72338490153195
 30
0.0
  0
VERTEX
  5
62F
  8
LAYER_1
 10
45.75477833828781
 20
-13.53427223046307
 30
0.0
  0
VERTEX
  5
630
  8
LAYER_1
 10
46.13453372029532
 20
-12.97338487172963
 30
0.0
  0
VERTEX
  5
631
  8
LAYER_1
 10
46.44387205621342
 20
-12.5263016850574
 30
0.0
  0
VERTEX
  5
632
  8
LAYER_1
 10
46.76049104916753
 20
-12.08849847479205
 30
0.0
  0
VERTEX
  5
633
  8
LAYER_1
 10
47.0896067622586
 20
-11.65292031216867
 30
0.0
  0
VERTEX
  5
634
  8
LAYER_1
 10
47.43643525858758
 20
-11.21251226842233
 30
0.0
  0
VERTEX
  5
635
  8
LAYER_1
 10
47.73750487715006
 20
-10.837527056631
 30
0.0
  0
VERTEX
  5
636
  8
LAYER_1
 10
49.16250493377447
 20
-9.18749738484621
 30
0.0
  0
VERTEX
  5
637
  8
LAYER_1
 10
49.30208686551514
 20
-9.037497378885746
 30
0.0
  0
VERTEX
  5
638
  8
LAYER_1
 10
49.47294722533591
 20
-8.847423553219969
 30
0.0
  0
VERTEX
  5
639
  8
LAYER_1
 10
49.62532340545683
 20
-8.663272454995735
 30
0.0
  0
VERTEX
  5
63A
  8
LAYER_1
 10
49.75965930054544
 20
-8.48303798008411
 30
0.0
  0
VERTEX
  5
63B
  8
LAYER_1
 10
49.8763988052693
 20
-8.30471402435617
 30
0.0
  0
VERTEX
  5
63C
  8
LAYER_1
 10
49.97598581429595
 20
-8.126294483682983
 30
0.0
  0
VERTEX
  5
63D
  8
LAYER_1
 10
50.05886422229295
 20
-7.945773253935622
 30
0.0
  0
VERTEX
  5
63E
  8
LAYER_1
 10
50.12547792392784
 20
-7.761144230985158
 30
0.0
  0
VERTEX
  5
63F
  8
LAYER_1
 10
50.17627081386817
 20
-7.570401310702664
 30
0.0
  0
VERTEX
  5
640
  8
LAYER_1
 10
50.21168678678148
 20
-7.371538388959211
 30
0.0
  0
VERTEX
  5
641
  8
LAYER_1
 10
50.23216973733534
 20
-7.162549361625867
 30
0.0
  0
VERTEX
  5
642
  8
LAYER_1
 10
50.23816356019728
 20
-6.941428124573708
 30
0.0
  0
VERTEX
  5
643
  8
LAYER_1
 10
50.23011215003485
 20
-6.706168573673802
 30
0.0
  0
VERTEX
  5
644
  8
LAYER_1
 10
50.2084594015156
 20
-6.454764604797221
 30
0.0
  0
VERTEX
  5
645
  8
LAYER_1
 10
50.17364920930707
 20
-6.185210113815037
 30
0.0
  0
VERTEX
  5
646
  8
LAYER_1
 10
50.12612546807683
 20
-5.895498996598322
 30
0.0
  0
VERTEX
  5
647
  8
LAYER_1
 10
50.0663320724924
 20
-5.583625149018147
 30
0.0
  0
VERTEX
  5
648
  8
LAYER_1
 10
49.97735230228491
 20
-5.117550113771142
 30
0.0
  0
VERTEX
  5
649
  8
LAYER_1
 10
49.9077764366299
 20
-4.691276545537439
 30
0.0
  0
VERTEX
  5
64A
  8
LAYER_1
 10
49.85774159821487
 20
-4.306931442569753
 30
0.0
  0
VERTEX
  5
64B
  8
LAYER_1
 10
49.82738490972733
 20
-3.966641803120801
 30
0.0
  0
VERTEX
  5
64C
  8
LAYER_1
 10
49.8168434938548
 20
-3.672534625443299
 30
0.0
  0
VERTEX
  5
64D
  8
LAYER_1
 10
49.82625447328479
 20
-3.426736907789961
 30
0.0
  0
VERTEX
  5
64E
  8
LAYER_1
 10
49.85575497070481
 20
-3.231375648413506
 30
0.0
  0
VERTEX
  5
64F
  8
LAYER_1
 10
49.87808163950092
 20
-3.153273377533082
 30
0.0
  0
VERTEX
  5
650
  8
LAYER_1
 10
49.90548210880236
 20
-3.088577845566647
 30
0.0
  0
VERTEX
  5
651
  8
LAYER_1
 10
49.97102956532319
 20
-2.946522701361983
 30
0.0
  0
VERTEX
  5
652
  8
LAYER_1
 10
49.98717117712694
 20
-2.887330770856527
 30
0.0
  0
VERTEX
  5
653
  8
LAYER_1
 10
49.99214481162623
 20
-2.828315270514581
 30
0.0
  0
VERTEX
  5
654
  8
LAYER_1
 10
49.98589054407105
 20
-2.763690702160338
 30
0.0
  0
VERTEX
  5
655
  8
LAYER_1
 10
49.96834844971137
 20
-2.687671567617992
 30
0.0
  0
VERTEX
  5
656
  8
LAYER_1
 10
49.89916108157844
 20
-2.478307607265762
 30
0.0
  0
VERTEX
  5
657
  8
LAYER_1
 10
49.76809186592875
 20
-2.109273764594832
 30
0.0
  0
VERTEX
  5
658
  8
LAYER_1
 10
49.96558748722715
 20
-1.926241000073745
 30
0.0
  0
VERTEX
  5
659
  8
LAYER_1
 10
50.02120749161131
 20
-1.86880052366174
 30
0.0
  0
VERTEX
  5
65A
  8
LAYER_1
 10
50.07034011326868
 20
-1.804905833080732
 30
0.0
  0
VERTEX
  5
65B
  8
LAYER_1
 10
50.11305675478596
 20
-1.733471766415837
 30
0.0
  0
VERTEX
  5
65C
  8
LAYER_1
 10
50.1494288187498
 20
-1.653413161752173
 30
0.0
  0
VERTEX
  5
65D
  8
LAYER_1
 10
50.17952770774689
 20
-1.563644857174854
 30
0.0
  0
VERTEX
  5
65E
  8
LAYER_1
 10
50.20342482436389
 20
-1.463081690769
 30
0.0
  0
VERTEX
  5
65F
  8
LAYER_1
 10
50.2211915711875
 20
-1.350638500619725
 30
0.0
  0
VERTEX
  5
660
  8
LAYER_1
 10
50.23289935080438
 20
-1.225230124812146
 30
0.0
  0
VERTEX
  5
661
  8
LAYER_1
 10
50.23842361876468
 20
-0.9311771685625463
 30
0.0
  0
VERTEX
  5
662
  8
LAYER_1
 10
50.22056884893823
 20
-0.5722415267011329
 30
0.0
  0
VERTEX
  5
663
  8
LAYER_1
 10
50.17990626201841
 20
-0.1397419039088397
 30
0.0
  0
VERTEX
  5
664
  8
LAYER_1
 10
50.11700707869863
 20
0.3750029951334
 30
0.0
  0
VERTEX
  5
665
  8
LAYER_1
 10
50.08128702720509
 20
0.6074486799587453
 30
0.0
  0
VERTEX
  5
666
  8
LAYER_1
 10
50.06150752468857
 20
0.681469886847827
 30
0.0
  0
VERTEX
  5
667
  8
LAYER_1
 10
50.03632554156637
 20
0.7334024228714018
 30
0.0
  0
VERTEX
  5
668
  8
LAYER_1
 10
50.0026489557691
 20
0.7677806026421343
 30
0.0
  0
VERTEX
  5
669
  8
LAYER_1
 10
49.95738564522738
 20
0.7891387407726895
 30
0.0
  0
VERTEX
  5
66A
  8
LAYER_1
 10
49.81973036163303
 20
0.8109321505639286
 30
0.0
  0
VERTEX
  5
66B
  8
LAYER_1
 10
49.71383194853561
 20
0.832024351532713
 30
0.0
  0
VERTEX
  5
66C
  8
LAYER_1
 10
49.61423073152849
 20
0.871976499444445
 30
0.0
  0
VERTEX
  5
66D
  8
LAYER_1
 10
49.52914785539551
 20
0.926579506210145
 30
0.0
  0
VERTEX
  5
66E
  8
LAYER_1
 10
49.46680446492047
 20
0.9916242837408333
 30
0.0
  0
VERTEX
  5
66F
  8
LAYER_1
 10
49.40492812084611
 20
1.07036916297334
 30
0.0
  0
VERTEX
  5
670
  8
LAYER_1
 10
49.37894920661496
 20
1.092438030058392
 30
0.0
  0
VERTEX
  5
671
  8
LAYER_1
 10
49.35403664610799
 20
1.10347896364863
 30
0.0
  0
VERTEX
  5
672
  8
LAYER_1
 10
49.32851057571529
 20
1.103872799888543
 30
0.0
  0
VERTEX
  5
673
  8
LAYER_1
 10
49.30069113182698
 20
1.094000374922619
 30
0.0
  0
VERTEX
  5
674
  8
LAYER_1
 10
49.23145266912395
 20
1.044980085951224
 30
0.0
  0
VERTEX
  5
675
  8
LAYER_1
 10
49.16683272001404
 20
1.006313898006339
 30
0.0
  0
VERTEX
  5
676
  8
LAYER_1
 10
49.08343961949695
 20
0.9778462646640236
 30
0.0
  0
VERTEX
  5
677
  8
LAYER_1
 10
48.99203786039386
 20
0.9622884316527953
 30
0.0
  0
VERTEX
  5
678
  8
LAYER_1
 10
48.90339193552597
 20
0.9623516447011724
 30
0.0
  0
VERTEX
  5
679
  8
LAYER_1
 10
48.81407256833367
 20
0.9636479802131179
 30
0.0
  0
VERTEX
  5
67A
  8
LAYER_1
 10
48.73469379585869
 20
0.9467255990158912
 30
0.0
  0
VERTEX
  5
67B
  8
LAYER_1
 10
48.66401942042289
 20
0.910168251508658
 30
0.0
  0
VERTEX
  5
67C
  8
LAYER_1
 10
48.60081324434815
 20
0.8525596880905848
 30
0.0
  0
VERTEX
  5
67D
  8
LAYER_1
 10
48.54383906995629
 20
0.7724836591608375
 30
0.0
  0
VERTEX
  5
67E
  8
LAYER_1
 10
48.4918606995692
 20
0.668523915118582
 30
0.0
  0
VERTEX
  5
67F
  8
LAYER_1
 10
48.44364193550872
 20
0.5392642063629847
 30
0.0
  0
VERTEX
  5
680
  8
LAYER_1
 10
48.39794658009671
 20
0.3832882832932114
 30
0.0
  0
VERTEX
  5
681
  8
LAYER_1
 10
48.35499515679636
 20
0.1899877409038954
 30
0.0
  0
VERTEX
  5
682
  8
LAYER_1
 10
48.32623251475942
 20
-0.0109636406101941
 30
0.0
  0
VERTEX
  5
683
  8
LAYER_1
 10
48.31166036791524
 20
-0.2196220814718852
 30
0.0
  0
VERTEX
  5
684
  8
LAYER_1
 10
48.31128043019318
 20
-0.436043801904006
 30
0.0
  0
VERTEX
  5
685
  8
LAYER_1
 10
48.32509441552259
 20
-0.6602850221293848
 30
0.0
  0
VERTEX
  5
686
  8
LAYER_1
 10
48.35310403783283
 20
-0.8924019623708497
 30
0.0
  0
VERTEX
  5
687
  8
LAYER_1
 10
48.39531101105327
 20
-1.132450842851229
 30
0.0
  0
VERTEX
  5
688
  8
LAYER_1
 10
48.45171704911324
 20
-1.38048788379335
 30
0.0
  0
VERTEX
  5
689
  8
LAYER_1
 10
48.56339972263
 20
-1.781743077773403
 30
0.0
  0
VERTEX
  5
68A
  8
LAYER_1
 10
48.61383243091326
 20
-1.920535075756081
 30
0.0
  0
VERTEX
  5
68B
  8
LAYER_1
 10
48.6641474737927
 20
-2.024065275420478
 30
0.0
  0
VERTEX
  5
68C
  8
LAYER_1
 10
48.71696091645305
 20
-2.096805127531555
 30
0.0
  0
VERTEX
  5
68D
  8
LAYER_1
 10
48.77488882407901
 20
-2.143226082854275
 30
0.0
  0
VERTEX
  5
68E
  8
LAYER_1
 10
48.84054726185528
 20
-2.167799592153601
 30
0.0
  0
VERTEX
  5
68F
  8
LAYER_1
 10
48.91655229496658
 20
-2.174997106194496
 30
0.0
  0
VERTEX
  5
690
  8
LAYER_1
 10
48.96201931098854
 20
-2.177282293201217
 30
0.0
  0
VERTEX
  5
691
  8
LAYER_1
 10
48.99616685651621
 20
-2.186898187238762
 30
0.0
  0
VERTEX
  5
692
  8
LAYER_1
 10
49.01986160777631
 20
-2.207985287833203
 30
0.0
  0
VERTEX
  5
693
  8
LAYER_1
 10
49.03397024099551
 20
-2.244684094510616
 30
0.0
  0
VERTEX
  5
694
  8
LAYER_1
 10
49.0393594324005
 20
-2.301135106797072
 30
0.0
  0
VERTEX
  5
695
  8
LAYER_1
 10
49.03689585821795
 20
-2.381478824218647
 30
0.0
  0
VERTEX
  5
696
  8
LAYER_1
 10
49.01187711799697
 20
-2.630406372571443
 30
0.0
  0
VERTEX
  5
697
  8
LAYER_1
 10
48.98946953175724
 20
-2.873411613097078
 30
0.0
  0
VERTEX
  5
698
  8
LAYER_1
 10
48.98817962131729
 20
-2.962047165646249
 30
0.0
  0
VERTEX
  5
699
  8
LAYER_1
 10
48.9943886656901
 20
-3.034524744583079
 30
0.0
  0
VERTEX
  5
69A
  8
LAYER_1
 10
49.00876393964531
 20
-3.095159403555137
 30
0.0
  0
VERTEX
  5
69B
  8
LAYER_1
 10
49.03197271795251
 20
-3.148266196209991
 30
0.0
  0
VERTEX
  5
69C
  8
LAYER_1
 10
49.10755988670141
 20
-3.249156397158359
 30
0.0
  0
VERTEX
  5
69D
  8
LAYER_1
 10
49.14974252977262
 20
-3.302802608166531
 30
0.0
  0
VERTEX
  5
69E
  8
LAYER_1
 10
49.18451332294293
 20
-3.365946395657042
 30
0.0
  0
VERTEX
  5
69F
  8
LAYER_1
 10
49.21297623338265
 20
-3.44449381253903
 30
0.0
  0
VERTEX
  5
6A0
  8
LAYER_1
 10
49.23623522826207
 20
-3.544350911721635
 30
0.0
  0
VERTEX
  5
6A1
  8
LAYER_1
 10
49.27155734002125
 20
-3.831618368625249
 30
0.0
  0
VERTEX
  5
6A2
  8
LAYER_1
 10
49.29931139558292
 20
-4.274997189640999
 30
0.0
  0
VERTEX
  5
6A3
  8
LAYER_1
 10
49.33002089740566
 20
-4.697379006257607
 30
0.0
  0
VERTEX
  5
6A4
  8
LAYER_1
 10
49.37871356934508
 20
-5.09136746386695
 30
0.0
  0
VERTEX
  5
6A5
  8
LAYER_1
 10
49.44608553134351
 20
-5.461545799637008
 30
0.0
  0
VERTEX
  5
6A6
  8
LAYER_1
 10
49.53283290334332
 20
-5.81249725073576
 30
0.0
  0
VERTEX
  5
6A7
  8
LAYER_1
 10
49.59394207046677
 20
-6.042128093217272
 30
0.0
  0
VERTEX
  5
6A8
  8
LAYER_1
 10
49.64343324154478
 20
-6.257838199669317
 30
0.0
  0
VERTEX
  5
6A9
  8
LAYER_1
 10
49.68103404746366
 20
-6.460938096792982
 30
0.0
  0
VERTEX
  5
6AA
  8
LAYER_1
 10
49.70647211910975
 20
-6.65273831128936
 30
0.0
  0
VERTEX
  5
6AB
  8
LAYER_1
 10
49.71947508736937
 20
-6.834549369859539
 30
0.0
  0
VERTEX
  5
6AC
  8
LAYER_1
 10
49.71977058312884
 20
-7.007681799204612
 30
0.0
  0
VERTEX
  5
6AD
  8
LAYER_1
 10
49.7070862372745
 20
-7.173446126025666
 30
0.0
  0
VERTEX
  5
6AE
  8
LAYER_1
 10
49.68114968069266
 20
-7.333152877023792
 30
0.0
  0
VERTEX
  5
6AF
  8
LAYER_1
 10
49.64168854426964
 20
-7.488112578900082
 30
0.0
  0
VERTEX
  5
6B0
  8
LAYER_1
 10
49.58843045889179
 20
-7.639635758355624
 30
0.0
  0
VERTEX
  5
6B1
  8
LAYER_1
 10
49.52110305544542
 20
-7.789032942091509
 30
0.0
  0
VERTEX
  5
6B2
  8
LAYER_1
 10
49.43943396481686
 20
-7.937614656808828
 30
0.0
  0
VERTEX
  5
6B3
  8
LAYER_1
 10
49.34315081789242
 20
-8.08669142920867
 30
0.0
  0
VERTEX
  5
6B4
  8
LAYER_1
 10
49.23198124555845
 20
-8.237573785992124
 30
0.0
  0
VERTEX
  5
6B5
  8
LAYER_1
 10
49.10565287870126
 20
-8.391572253860284
 30
0.0
  0
VERTEX
  5
6B6
  8
LAYER_1
 10
48.96389334820718
 20
-8.549997359514236
 30
0.0
  0
VERTEX
  5
6B7
  8
LAYER_1
 10
48.56608209112674
 20
-8.989228169333412
 30
0.0
  0
VERTEX
  5
6B8
  8
LAYER_1
 10
48.15883631850107
 20
-9.459385363017871
 30
0.0
  0
VERTEX
  5
6B9
  8
LAYER_1
 10
47.74872518371398
 20
-9.952121290893121
 30
0.0
  0
VERTEX
  5
6BA
  8
LAYER_1
 10
47.34231784014924
 20
-10.45908830328467
 30
0.0
  0
VERTEX
  5
6BB
  8
LAYER_1
 10
46.94618344119065
 20
-10.97193875051804
 30
0.0
  0
VERTEX
  5
6BC
  8
LAYER_1
 10
46.56689114022198
 20
-11.48232498291871
 30
0.0
  0
VERTEX
  5
6BD
  8
LAYER_1
 10
46.21101009062703
 20
-11.98189935081222
 30
0.0
  0
VERTEX
  5
6BE
  8
LAYER_1
 10
45.88510944578958
 20
-12.46231420452406
 30
0.0
  0
VERTEX
  5
6BF
  8
LAYER_1
 10
45.45649969103117
 20
-13.11213091989378
 30
0.0
  0
VERTEX
  5
6C0
  8
LAYER_1
 10
45.37352624024686
 20
-13.16341133264235
 30
0.0
  0
VERTEX
  5
6C1
  8
LAYER_1
 10
45.33019785173691
 20
-13.1732669188497
 30
0.0
  0
VERTEX
  5
6C2
  8
LAYER_1
 10
45.27356120251859
 20
-13.16219327914851
 30
0.0
  0
VERTEX
  5
6C3
  8
LAYER_1
 10
45.21095942171355
 20
-13.13268932683032
 30
0.0
  0
VERTEX
  5
6C4
  8
LAYER_1
 10
45.14973563844349
 20
-13.08725397518662
 30
0.0
  0
VERTEX
  5
6C5
  8
LAYER_1
 10
45.00891848742442
 20
-12.95981620498232
 30
0.0
  0
VERTEX
  5
6C6
  8
LAYER_1
 10
44.0478715417722
 20
-10.98026534788802
 30
0.0
  0
VERTEX
  5
6C7
  8
LAYER_1
 10
43.81726073964194
 20
-10.66191638507917
 30
0.0
  0
VERTEX
  5
6C8
  8
LAYER_1
 10
43.58918273343176
 20
-10.36226734328719
 30
0.0
  0
VERTEX
  5
6C9
  8
LAYER_1
 10
43.3651885529026
 20
-10.10029114753825
 30
0.0
  0
VERTEX
  5
6CA
  8
LAYER_1
 10
43.14117729328999
 20
-9.872769102509084
 30
0.0
  0
VERTEX
  5
6CB
  8
LAYER_1
 10
42.91304804982945
 20
-9.676482512876445
 30
0.0
  0
VERTEX
  5
6CC
  8
LAYER_1
 10
42.67669991775649
 20
-9.50821268331708
 30
0.0
  0
VERTEX
  5
6CD
  8
LAYER_1
 10
42.42803199230663
 20
-9.364740918507731
 30
0.0
  0
VERTEX
  5
6CE
  8
LAYER_1
 10
42.16294336871539
 20
-9.24284852312515
 30
0.0
  0
VERTEX
  5
6CF
  8
LAYER_1
 10
41.87733314221829
 20
-9.139316801846078
 30
0.0
  0
VERTEX
  5
6D0
  8
LAYER_1
 10
41.35032578888806
 20
-8.968267684271297
 30
0.0
  0
VERTEX
  5
6D1
  8
LAYER_1
 10
41.33814695394578
 20
-8.962497375905514
 30
0.0
  0
VERTEX
  5
6D2
  8
LAYER_1
 10
42.30337370408166
 20
-4.312497191131115
 30
0.0
  0
VERTEX
  5
6D3
  8
LAYER_1
 10
42.52034705349615
 20
-3.187497146427631
 30
0.0
  0
VERTEX
  5
6D4
  8
LAYER_1
 10
42.60228296715319
 20
-2.735565142856034
 30
0.0
  0
VERTEX
  5
6D5
  8
LAYER_1
 10
42.68373723764046
 20
-2.230548000409191
 30
0.0
  0
VERTEX
  5
6D6
  8
LAYER_1
 10
42.76546412487758
 20
-1.666451785176615
 30
0.0
  0
VERTEX
  5
6D7
  8
LAYER_1
 10
42.84821788878414
 20
-1.037282563247823
 30
0.0
  0
VERTEX
  5
6D8
  8
LAYER_1
 10
43.01982308628399
 20
0.4402506363403498
 30
0.0
  0
VERTEX
  5
6D9
  8
LAYER_1
 10
43.2045869094968
 20
2.250003069639206
 30
0.0
  0
VERTEX
  5
6DA
  8
LAYER_1
 10
43.34655620798904
 20
3.712503127753735
 30
0.0
  0
VERTEX
  5
6DB
  8
LAYER_1
 10
43.34828045539776
 20
3.881253134459257
 30
0.0
  0
VERTEX
  5
6DC
  8
LAYER_1
 10
43.35898510128202
 20
3.967669961912502
 30
0.0
  0
VERTEX
  5
6DD
  8
LAYER_1
 10
43.37399753983106
 20
3.997198398461663
 30
0.0
  0
VERTEX
  5
6DE
  8
LAYER_1
 10
43.39762759182444
 20
4.019005594616914
 30
0.0
  0
VERTEX
  5
6DF
  8
LAYER_1
 10
43.43150840954196
 20
4.034140608671553
 30
0.0
  0
VERTEX
  5
6E0
  8
LAYER_1
 10
43.4772731452634
 20
4.043652498918878
 30
0.0
  0
VERTEX
  5
6E1
  8
LAYER_1
 10
43.61098697983726
 20
4.05000314116478
 30
0.0
  0
VERTEX
  5
6E2
  8
LAYER_1
 10
43.73626392675637
 20
4.059582999181391
 30
0.0
  0
VERTEX
  5
6E3
  8
LAYER_1
 10
43.88443789847857
 20
4.085666771008796
 30
0.0
  0
VERTEX
  5
6E4
  8
LAYER_1
 10
44.03698915927681
 20
4.124270753313354
 30
0.0
  0
VERTEX
  5
6E5
  8
LAYER_1
 10
44.17539797342403
 20
4.171411242761422
 30
0.0
  0
VERTEX
  5
6E6
  8
LAYER_1
 10
44.26856456282718
 20
4.205723708344107
 30
0.0
  0
VERTEX
  5
6E7
  8
LAYER_1
 10
44.3585943530877
 20
4.231238057601141
 30
0.0
  0
VERTEX
  5
6E8
  8
LAYER_1
 10
44.45225551198536
 20
4.248244085126975
 30
0.0
  0
VERTEX
  5
6E9
  8
LAYER_1
 10
44.55631620729991
 20
4.257031585516062
 30
0.0
  0
VERTEX
  5
6EA
  8
LAYER_1
 10
44.82270887829883
 20
4.25111018326179
 30
0.0
  0
VERTEX
  5
6EB
  8
LAYER_1
 10
45.2119177083226
 20
4.215792207593935
 30
0.0
  0
VERTEX
  5
6EC
  8
LAYER_1
 10
45.53355887957694
 20
4.189315696403275
 30
0.0
  0
VERTEX
  5
6ED
  8
LAYER_1
 10
45.83555829260477
 20
4.178081922313355
 30
0.0
  0
VERTEX
  5
6EE
  8
LAYER_1
 10
46.09431251787614
 20
4.182382710868112
 30
0.0
  0
VERTEX
  5
6EF
  8
LAYER_1
 10
46.28621812586108
 20
4.202509887611484
 30
0.0
  0
VERTEX
  5
6F0
  8
LAYER_1
 10
46.4602222981923
 20
4.241222767439076
 30
0.0
  0
VERTEX
  5
6F1
  8
LAYER_1
 10
46.63137791626261
 20
4.291685924990102
 30
0.0
  0
VERTEX
  5
6F2
  8
LAYER_1
 10
46.79938617647586
 20
4.353651062091161
 30
0.0
  0
VERTEX
  5
6F3
  8
LAYER_1
 10
46.96394827523591
 20
4.426869880568847
 30
0.0
  0
VERTEX
  5
6F4
  8
LAYER_1
 10
47.12476540894662
 20
4.511094082249755
 30
0.0
  0
VERTEX
  5
6F5
  8
LAYER_1
 10
47.28153877401184
 20
4.606075368960484
 30
0.0
  0
VERTEX
  5
6F6
  8
LAYER_1
 10
47.4339695668354
 20
4.711565442527627
 30
0.0
  0
VERTEX
  5
6F7
  8
LAYER_1
 10
47.58175898382119
 20
4.82731600477778
 30
0.0
  0
VERTEX
  5
6F8
  8
LAYER_1
 10
47.72460822137303
 20
4.953078757537538
 30
0.0
  0
VERTEX
  5
6F9
  8
LAYER_1
 10
47.8622184758948
 20
5.088605402633499
 30
0.0
  0
VERTEX
  5
6FA
  8
LAYER_1
 10
47.99429094379034
 20
5.233647641892259
 30
0.0
  0
VERTEX
  5
6FB
  8
LAYER_1
 10
48.1205268214635
 20
5.387957177140411
 30
0.0
  0
VERTEX
  5
6FC
  8
LAYER_1
 10
48.24062730531814
 20
5.551285710204553
 30
0.0
  0
VERTEX
  5
6FD
  8
LAYER_1
 10
48.3542935917581
 20
5.723384942911279
 30
0.0
  0
VERTEX
  5
6FE
  8
LAYER_1
 10
48.46122687718724
 20
5.904006577087186
 30
0.0
  0
VERTEX
  5
6FF
  8
LAYER_1
 10
48.56112835800943
 20
6.09290231455887
 30
0.0
  0
VERTEX
  5
700
  8
LAYER_1
 10
48.70839134068754
 20
6.360963055315549
 30
0.0
  0
VERTEX
  5
701
  8
LAYER_1
 10
48.89525025527173
 20
6.66178141931085
 30
0.0
  0
VERTEX
  5
702
  8
LAYER_1
 10
49.0977283366168
 20
6.958555524291148
 30
0.0
  0
VERTEX
  5
703
  8
LAYER_1
 10
49.29184881957752
 20
7.214483488002813
 30
0.0
  0
VERTEX
  5
704
  8
LAYER_1
 10
49.48355985423546
 20
7.463350902738306
 30
0.0
  0
VERTEX
  5
705
  8
LAYER_1
 10
49.67947755653826
 20
7.740900740704273
 30
0.0
  0
VERTEX
  5
706
  8
LAYER_1
 10
49.8566271101399
 20
8.013267189518364
 30
0.0
  0
VERTEX
  5
707
  8
LAYER_1
 10
49.99203369869436
 20
8.24658443679823
 30
0.0
  0
VERTEX
  5
708
  8
LAYER_1
 10
50.12218106357136
 20
8.46819748302708
 30
0.0
  0
VERTEX
  5
709
  8
LAYER_1
 10
50.28501094874426
 20
8.708696057692345
 30
0.0
  0
VERTEX
  5
70A
  8
LAYER_1
 10
50.45973554177253
 20
8.939081441918042
 30
0.0
  0
VERTEX
  5
70B
  8
LAYER_1
 10
50.62556703021563
 20
9.130354916828182
 30
0.0
  0
VERTEX
  5
70C
  8
LAYER_1
 10
50.77095427580746
 20
9.289650329713803
 30
0.0
  0
VERTEX
  5
70D
  8
LAYER_1
 10
50.8900138511714
 20
9.43296673317965
 30
0.0
  0
VERTEX
  5
70E
  8
LAYER_1
 10
50.97045951020108
 20
9.544603216320334
 30
0.0
  0
VERTEX
  5
70F
  8
LAYER_1
 10
51.00000500679016
 20
9.60885886823047
 30
0.0
  0
VERTEX
  5
710
  8
LAYER_1
 10
50.99261630437853
 20
9.630742644720476
 30
0.0
  0
VERTEX
  5
711
  8
LAYER_1
 10
50.97155892160893
 20
9.647524409191552
 30
0.0
  0
VERTEX
  5
712
  8
LAYER_1
 10
50.89509046178757
 20
9.666773443536485
 30
0.0
  0
VERTEX
  5
713
  8
LAYER_1
 10
50.78390432090953
 20
9.668589054184398
 30
0.0
  0
VERTEX
  5
714
  8
LAYER_1
 10
50.6513051925583
 20
9.654954324054422
 30
0.0
  0
VERTEX
  5
715
  8
LAYER_1
 10
50.51059777031735
 20
9.627852336065686
 30
0.0
  0
VERTEX
  5
716
  8
LAYER_1
 10
50.37508674777013
 20
9.589266173137322
 30
0.0
  0
VERTEX
  5
717
  8
LAYER_1
 10
50.25807681850014
 20
9.541178918188457
 30
0.0
  0
VERTEX
  5
718
  8
LAYER_1
 10
50.17287267609083
 20
9.485573654138221
 30
0.0
  0
VERTEX
  5
719
  8
LAYER_1
 10
50.12986124782245
 20
9.452476090934358
 30
0.0
  0
VERTEX
  5
71A
  8
LAYER_1
 10
50.07882362890192
 20
9.424302174797575
 30
0.0
  0
VERTEX
  5
71B
  8
LAYER_1
 10
49.94798183548522
 20
9.381679282636721
 30
0.0
  0
VERTEX
  5
71C
  8
LAYER_1
 10
49.77097132860251
 20
9.355612975478609
 30
0.0
  0
VERTEX
  5
71D
  8
LAYER_1
 10
49.5384161410155
 20
9.344011251146185
 30
0.0
  0
VERTEX
  5
71E
  8
LAYER_1
 10
49.19347572274434
 20
9.34303349758915
 30
0.0
  0
VERTEX
  5
71F
  8
LAYER_1
 10
49.08854362647823
 20
9.347137957371524
 30
0.0
  0
VERTEX
  5
720
  8
LAYER_1
 10
49.05000492930412
 20
9.353873182050748
 30
0.0
  0
VERTEX
  5
721
  8
LAYER_1
 10
49.05000492930412
 20
9.373128314798322
 30
0.0
  0
VERTEX
  5
722
  8
LAYER_1
 10
49.22944167675799
 20
10.06781586134694
 30
0.0
  0
VERTEX
  5
723
  8
LAYER_1
 10
49.4042842439392
 20
10.82281395160223
 30
0.0
  0
VERTEX
  5
724
  8
LAYER_1
 10
49.57267540903547
 20
11.66250344365835
 30
0.0
  0
VERTEX
  5
725
  8
LAYER_1
 10
49.81947729826294
 20
12.96359002839606
 30
0.0
  0
VERTEX
  5
726
  8
LAYER_1
 10
49.84818830683236
 20
13.12059514191613
 30
0.0
  0
VERTEX
  5
727
  8
LAYER_1
 10
49.86178118173952
 20
13.25067330007977
 30
0.0
  0
VERTEX
  5
728
  8
LAYER_1
 10
49.85832006345374
 20
13.35884449003243
 30
0.0
  0
VERTEX
  5
729
  8
LAYER_1
 10
49.83586909244437
 20
13.45012869891957
 30
0.0
  0
VERTEX
  5
72A
  8
LAYER_1
 10
49.79249240918072
 20
13.52954591388665
 30
0.0
  0
VERTEX
  5
72B
  8
LAYER_1
 10
49.72625415413216
 20
13.60211612207913
 30
0.0
  0
VERTEX
  5
72C
  8
LAYER_1
 10
49.63521846776799
 20
13.67285931064249
 30
0.0
  0
VERTEX
  5
72D
  8
LAYER_1
 10
49.51744949055757
 20
13.74679546672218
 30
0.0
  0
VERTEX
  5
72E
  8
LAYER_1
 10
49.44505016457838
 20
13.78100867250364
 30
0.0
  0
VERTEX
  5
72F
  8
LAYER_1
 10
49.35413527622519
 20
13.81072443711511
 30
0.0
  0
VERTEX
  5
730
  8
LAYER_1
 10
49.12766862751101
 20
13.85663873176305
 30
0.0
  0
VERTEX
  5
731
  8
LAYER_1
 10
48.85986917464339
 20
13.88448852853596
 30
0.0
  0
VERTEX
  5
732
  8
LAYER_1
 10
48.57255654785068
 20
13.89422400530381
 30
0.0
  0
VERTEX
  5
733
  8
LAYER_1
 10
48.28755037736126
 20
13.88579533993657
 30
0.0
  0
VERTEX
  5
734
  8
LAYER_1
 10
48.02667029340348
 20
13.85915271030419
 30
0.0
  0
VERTEX
  5
735
  8
LAYER_1
 10
47.91209616832034
 20
13.83898558947294
 30
0.0
  0
VERTEX
  5
736
  8
LAYER_1
 10
47.81173592620573
 20
13.81424629427664
 30
0.0
  0
VERTEX
  5
737
  8
LAYER_1
 10
47.72831702083822
 20
13.78492859694905
 30
0.0
  0
VERTEX
  5
738
  8
LAYER_1
 10
47.66456690599635
 20
13.75102626972389
 30
0.0
  0
VERTEX
  5
739
  8
LAYER_1
 10
47.59132139899406
 20
13.71180103120559
 30
0.0
  0
VERTEX
  5
73A
  8
LAYER_1
 10
47.50125114719351
 20
13.67967895459201
 30
0.0
  0
VERTEX
  5
73B
  8
LAYER_1
 10
47.40578231141345
 20
13.65797484877203
 30
0.0
  0
VERTEX
  5
73C
  8
LAYER_1
 10
47.31634105247262
 20
13.65000352263451
 30
0.0
  0
VERTEX
  5
73D
  8
LAYER_1
 10
47.23548483754845
 20
13.6419558369527
 30
0.0
  0
VERTEX
  5
73E
  8
LAYER_1
 10
47.16339112161572
 20
13.62004382148242
 30
0.0
  0
VERTEX
  5
73F
  8
LAYER_1
 10
47.10791604718924
 20
13.58761403858641
 30
0.0
  0
VERTEX
  5
740
  8
LAYER_1
 10
47.07691575678378
 20
13.5480130506274
 30
0.0
  0
VERTEX
  5
741
  8
LAYER_1
 10
47.06097658431627
 20
13.52598440897598
 30
0.0
  0
VERTEX
  5
742
  8
LAYER_1
 10
47.03083420831223
 20
13.5036531203781
 30
0.0
  0
VERTEX
  5
743
  8
LAYER_1
 10
46.93407762433696
 20
13.46024113433728
 30
0.0
  0
VERTEX
  5
744
  8
LAYER_1
 10
46.79892156214294
 20
13.42209415649348
 30
0.0
  0
VERTEX
  5
745
  8
LAYER_1
 10
46.63764157901507
 20
13.39352925083526
 30
0.0
  0
VERTEX
  5
746
  8
LAYER_1
 10
46.48083910910138
 20
13.36729285647981
 30
0.0
  0
VERTEX
  5
747
  8
LAYER_1
 10
46.33664880708892
 20
13.33220144951118
 30
0.0
  0
VERTEX
  5
748
  8
LAYER_1
 10
46.20834246153129
 20
13.28991703225149
 30
0.0
  0
VERTEX
  5
749
  8
LAYER_1
 10
46.09919186098207
 20
13.24210160702285
 30
0.0
  0
VERTEX
  5
74A
  8
LAYER_1
 10
46.0124687939949
 20
13.19041717614737
 30
0.0
  0
VERTEX
  5
74B
  8
LAYER_1
 10
45.95144504912335
 20
13.13652574194718
 30
0.0
  0
VERTEX
  5
74C
  8
LAYER_1
 10
45.91939241492104
 20
13.08208930674438
 30
0.0
  0
VERTEX
  5
74D
  8
LAYER_1
 10
45.91525269824385
 20
13.05518608949266
 30
0.0
  0
VERTEX
  5
74E
  8
LAYER_1
 10
45.91958267994158
 20
13.02876987286109
 30
0.0
  0
VERTEX
  5
74F
  8
LAYER_1
 10
45.91541651134404
 20
13.00529834959969
 30
0.0
  0
VERTEX
  5
750
  8
LAYER_1
 10
45.89224789001062
 20
12.97257731364706
 30
0.0
  0
VERTEX
  5
751
  8
LAYER_1
 10
45.79828937904441
 20
12.88532755719837
 30
0.0
  0
VERTEX
  5
752
  8
LAYER_1
 10
45.65647932685941
 20
12.7789023105756
 30
0.0
  0
VERTEX
  5
753
  8
LAYER_1
 10
45.48558991327216
 20
12.66518328083931
 30
0.0
  0
VERTEX
  5
754
  8
LAYER_1
 10
45.30439331809914
 20
12.55605217505009
 30
0.0
  0
VERTEX
  5
755
  8
LAYER_1
 10
45.13166172115686
 20
12.46339070026851
 30
0.0
  0
VERTEX
  5
756
  8
LAYER_1
 10
44.98616730226182
 20
12.39908056355514
 30
0.0
  0
VERTEX
  5
757
  8
LAYER_1
 10
44.92950034077466
 20
12.38127028043047
 30
0.0
  0
VERTEX
  5
758
  8
LAYER_1
 10
44.8866822412305
 20
12.37500347197056
 30
0.0
  0
VERTEX
  5
759
  8
LAYER_1
 10
44.80617915014281
 20
12.36847498011888
 30
0.0
  0
VERTEX
  5
75A
  8
LAYER_1
 10
44.73139080491899
 20
12.34936965336312
 30
0.0
  0
VERTEX
  5
75B
  8
LAYER_1
 10
44.66317925895427
 20
12.31840771490224
 30
0.0
  0
VERTEX
  5
75C
  8
LAYER_1
 10
44.60240656564385
 20
12.27630938793514
 30
0.0
  0
VERTEX
  5
75D
  8
LAYER_1
 10
44.54993477838295
 20
12.22379489566077
 30
0.0
  0
VERTEX
  5
75E
  8
LAYER_1
 10
44.50662595056681
 20
12.16158446127807
 30
0.0
  0
VERTEX
  5
75F
  8
LAYER_1
 10
44.47334213559065
 20
12.09039830798596
 30
0.0
  0
VERTEX
  5
760
  8
LAYER_1
 10
44.45094538684968
 20
12.01095665898337
 30
0.0
  0
VERTEX
  5
761
  8
LAYER_1
 10
44.41003881894259
 20
11.85823740197042
 30
0.0
  0
VERTEX
  5
762
  8
LAYER_1
 10
44.35109154991144
 20
11.72771699954922
 30
0.0
  0
VERTEX
  5
763
  8
LAYER_1
 10
44.27102741507317
 20
11.61717742105486
 30
0.0
  0
VERTEX
  5
764
  8
LAYER_1
 10
44.16677024974469
 20
11.52440063582242
 30
0.0
  0
VERTEX
  5
765
  8
LAYER_1
 10
44.03524388924292
 20
11.44716861318696
 30
0.0
  0
VERTEX
  5
766
  8
LAYER_1
 10
43.87337216888479
 20
11.38326332248356
 30
0.0
  0
VERTEX
  5
767
  8
LAYER_1
 10
43.67807892398721
 20
11.33046673304731
 30
0.0
  0
VERTEX
  5
768
  8
LAYER_1
 10
43.44628798986713
 20
11.28656081421326
 30
0.0
  0
VERTEX
  5
769
  8
LAYER_1
 10
42.84281991891977
 20
11.20245458393622
 30
0.0
  0
VERTEX
  5
76A
  8
LAYER_1
 10
42.24916736012842
 20
11.13750066043087
 30
0.0
  0
VERTEX
  5
76B
  8
LAYER_1
 10
41.97720553541175
 20
11.10656525375405
 30
0.0
  0
VERTEX
  5
76C
  8
LAYER_1
 10
41.67039567265654
 20
11.06026902867408
 30
0.0
  0
VERTEX
  5
76D
  8
LAYER_1
 10
41.36635606753831
 20
11.00487446762143
 30
0.0
  0
VERTEX
  5
76E
  8
LAYER_1
 10
41.10270501573251
 20
10.94664405302653
 30
0.0
  0
VERTEX
  5
76F
  8
LAYER_1
 10
40.54290539571376
 20
10.80710260521434
 30
0.0
  0
VERTEX
  5
770
  8
LAYER_1
 10
40.51503151502362
 20
10.83497648590767
 30
0.0
  0
VERTEX
  5
771
  8
LAYER_1
 10
40.51803089253384
 20
10.85310413722307
 30
0.0
  0
VERTEX
  5
772
  8
LAYER_1
 10
40.5468027978045
 20
10.88185632033662
 30
0.0
  0
VERTEX
  5
773
  8
LAYER_1
 10
40.66233111865108
 20
10.95542536639429
 30
0.0
  0
VERTEX
  5
774
  8
LAYER_1
 10
40.78240386260831
 20
11.02461823638918
 30
0.0
  0
VERTEX
  5
775
  8
LAYER_1
 10
40.91567688647708
 20
11.11196340513058
 30
0.0
  0
VERTEX
  5
776
  8
LAYER_1
 10
41.21744533192029
 20
11.33700679988754
 30
0.0
  0
VERTEX
  5
777
  8
LAYER_1
 10
41.5588795709228
 20
11.62234787273442
 30
0.0
  0
VERTEX
  5
778
  8
LAYER_1
 10
41.93122271942671
 20
11.95977894574047
 30
0.0
  0
VERTEX
  5
779
  8
LAYER_1
 10
42.32571789337416
 20
12.34109234097495
 30
0.0
  0
VERTEX
  5
77A
  8
LAYER_1
 10
42.73360820870721
 20
12.75808038050711
 30
0.0
  0
VERTEX
  5
77B
  8
LAYER_1
 10
43.14613678136799
 20
13.20253538640619
 30
0.0
  0
VERTEX
  5
77C
  8
LAYER_1
 10
43.55454672729859
 20
13.66624968074144
 30
0.0
  0
VERTEX
  5
77D
  8
LAYER_1
 10
44.24356314178323
 20
14.46999587014081
 30
0.0
  0
VERTEX
  5
77E
  8
LAYER_1
 10
44.36054156116946
 20
14.6962071892416
 30
0.0
  0
VERTEX
  5
77F
  8
LAYER_1
 10
44.40953005305994
 20
14.81225314455655
 30
0.0
  0
VERTEX
  5
780
  8
LAYER_1
 10
44.45644029100509
 20
14.9609970564303
 30
0.0
  0
VERTEX
  5
781
  8
LAYER_1
 10
44.4959502124059
 20
15.12328450114343
 30
0.0
  0
VERTEX
  5
782
  8
LAYER_1
 10
44.52273775466334
 20
15.27996105497651
 30
0.0
  0
VERTEX
  5
783
  8
LAYER_1
 10
44.54885963775386
 20
15.43249960413209
 30
0.0
  0
VERTEX
  5
784
  8
LAYER_1
 10
44.58655712082894
 20
15.58352020442626
 30
0.0
  0
VERTEX
  5
785
  8
LAYER_1
 10
44.63078495005202
 20
15.71558918655993
 30
0.0
  0
VERTEX
  5
786
  8
LAYER_1
 10
44.67649787158656
 20
15.81127288123405
 30
0.0
  0
VERTEX
  5
787
  8
LAYER_1
 10
44.72755477998506
 20
15.90383919791259
 30
0.0
  0
VERTEX
  5
788
  8
LAYER_1
 10
44.7459036636086
 20
15.97407812136652
 30
0.0
  0
VERTEX
  5
789
  8
LAYER_1
 10
44.74295284040011
 20
16.00497794189097
 30
0.0
  0
VERTEX
  5
78A
  8
LAYER_1
 10
44.73199330412229
 20
16.03527967161732
 30
0.0
  0
VERTEX
  5
78B
  8
LAYER_1
 10
44.68627248319122
 20
16.10073386868649
 30
0.0
  0
VERTEX
  5
78C
  8
LAYER_1
 10
44.63312790259408
 20
16.17569159316337
 30
0.0
  0
VERTEX
  5
78D
  8
LAYER_1
 10
44.56143964583491
 20
16.29426131687979
 30
0.0
  0
VERTEX
  5
78E
  8
LAYER_1
 10
44.40000474452972
 20
16.59709001749955
 30
0.0
  0
VERTEX
  5
78F
  8
LAYER_1
 10
44.33157920492516
 20
16.73081685148804
 30
0.0
  0
VERTEX
  5
790
  8
LAYER_1
 10
44.26952180909934
 20
16.83780238997869
 30
0.0
  0
VERTEX
  5
791
  8
LAYER_1
 10
44.20939881445836
 20
16.92190332383726
 30
0.0
  0
VERTEX
  5
792
  8
LAYER_1
 10
44.1467764784083
 20
16.9869763439295
 30
0.0
  0
VERTEX
  5
793
  8
LAYER_1
 10
44.07722105835524
 20
17.03687814112116
 30
0.0
  0
VERTEX
  5
794
  8
LAYER_1
 10
43.99629881170527
 20
17.07546540627801
 30
0.0
  0
VERTEX
  5
795
  8
LAYER_1
 10
43.8995759958645
 20
17.10659483026578
 30
0.0
  0
VERTEX
  5
796
  8
LAYER_1
 10
43.78261886823898
 20
17.13412310395024
 30
0.0
  0
VERTEX
  5
797
  8
LAYER_1
 10
43.69212668252629
 20
17.16665635060149
 30
0.0
  0
VERTEX
  5
798
  8
LAYER_1
 10
43.60517468300657
 20
17.22267865499723
 30
0.0
  0
VERTEX
  5
799
  8
LAYER_1
 10
43.52894347411109
 20
17.29647745629338
 30
0.0
  0
VERTEX
  5
79A
  8
LAYER_1
 10
43.4706136602711
 20
17.38234019364589
 30
0.0
  0
VERTEX
  5
79B
  8
LAYER_1
 10
43.40777612721014
 20
17.47328967950471
 30
0.0
  0
VERTEX
  5
79C
  8
LAYER_1
 10
43.31586995625366
 20
17.56926086642258
 30
0.0
  0
VERTEX
  5
79D
  8
LAYER_1
 10
43.20724459650657
 20
17.65882766165698
 30
0.0
  0
VERTEX
  5
79E
  8
LAYER_1
 10
43.09424949707376
 20
17.73056397246539
 30
0.0
  0
VERTEX
  5
79F
  8
LAYER_1
 10
42.95977112661606
 20
17.81160787773149
 30
0.0
  0
VERTEX
  5
7A0
  8
LAYER_1
 10
42.91279951718916
 20
17.8503287843211
 30
0.0
  0
VERTEX
  5
7A1
  8
LAYER_1
 10
42.87748587342592
 20
17.89041191154119
 30
0.0
  0
VERTEX
  5
7A2
  8
LAYER_1
 10
42.85243988167309
 20
17.93377944788635
 30
0.0
  0
VERTEX
  5
7A3
  8
LAYER_1
 10
42.83627122827747
 20
17.98235358185116
 30
0.0
  0
VERTEX
  5
7A4
  8
LAYER_1
 10
42.82500468194485
 20
18.10281039661805
 30
0.0
  0
VERTEX
  5
7A5
  8
LAYER_1
 10
42.82019637736597
 20
18.17055875115286
 30
0.0
  0
VERTEX
  5
7A6
  8
LAYER_1
 10
42.80407573398664
 20
18.23657670999458
 30
0.0
  0
VERTEX
  5
7A7
  8
LAYER_1
 10
42.77409915734278
 20
18.30439837416166
 30
0.0
  0
VERTEX
  5
7A8
  8
LAYER_1
 10
42.72772305297032
 20
18.37755784467258
 30
0.0
  0
VERTEX
  5
7A9
  8
LAYER_1
 10
42.66240382640517
 20
18.45958922254581
 30
0.0
  0
VERTEX
  5
7AA
  8
LAYER_1
 10
42.57559788318328
 20
18.5540266087998
 30
0.0
  0
VERTEX
  5
7AB
  8
LAYER_1
 10
42.32735146891298
 20
18.79425581052398
 30
0.0
  0
VERTEX
  5
7AC
  8
LAYER_1
 10
42.05824445379892
 20
19.03395974427499
 30
0.0
  0
VERTEX
  5
7AD
  8
LAYER_1
 10
41.95189814640587
 20
19.11718294513654
 30
0.0
  0
VERTEX
  5
7AE
  8
LAYER_1
 10
41.85706034410715
 20
19.18033775732916
 30
0.0
  0
VERTEX
  5
7AF
  8
LAYER_1
 10
41.76825882564152
 20
19.2266872723581
 30
0.0
  0
VERTEX
  5
7B0
  8
LAYER_1
 10
41.68002136974775
 20
19.25949458172864
 30
0.0
  0
VERTEX
  5
7B1
  8
LAYER_1
 10
41.58687575516458
 20
19.28202277694605
 30
0.0
  0
VERTEX
  5
7B2
  8
LAYER_1
 10
41.48334976063079
 20
19.29753494951559
 30
0.0
  0
VERTEX
  5
7B3
  8
LAYER_1
 10
41.31425972649608
 20
19.33166779399171
 30
0.0
  0
VERTEX
  5
7B4
  8
LAYER_1
 10
41.10989819322464
 20
19.39428053896267
 30
0.0
  0
VERTEX
  5
7B5
  8
LAYER_1
 10
40.8960217516432
 20
19.47645657338104
 30
0.0
  0
VERTEX
  5
7B6
  8
LAYER_1
 10
40.69838699257846
 20
19.56927928619938
 30
0.0
  0
VERTEX
  5
7B7
  8
LAYER_1
 10
40.51157936052044
 20
19.6588652760155
 30
0.0
  0
VERTEX
  5
7B8
  8
LAYER_1
 10
40.32718272019491
 20
19.73222845077439
 30
0.0
  0
VERTEX
  5
7B9
  8
LAYER_1
 10
40.16645129278223
 20
19.78179816344931
 30
0.0
  0
VERTEX
  5
7BA
  8
LAYER_1
 10
40.05063929946277
 20
19.80000376701355
 30
0.0
  0
VERTEX
  5
7BB
  8
LAYER_1
 10
39.99595703965257
 20
19.80600802328119
 30
0.0
  0
VERTEX
  5
7BC
  8
LAYER_1
 10
39.93063425773313
 20
19.82368401781559
 30
0.0
  0
VERTEX
  5
7BD
  8
LAYER_1
 10
39.77203137161089
 20
19.89203057607359
 30
0.0
  0
VERTEX
  5
7BE
  8
LAYER_1
 10
39.58275912918477
 20
20.00100215056537
 30
0.0
  0
VERTEX
  5
7BF
  8
LAYER_1
 10
39.37074601854349
 20
20.14655745006873
 30
0.0
  0
VERTEX
  5
7C0
  8
LAYER_1
 10
39.16863762996964
 20
20.28919064402889
 30
0.0
  0
VERTEX
  5
7C1
  8
LAYER_1
 10
38.96634358278804
 20
20.42136454480056
 30
0.0
  0
VERTEX
  5
7C2
  8
LAYER_1
 10
38.78734522730915
 20
20.52835081350127
 30
0.0
  0
VERTEX
  5
7C3
  8
LAYER_1
 10
38.65512391384343
 20
20.59542111124856
 30
0.0
  0
VERTEX
  5
7C4
  8
LAYER_1
 10
38.46858555398125
 20
20.68968991484788
 30
0.0
  0
VERTEX
  5
7C5
  8
LAYER_1
 10
38.40125239189685
 20
20.73549780636577
 30
0.0
  0
VERTEX
  5
7C6
  8
LAYER_1
 10
38.36394881878567
 20
20.77266685634774
 30
0.0
  0
VERTEX
  5
7C7
  8
LAYER_1
 10
38.30335184372478
 20
20.82306158295037
 30
0.0
  0
VERTEX
  5
7C8
  8
LAYER_1
 10
38.17259605256933
 20
20.9048799801186
 30
0.0
  0
VERTEX
  5
7C9
  8
LAYER_1
 10
37.99092199329314
 20
21.00680638552384
 30
0.0
  0
VERTEX
  5
7CA
  8
LAYER_1
 10
37.77757021386998
 20
21.11752513683753
 30
0.0
  0
VERTEX
  5
7CB
  8
LAYER_1
 10
37.35208627339019
 20
21.3476396321807
 30
0.0
  0
VERTEX
  5
7CC
  8
LAYER_1
 10
37.18836120716923
 20
21.44836765918951
 30
0.0
  0
VERTEX
  5
7CD
  8
LAYER_1
 10
37.08750445395708
 20
21.52185350626087
 30
0.0
  0
VERTEX
  5
7CE
  8
LAYER_1
 10
36.99901492859912
 20
21.59606539118062
 30
0.0
  0
VERTEX
  5
7CF
  8
LAYER_1
 10
36.90978263573488
 20
21.65970682446919
 30
0.0
  0
VERTEX
  5
7D0
  8
LAYER_1
 10
36.81648547750751
 20
21.7141350786306
 30
0.0
  0
VERTEX
  5
7D1
  8
LAYER_1
 10
36.71580135606018
 20
21.76070742616893
 30
0.0
  0
VERTEX
  5
7D2
  8
LAYER_1
 10
36.60440817353602
 20
21.80078113958819
 30
0.0
  0
VERTEX
  5
7D3
  8
LAYER_1
 10
36.4789838320782
 20
21.83571349139241
 30
0.0
  0
VERTEX
  5
7D4
  8
LAYER_1
 10
36.17275328093417
 20
21.89558320017197
 30
0.0
  0
VERTEX
  5
7D5
  8
LAYER_1
 10
35.73317125374274
 20
21.97887329079387
 30
0.0
  0
VERTEX
  5
7D6
  8
LAYER_1
 10
35.28750438243151
 20
22.08141298120337
 30
0.0
  0
VERTEX
  5
7D7
  8
LAYER_1
 10
35.03263699555896
 20
22.14360604709002
 30
0.0
  0
VERTEX
  5
7D8
  8
LAYER_1
 10
34.82510967883429
 20
22.18317809966884
 30
0.0
  0
VERTEX
  5
7D9
  8
LAYER_1
 10
34.65456362661566
 20
22.19815668841602
 30
0.0
  0
VERTEX
  5
7DA
  8
LAYER_1
 10
34.51064003326124
 20
22.1865693628077
 30
0.0
  0
VERTEX
  5
7DB
  8
LAYER_1
 10
34.44542453189503
 20
22.17019709133152
 30
0.0
  0
VERTEX
  5
7DC
  8
LAYER_1
 10
34.38298009312916
 20
22.14644367232004
 30
0.0
  0
VERTEX
  5
7DD
  8
LAYER_1
 10
34.26122500057758
 20
22.07580716642921
 30
0.0
  0
VERTEX
  5
7DE
  8
LAYER_1
 10
34.13501594996467
 20
21.97268739461137
 30
0.0
  0
VERTEX
  5
7DF
  8
LAYER_1
 10
33.99399413564856
 20
21.83511190634268
 30
0.0
  0
VERTEX
  5
7E0
  8
LAYER_1
 10
33.78959654306907
 20
21.63775129336253
 30
0.0
  0
VERTEX
  5
7E1
  8
LAYER_1
 10
33.70461618928162
 20
21.57049026500766
 30
0.0
  0
VERTEX
  5
7E2
  8
LAYER_1
 10
33.62230164561628
 20
21.51951382427933
 30
0.0
  0
VERTEX
  5
7E3
  8
LAYER_1
 10
33.5360430484135
 20
21.48132577282985
 30
0.0
  0
VERTEX
  5
7E4
  8
LAYER_1
 10
33.43923053401372
 20
21.45242991231153
 30
0.0
  0
VERTEX
  5
7E5
  8
LAYER_1
 10
33.187504298985
 20
21.40852997067759
 30
0.0
  0
VERTEX
  5
7E6
  8
LAYER_1
 10
32.77191273238634
 20
21.3683545248958
 30
0.0
  0
VERTEX
  5
7E7
  8
LAYER_1
 10
32.56939241613568
 20
21.35877367112299
 30
0.0
  0
VERTEX
  5
7E8
  8
LAYER_1
 10
32.4046394165251
 20
21.35839097770479
 30
0.0
  0
VERTEX
  5
7E9
  8
LAYER_1
 10
32.27364347235664
 20
21.35834446063414
 30
0.0
  0
VERTEX
  5
7EA
  8
LAYER_1
 10
32.1628400605688
 20
21.34805996323051
 30
0.0
  0
VERTEX
  5
7EB
  8
LAYER_1
 10
32.07138885039365
 20
21.32703765850067
 30
0.0
  0
VERTEX
  5
7EC
  8
LAYER_1
 10
31.99844951106327
 20
21.29477771945141
 30
0.0
  0
VERTEX
  5
7ED
  8
LAYER_1
 10
31.94318171180974
 20
21.2507803190895
 30
0.0
  0
VERTEX
  5
7EE
  8
LAYER_1
 10
31.90474512186512
 20
21.19454563042173
 30
0.0
  0
VERTEX
  5
7EF
  8
LAYER_1
 10
31.8822994104615
 20
21.12557382645489
 30
0.0
  0
VERTEX
  5
7F0
  8
LAYER_1
 10
31.87500424683094
 20
21.04336508019576
 30
0.0
  0
VERTEX
  5
7F1
  8
LAYER_1
 10
31.86789166565801
 20
20.99894403057585
 30
0.0
  0
VERTEX
  5
7F2
  8
LAYER_1
 10
31.8464329862146
 20
20.94852686603556
 30
0.0
  0
VERTEX
  5
7F3
  8
LAYER_1
 10
31.81044680461374
 20
20.89190660203963
 30
0.0
  0
VERTEX
  5
7F4
  8
LAYER_1
 10
31.75975171696848
 20
20.82887625405282
 30
0.0
  0
VERTEX
  5
7F5
  8
LAYER_1
 10
31.61350920799699
 20
20.68275736796556
 30
0.0
  0
VERTEX
  5
7F6
  8
LAYER_1
 10
31.40625422820449
 20
20.50851433149175
 30
0.0
  0
VERTEX
  5
7F7
  8
LAYER_1
 10
31.21583765109751
 20
20.34515599460857
 30
0.0
  0
VERTEX
  5
7F8
  8
LAYER_1
 10
31.04389200318936
 20
20.17505156925688
 30
0.0
  0
VERTEX
  5
7F9
  8
LAYER_1
 10
30.90929526154903
 20
20.01832827566489
 30
0.0
  0
VERTEX
  5
7FA
  8
LAYER_1
 10
30.86190209841334
 20
19.95127430960009
 30
0.0
  0
VERTEX
  5
7FB
  8
LAYER_1
 10
30.83092540324547
 20
19.8951133340608
 30
0.0
  0
VERTEX
  5
7FC
  8
LAYER_1
 10
30.72434659691289
 20
19.65329104993779
 30
0.0
  0
VERTEX
  5
7FD
  8
LAYER_1
 10
30.30305594282002
 20
20.10294853553859
 30
0.0
  0
VERTEX
  5
7FE
  8
LAYER_1
 10
30.06615723712442
 20
20.34771635734726
 30
0.0
  0
VERTEX
  5
7FF
  8
LAYER_1
 10
29.98048066903281
 20
20.42478776866619
 30
0.0
  0
VERTEX
  5
800
  8
LAYER_1
 10
29.90852255969718
 20
20.47653144301904
 30
0.0
  0
VERTEX
  5
801
  8
LAYER_1
 10
29.84418536080641
 20
20.50660782747395
 30
0.0
  0
VERTEX
  5
802
  8
LAYER_1
 10
29.78137152404939
 20
20.51867736909904
 30
0.0
  0
VERTEX
  5
803
  8
LAYER_1
 10
29.71398350111502
 20
20.51640051496248
 30
0.0
  0
VERTEX
  5
804
  8
LAYER_1
 10
29.63592374369219
 20
20.50343771213238
 30
0.0
  0
VERTEX
  5
805
  8
LAYER_1
 10
29.51663216772602
 20
20.49145693401615
 30
0.0
  0
VERTEX
  5
806
  8
LAYER_1
 10
29.37701085279833
 20
20.49618775753175
 30
0.0
  0
VERTEX
  5
807
  8
LAYER_1
 10
29.23260180846755
 20
20.51627229749603
 30
0.0
  0
VERTEX
  5
808
  8
LAYER_1
 10
29.09894704429213
 20
20.55035266872585
 30
0.0
  0
VERTEX
  5
809
  8
LAYER_1
 10
28.97108477826226
 20
20.58212523072521
 30
0.0
  0
VERTEX
  5
80A
  8
LAYER_1
 10
28.84370193846024
 20
20.5945244390459
 30
0.0
  0
VERTEX
  5
80B
  8
LAYER_1
 10
28.72078600020998
 20
20.58868898856885
 30
0.0
  0
VERTEX
  5
80C
  8
LAYER_1
 10
28.60632443883546
 20
20.56575757417502
 30
0.0
  0
VERTEX
  5
80D
  8
LAYER_1
 10
28.50430472966059
 20
20.52686889074536
 30
0.0
  0
VERTEX
  5
80E
  8
LAYER_1
 10
28.4187143480093
 20
20.47316163316078
 30
0.0
  0
VERTEX
  5
80F
  8
LAYER_1
 10
28.35354076920555
 20
20.40577449630225
 30
0.0
  0
VERTEX
  5
810
  8
LAYER_1
 10
28.31277146857326
 20
20.3258461750507
 30
0.0
  0
VERTEX
  5
811
  8
LAYER_1
 10
28.28497138856073
 20
20.26104290847457
 30
0.0
  0
VERTEX
  5
812
  8
LAYER_1
 10
28.24048903396683
 20
20.18293531156327
 30
0.0
  0
VERTEX
  5
813
  8
LAYER_1
 10
28.18545309722018
 20
20.10135738986186
 30
0.0
  0
VERTEX
  5
814
  8
LAYER_1
 10
28.12599227074936
 20
20.02614314891542
 30
0.0
  0
VERTEX
  5
815
  8
LAYER_1
 10
28.0791223679764
 20
19.96975858228188
 30
0.0
  0
VERTEX
  5
816
  8
LAYER_1
 10
28.04834580313472
 20
19.91840061029033
 30
0.0
  0
VERTEX
  5
817
  8
LAYER_1
 10
28.03618673639182
 20
19.86171518828824
 30
0.0
  0
VERTEX
  5
818
  8
LAYER_1
 10
28.04516932791517
 20
19.78934827162309
 30
0.0
  0
VERTEX
  5
819
  8
LAYER_1
 10
28.07781773787223
 20
19.69094581564235
 30
0.0
  0
VERTEX
  5
81A
  8
LAYER_1
 10
28.13665612643049
 20
19.55615377569352
 30
0.0
  0
VERTEX
  5
81B
  8
LAYER_1
 10
28.34299948002051
 20
19.13598476528144
 30
0.0
  0
VERTEX
  5
81C
  8
LAYER_1
 10
28.52828461759422
 20
18.74739900924876
 30
0.0
  0
VERTEX
  5
81D
  8
LAYER_1
 10
28.59361974088075
 20
18.59029544056044
 30
0.0
  0
VERTEX
  5
81E
  8
LAYER_1
 10
28.64389299302148
 20
18.44807350027176
 30
0.0
  0
VERTEX
  5
81F
  8
LAYER_1
 10
28.68146169340717
 20
18.31329975501842
 30
0.0
  0
VERTEX
  5
820
  8
LAYER_1
 10
28.70868316142862
 20
18.17854077143615
 30
0.0
  0
VERTEX
  5
821
  8
LAYER_1
 10
28.741513677942
 20
17.87933335582761
 30
0.0
  0
VERTEX
  5
822
  8
LAYER_1
 10
28.76558694059425
 20
17.65281536982274
 30
0.0
  0
VERTEX
  5
823
  8
LAYER_1
 10
28.80381940947868
 20
17.43019542484616
 30
0.0
  0
VERTEX
  5
824
  8
LAYER_1
 10
28.85095388287147
 20
17.23707622484103
 30
0.0
  0
VERTEX
  5
825
  8
LAYER_1
 10
28.9017331590488
 20
17.0990604737505
 30
0.0
  0
VERTEX
  5
826
  8
LAYER_1
 10
28.94969972451628
 20
16.98183203737634
 30
0.0
  0
VERTEX
  5
827
  8
LAYER_1
 10
28.98917582716443
 20
16.84531196159895
 30
0.0
  0
VERTEX
  5
828
  8
LAYER_1
 10
29.01607390734679
 20
16.70645872047943
 30
0.0
  0
VERTEX
  5
829
  8
LAYER_1
 10
29.02630640541692
 20
16.58223078807887
 30
0.0
  0
VERTEX
  5
82A
  8
LAYER_1
 10
29.03548723205797
 20
16.35540942893623
 30
0.0
  0
VERTEX
  5
82B
  8
LAYER_1
 10
29.06061550730643
 20
16.12769386716116
 30
0.0
  0
VERTEX
  5
82C
  8
LAYER_1
 10
29.10134577782493
 20
15.89971051053211
 30
0.0
  0
VERTEX
  5
82D
  8
LAYER_1
 10
29.15733259027611
 20
15.67208576682759
 30
0.0
  0
VERTEX
  5
82E
  8
LAYER_1
 10
29.2282304913226
 20
15.44544604382604
 30
0.0
  0
VERTEX
  5
82F
  8
LAYER_1
 10
29.31369402762704
 20
15.22041774930595
 30
0.0
  0
VERTEX
  5
830
  8
LAYER_1
 10
29.41337774585205
 20
14.99762729104579
 30
0.0
  0
VERTEX
  5
831
  8
LAYER_1
 10
29.52693619266027
 20
14.77770107682403
 30
0.0
  0
VERTEX
  5
832
  8
LAYER_1
 10
29.65402391471433
 20
14.56126551441915
 30
0.0
  0
VERTEX
  5
833
  8
LAYER_1
 10
29.79429545867686
 20
14.34894701160961
 30
0.0
  0
VERTEX
  5
834
  8
LAYER_1
 10
29.94740537121051
 20
14.14137197617389
 30
0.0
  0
VERTEX
  5
835
  8
LAYER_1
 10
30.11300819897789
 20
13.93916681589047
 30
0.0
  0
VERTEX
  5
836
  8
LAYER_1
 10
30.29075848864166
 20
13.74295793853781
 30
0.0
  0
VERTEX
  5
837
  8
LAYER_1
 10
30.48031078686443
 20
13.5533717518944
 30
0.0
  0
VERTEX
  5
838
  8
LAYER_1
 10
30.68131964030884
 20
13.37103466373869
 30
0.0
  0
VERTEX
  5
839
  8
LAYER_1
 10
30.89343959563753
 20
13.19657308184917
 30
0.0
  0
VERTEX
  5
83A
  8
LAYER_1
 10
31.71585908654833
 20
12.53558709219288
 30
0.0
  0
VERTEX
  5
83B
  8
LAYER_1
 10
31.93568091405824
 20
12.36620800259875
 30
0.0
  0
VERTEX
  5
83C
  8
LAYER_1
 10
32.17088459424954
 20
12.20213704948588
 30
0.0
  0
VERTEX
  5
83D
  8
LAYER_1
 10
32.39328898492791
 20
12.06210215872343
 30
0.0
  0
VERTEX
  5
83E
  8
LAYER_1
 10
32.57471294389903
 20
11.96483125618056
 30
0.0
  0
VERTEX
  5
83F
  8
LAYER_1
 10
32.76346880069725
 20
11.86609824731287
 30
0.0
  0
VERTEX
  5
840
  8
LAYER_1
 10
32.83857218479532
 20
11.81474996945732
 30
0.0
  0
VERTEX
  5
841
  8
LAYER_1
 10
32.90414920086278
 20
11.75890592675066
 30
0.0
  0
VERTEX
  5
842
  8
LAYER_1
 10
32.96269234502717
 20
11.69618518226543
 30
0.0
  0
VERTEX
  5
843
  8
LAYER_1
 10
33.01669411341605
 20
11.62420679907416
 30
0.0
  0
VERTEX
  5
844
  8
LAYER_1
 10
33.12104350737746
 20
11.44295336886357
 30
0.0
  0
VERTEX
  5
845
  8
LAYER_1
 10
33.19053062897959
 20
11.28699830246494
 30
0.0
  0
VERTEX
  5
846
  8
LAYER_1
 10
33.24743456960748
 20
11.12334573087979
 30
0.0
  0
VERTEX
  5
847
  8
LAYER_1
 10
33.28588317813983
 20
10.97142950939956
 30
0.0
  0
VERTEX
  5
848
  8
LAYER_1
 10
33.30000430345535
 20
10.85068349331566
 30
0.0
  0
VERTEX
  5
849
  8
LAYER_1
 10
33.30000430345535
 20
10.61145207120187
 30
0.0
  0
VERTEX
  5
84A
  8
LAYER_1
 10
33.03592923278768
 20
9.572168915970181
 30
0.0
  0
VERTEX
  5
84B
  8
LAYER_1
 10
32.83919195791314
 20
8.774517912343617
 30
0.0
  0
VERTEX
  5
84C
  8
LAYER_1
 10
32.66339895857449
 20
8.011994697381692
 30
0.0
  0
VERTEX
  5
84D
  8
LAYER_1
 10
32.50802088982731
 20
7.281705774122029
 30
0.0
  0
VERTEX
  5
84E
  8
LAYER_1
 10
32.37252840672721
 20
6.58075764560226
 30
0.0
  0
VERTEX
  5
84F
  8
LAYER_1
 10
32.25639216432977
 20
5.906256814860011
 30
0.0
  0
VERTEX
  5
850
  8
LAYER_1
 10
32.15908281769059
 20
5.25530978493291
 30
0.0
  0
VERTEX
  5
851
  8
LAYER_1
 10
32.08007102186527
 20
4.625023058858584
 30
0.0
  0
VERTEX
  5
852
  8
LAYER_1
 10
32.01882743190939
 20
4.012503139674664
 30
0.0
  0
VERTEX
  5
853
  8
LAYER_1
 10
31.93410620627405
 20
3.037503100931644
 30
0.0
  0
VERTEX
  5
854
  8
LAYER_1
 10
31.92716668924362
 20
-1.237497068941593
 30
0.0
  0
VERTEX
  5
855
  8
LAYER_1
 10
32.0144109062259
 20
-2.737497128546238
 30
0.0
  0
VERTEX
  5
856
  8
LAYER_1
 10
32.17560832966745
 20
-5.32499723136425
 30
0.0
  0
VERTEX
  5
857
  8
LAYER_1
 10
32.24956153612672
 20
-6.412497274577618
 30
0.0
  0
VERTEX
  5
858
  8
LAYER_1
 10
32.3623437295043
 20
-8.774997368454933
 30
0.0
  0
VERTEX
  5
859
  8
LAYER_1
 10
32.58677593293579
 20
-13.23749754577875
 30
0.0
  0
VERTEX
  5
85A
  8
LAYER_1
 10
32.69842594298972
 20
-15.33749762922525
 30
0.0
  0
VERTEX
  5
85B
  8
LAYER_1
 10
32.78078391831343
 20
-16.53749767690897
 30
0.0
  0
VERTEX
  5
85C
  8
LAYER_1
 10
32.89046434169073
 20
-18.74999776482582
 30
0.0
  0
VERTEX
  5
85D
  8
LAYER_1
 10
33.11016586877064
 20
-23.24999794363976
 30
0.0
  0
VERTEX
  5
85E
  8
LAYER_1
 10
33.22018697247321
 20
-25.53749803453684
 30
0.0
  0
VERTEX
  5
85F
  8
LAYER_1
 10
33.22500430047512
 20
-27.39999810854603
 30
0.0
  0
VERTEX
  5
860
  8
LAYER_1
 10
33.161936246542
 20
-27.33693005461279
 30
0.0
  0
VERTEX
  5
861
  8
LAYER_1
 10
33.07704098300691
 20
-26.24971403712424
 30
0.0
  0
VERTEX
  5
862
  8
LAYER_1
 10
33.04059421417467
 20
-25.83793793014816
 30
0.0
  0
VERTEX
  5
863
  8
LAYER_1
 10
32.99676466813654
 20
-25.44177165121347
 30
0.0
  0
VERTEX
  5
864
  8
LAYER_1
 10
32.94552190307094
 20
-25.06111749271317
 30
0.0
  0
VERTEX
  5
865
  8
LAYER_1
 10
32.88683547715635
 20
-24.69587774704028
 30
0.0
  0
VERTEX
  5
866
  8
LAYER_1
 10
32.82067494857123
 20
-24.34595470658781
 30
0.0
  0
VERTEX
  5
867
  8
LAYER_1
 10
32.74700987549403
 20
-24.01125066374878
 30
0.0
  0
VERTEX
  5
868
  8
LAYER_1
 10
32.66580981610321
 20
-23.69166791091622
 30
0.0
  0
VERTEX
  5
869
  8
LAYER_1
 10
32.57704432857721
 20
-23.38710874048312
 30
0.0
  0
VERTEX
  5
86A
  8
LAYER_1
 10
32.48068297109451
 20
-23.09747544484252
 30
0.0
  0
VERTEX
  5
86B
  8
LAYER_1
 10
32.37669530183356
 20
-22.82267031638743
 30
0.0
  0
VERTEX
  5
86C
  8
LAYER_1
 10
32.26505087897281
 20
-22.56259564751086
 30
0.0
  0
VERTEX
  5
86D
  8
LAYER_1
 10
32.14571926069073
 20
-22.31715373060583
 30
0.0
  0
VERTEX
  5
86E
  8
LAYER_1
 10
32.01867000516577
 20
-22.08624685806536
 30
0.0
  0
VERTEX
  5
86F
  8
LAYER_1
 10
31.88387267057639
 20
-21.86977732228246
 30
0.0
  0
VERTEX
  5
870
  8
LAYER_1
 10
31.74129681510104
 20
-21.66764741565015
 30
0.0
  0
VERTEX
  5
871
  8
LAYER_1
 10
31.59091199691819
 20
-21.47975943056145
 30
0.0
  0
VERTEX
  5
872
  8
LAYER_1
 10
31.46782050952816
 20
-21.35621179698461
 30
0.0
  0
VERTEX
  5
873
  8
LAYER_1
 10
31.33566803960897
 20
-21.26165059741633
 30
0.0
  0
VERTEX
  5
874
  8
LAYER_1
 10
31.19702712624398
 20
-21.19644300715976
 30
0.0
  0
VERTEX
  5
875
  8
LAYER_1
 10
31.05447030851655
 20
-21.16095620151808
 30
0.0
  0
VERTEX
  5
876
  8
LAYER_1
 10
30.98252735398047
 20
-21.15447283521005
 30
0.0
  0
VERTEX
  5
877
  8
LAYER_1
 10
30.91057012551002
 20
-21.15555735579443
 30
0.0
  0
VERTEX
  5
878
  8
LAYER_1
 10
30.83892019049065
 20
-21.1642556601841
 30
0.0
  0
VERTEX
  5
879
  8
LAYER_1
 10
30.76789911630776
 20
-21.18061364529196
 30
0.0
  0
VERTEX
  5
87A
  8
LAYER_1
 10
30.69782847034677
 20
-21.20467720803091
 30
0.0
  0
VERTEX
  5
87B
  8
LAYER_1
 10
30.6290298199931
 20
-21.23649224531384
 30
0.0
  0
VERTEX
  5
87C
  8
LAYER_1
 10
30.56182473263218
 20
-21.27610465405365
 30
0.0
  0
VERTEX
  5
87D
  8
LAYER_1
 10
30.49653477564941
 20
-21.32356033116322
 30
0.0
  0
VERTEX
  5
87E
  8
LAYER_1
 10
30.4321523737981
 20
-21.37855847650024
 30
0.0
  0
VERTEX
  5
87F
  8
LAYER_1
 10
30.38061387734859
 20
-21.43284338780607
 30
0.0
  0
VERTEX
  5
880
  8
LAYER_1
 10
30.33986504757345
 20
-21.49196618799768
 30
0.0
  0
VERTEX
  5
881
  8
LAYER_1
 10
30.30785164574525
 20
-21.56147799999199
 30
0.0
  0
VERTEX
  5
882
  8
LAYER_1
 10
30.28251943313656
 20
-21.64692994670595
 30
0.0
  0
VERTEX
  5
883
  8
LAYER_1
 10
30.26181417101994
 20
-21.75387315105651
 30
0.0
  0
VERTEX
  5
884
  8
LAYER_1
 10
30.22606754335322
 20
-22.05443782433517
 30
0.0
  0
VERTEX
  5
885
  8
LAYER_1
 10
30.20739698246544
 20
-22.33964120750241
 30
0.0
  0
VERTEX
  5
886
  8
LAYER_1
 10
30.20367035927325
 20
-22.64723534820198
 30
0.0
  0
VERTEX
  5
887
  8
LAYER_1
 10
30.2139887711013
 20
-22.96750321769104
 30
0.0
  0
VERTEX
  5
888
  8
LAYER_1
 10
30.23745331527421
 20
-23.29072778722676
 30
0.0
  0
VERTEX
  5
889
  8
LAYER_1
 10
30.27316508911661
 20
-23.6071920280663
 30
0.0
  0
VERTEX
  5
88A
  8
LAYER_1
 10
30.32022518995314
 20
-23.90717891146682
 30
0.0
  0
VERTEX
  5
88B
  8
LAYER_1
 10
30.37773471510843
 20
-24.1809714086855
 30
0.0
  0
VERTEX
  5
88C
  8
LAYER_1
 10
30.4447947619071
 20
-24.41885249097948
 30
0.0
  0
VERTEX
  5
88D
  8
LAYER_1
 10
30.58355894618477
 20
-24.8653977007705
 30
0.0
  0
VERTEX
  5
88E
  8
LAYER_1
 10
30.70562057111974
 20
-25.29816813588898
 30
0.0
  0
VERTEX
  5
88F
  8
LAYER_1
 10
30.81578794925002
 20
-25.72112926177095
 30
0.0
  0
VERTEX
  5
890
  8
LAYER_1
 10
30.42656227241164
 20
-26.11979846479831
 30
0.0
  0
VERTEX
  5
891
  8
LAYER_1
 10
30.28820249640205
 20
-26.27189940200358
 30
0.0
  0
VERTEX
  5
892
  8
LAYER_1
 10
30.1682717821983
 20
-26.42723706325038
 30
0.0
  0
VERTEX
  5
893
  8
LAYER_1
 10
30.06507327699651
 20
-26.58956616072408
 30
0.0
  0
VERTEX
  5
894
  8
LAYER_1
 10
29.97691012799279
 20
-26.76264140661002
 30
0.0
  0
VERTEX
  5
895
  8
LAYER_1
 10
29.90208548238321
 20
-26.95021751309357
 30
0.0
  0
VERTEX
  5
896
  8
LAYER_1
 10
29.8389024873639
 20
-27.15604919236007
 30
0.0
  0
VERTEX
  5
897
  8
LAYER_1
 10
29.78566429013094
 20
-27.38389115659488
 30
0.0
  0
VERTEX
  5
898
  8
LAYER_1
 10
29.74067403788044
 20
-27.63749811798334
 30
0.0
  0
VERTEX
  5
899
  8
LAYER_1
 10
29.72997455892554
 20
-27.79361571996613
 30
0.0
  0
VERTEX
  5
89A
  8
LAYER_1
 10
29.73761903948165
 20
-27.99088835662269
 30
0.0
  0
VERTEX
  5
89B
  8
LAYER_1
 10
29.76183642934993
 20
-28.21938041464714
 30
0.0
  0
VERTEX
  5
89C
  8
LAYER_1
 10
29.80085567833157
 20
-28.46915628073364
 30
0.0
  0
VERTEX
  5
89D
  8
LAYER_1
 10
29.85290573622773
 20
-28.73028034157632
 30
0.0
  0
VERTEX
  5
89E
  8
LAYER_1
 10
29.91621555283957
 20
-28.99281698386931
 30
0.0
  0
VERTEX
  5
89F
  8
LAYER_1
 10
29.98901407796826
 20
-29.24683059430678
 30
0.0
  0
VERTEX
  5
8A0
  8
LAYER_1
 10
30.06953026141498
 20
-29.48238555958284
 30
0.0
  0
VERTEX
  5
8A1
  8
LAYER_1
 10
30.14235300061812
 20
-29.64787698189907
 30
0.0
  0
VERTEX
  5
8A2
  8
LAYER_1
 10
30.23467357773835
 20
-29.81333659354664
 30
0.0
  0
VERTEX
  5
8A3
  8
LAYER_1
 10
30.34169932415151
 20
-29.97314563027935
 30
0.0
  0
VERTEX
  5
8A4
  8
LAYER_1
 10
30.45863757123343
 20
-30.12168532785104
 30
0.0
  0
VERTEX
  5
8A5
  8
LAYER_1
 10
30.58069565035993
 20
-30.2533369220155
 30
0.0
  0
VERTEX
  5
8A6
  8
LAYER_1
 10
30.70308089290683
 20
-30.36248164852654
 30
0.0
  0
VERTEX
  5
8A7
  8
LAYER_1
 10
30.82100063024997
 20
-30.44350074313798
 30
0.0
  0
VERTEX
  5
8A8
  8
LAYER_1
 10
30.92966219376517
 20
-30.49077544160362
 30
0.0
  0
VERTEX
  5
8A9
  8
LAYER_1
 10
31.16814308040911
 20
-30.57685226071968
 30
0.0
  0
VERTEX
  5
8AA
  8
LAYER_1
 10
31.51986152197772
 20
-30.72207010162897
 30
0.0
  0
VERTEX
  5
8AB
  8
LAYER_1
 10
31.69871072101706
 20
-30.79132547159049
 30
0.0
  0
VERTEX
  5
8AC
  8
LAYER_1
 10
31.86606371452002
 20
-30.84140909030398
 30
0.0
  0
VERTEX
  5
8AD
  8
LAYER_1
 10
32.00317076378259
 20
-30.8676223245933
 30
0.0
  0
VERTEX
  5
8AE
  8
LAYER_1
 10
32.05452276597871
 20
-30.87030922471136
 30
0.0
  0
VERTEX
  5
8AF
  8
LAYER_1
 10
32.09128213010072
 20
-30.86526654128233
 30
0.0
  0
VERTEX
  5
8B0
  8
LAYER_1
 10
32.2303454317845
 20
-30.82112956390094
 30
0.0
  0
VERTEX
  5
8B1
  8
LAYER_1
 10
32.30907151324517
 20
-34.08749837428331
 30
0.0
  0
VERTEX
  5
8B2
  8
LAYER_1
 10
32.43206076345916
 20
-34.47995980699223
 30
0.0
  0
VERTEX
  5
8B3
  8
LAYER_1
 10
32.48120816184374
 20
-34.62018947341413
 30
0.0
  0
VERTEX
  5
8B4
  8
LAYER_1
 10
32.53413399424467
 20
-34.73676132975976
 30
0.0
  0
VERTEX
  5
8B5
  8
LAYER_1
 10
32.59249883159452
 20
-34.83120430380239
 30
0.0
  0
VERTEX
  5
8B6
  8
LAYER_1
 10
32.65796324482584
 20
-34.90504732331536
 30
0.0
  0
VERTEX
  5
8B7
  8
LAYER_1
 10
32.7321878048712
 20
-34.95981931607193
 30
0.0
  0
VERTEX
  5
8B8
  8
LAYER_1
 10
32.81683308266314
 20
-34.99704920984539
 30
0.0
  0
VERTEX
  5
8B9
  8
LAYER_1
 10
32.91355964913425
 20
-35.01826593240906
 30
0.0
  0
VERTEX
  5
8BA
  8
LAYER_1
 10
33.02402807521707
 20
-35.02499841153622
 30
0.0
  0
VERTEX
  5
8BB
  8
LAYER_1
 10
33.09986170455782
 20
-35.01200031855443
 30
0.0
  0
VERTEX
  5
8BC
  8
LAYER_1
 10
33.17153012688517
 20
-34.97340227103359
 30
0.0
  0
VERTEX
  5
8BD
  8
LAYER_1
 10
33.23867849124767
 20
-34.90979861611037
 30
0.0
  0
VERTEX
  5
8BE
  8
LAYER_1
 10
33.30095194669391
 20
-34.82178370092151
 30
0.0
  0
VERTEX
  5
8BF
  8
LAYER_1
 10
33.35799564227248
 20
-34.7099518726037
 30
0.0
  0
VERTEX
  5
8C0
  8
LAYER_1
 10
33.40945472703194
 20
-34.57489747829367
 30
0.0
  0
VERTEX
  5
8C1
  8
LAYER_1
 10
33.45497435002086
 20
-34.41721486512812
 30
0.0
  0
VERTEX
  5
8C2
  8
LAYER_1
 10
33.49419966028783
 20
-34.23749838024378
 30
0.0
  0
VERTEX
  5
8C3
  8
LAYER_1
 10
33.55081888633387
 20
-33.93749836832285
 30
0.0
  0
VERTEX
  5
8C4
  8
LAYER_1
 10
33.61507716531304
 20
-34.19999837875366
 30
0.0
  0
VERTEX
  5
8C5
  8
LAYER_1
 10
33.69469247272826
 20
-34.47902182734106
 30
0.0
  0
SEQEND
  5
E69
  8
LAYER_1
  0
POLYLINE
  5
75
  8
LAYER_1
 66
     1
 10
0.0
 20
0.0
 30
0.0
 70
     1
  0
VERTEX
  5
8C6
  8
LAYER_1
 10
34.46250434964895
 20
-34.16249837726355
 30
0.0
  0
VERTEX
  5
8C7
  8
LAYER_1
 10
34.7857788150076
 20
-33.48749835044146
 30
0.0
  0
VERTEX
  5
8C8
  8
LAYER_1
 10
35.03658165519516
 20
-31.08749825507402
 30
0.0
  0
VERTEX
  5
8C9
  8
LAYER_1
 10
35.39848288071327
 20
-27.56249811500311
 30
0.0
  0
VERTEX
  5
8CA
  8
LAYER_1
 10
35.84772280032264
 20
-22.76249792426825
 30
0.0
  0
VERTEX
  5
8CB
  8
LAYER_1
 10
36.07491070168115
 20
-20.88749784976244
 30
0.0
  0
VERTEX
  5
8CC
  8
LAYER_1
 10
36.14945284738215
 20
-20.28749782592058
 30
0.0
  0
VERTEX
  5
8CD
  8
LAYER_1
 10
36.03315861678969
 20
-20.58749783784151
 30
0.0
  0
VERTEX
  5
8CE
  8
LAYER_1
 10
35.96041115604105
 20
-20.7955796847874
 30
0.0
  0
VERTEX
  5
8CF
  8
LAYER_1
 10
35.88128164854508
 20
-21.05775196032049
 30
0.0
  0
VERTEX
  5
8D0
  8
LAYER_1
 10
35.71591143547811
 20
-21.69406874874389
 30
0.0
  0
VERTEX
  5
8D1
  8
LAYER_1
 10
35.56111786192272
 20
-22.39585010630302
 30
0.0
  0
VERTEX
  5
8D2
  8
LAYER_1
 10
35.49520915381623
 20
-22.73985309325576
 30
0.0
  0
VERTEX
  5
8D3
  8
LAYER_1
 10
35.44097081221287
 20
-23.06249793618917
 30
0.0
  0
VERTEX
  5
8D4
  8
LAYER_1
 10
35.3254634428805
 20
-23.8124979659915
 30
0.0
  0
VERTEX
  5
8D5
  8
LAYER_1
 10
34.94492445087351
 20
-26.73749808222055
 30
0.0
  0
VERTEX
  5
8D6
  8
LAYER_1
 10
34.83887143934889
 20
-27.59999811649323
 30
0.0
  0
VERTEX
  5
8D7
  8
LAYER_1
 10
34.76065911084781
 20
-28.26993444033599
 30
0.0
  0
VERTEX
  5
8D8
  8
LAYER_1
 10
34.69155082393135
 20
-28.93285968204253
 30
0.0
  0
VERTEX
  5
8D9
  8
LAYER_1
 10
34.63172377824857
 20
-29.58630633998333
 30
0.0
  0
VERTEX
  5
8DA
  8
LAYER_1
 10
34.58135517344859
 20
-30.2278069125289
 30
0.0
  0
VERTEX
  5
8DB
  8
LAYER_1
 10
34.54062220918047
 20
-30.85489389804973
 30
0.0
  0
VERTEX
  5
8DC
  8
LAYER_1
 10
34.50970208509329
 20
-31.46509979491633
 30
0.0
  0
VERTEX
  5
8DD
  8
LAYER_1
 10
34.48877200083618
 20
-32.05595710149918
 30
0.0
  0
VERTEX
  5
8DE
  8
LAYER_1
 10
34.47800915605818
 20
-32.62499831616879
 30
0.0
  0
SEQEND
  5
E6A
  8
LAYER_1
  0
POLYLINE
  5
76
  8
LAYER_1
 66
     1
 10
0.0
 20
0.0
 30
0.0
 70
     1
  0
VERTEX
  5
8DF
  8
LAYER_1
 10
35.88974599296594
 20
-31.46249826997519
 30
0.0
  0
VERTEX
  5
8E0
  8
LAYER_1
 10
36.22676851940577
 20
-30.82751603385582
 30
0.0
  0
VERTEX
  5
8E1
  8
LAYER_1
 10
37.11469069087184
 20
-27.18749810010195
 30
0.0
  0
VERTEX
  5
8E2
  8
LAYER_1
 10
37.3480152900256
 20
-26.2243342743069
 30
0.0
  0
VERTEX
  5
8E3
  8
LAYER_1
 10
37.93148433200636
 20
-23.76470115348733
 30
0.0
  0
VERTEX
  5
8E4
  8
LAYER_1
 10
38.55825033595593
 20
-21.05108847599074
 30
0.0
  0
VERTEX
  5
8E5
  8
LAYER_1
 10
38.86209316515031
 20
-19.71467904261439
 30
0.0
  0
VERTEX
  5
8E6
  8
LAYER_1
 10
38.81943475930976
 20
-19.60351301894418
 30
0.0
  0
VERTEX
  5
8E7
  8
LAYER_1
 10
38.79090298251403
 20
-19.55885364054366
 30
0.0
  0
VERTEX
  5
8E8
  8
LAYER_1
 10
38.74071147784136
 20
-19.512690922021
 30
0.0
  0
VERTEX
  5
8E9
  8
LAYER_1
 10
38.67174307716036
 20
-19.46586919146497
 30
0.0
  0
VERTEX
  5
8EA
  8
LAYER_1
 10
38.58688061233963
 20
-19.41923277696436
 30
0.0
  0
VERTEX
  5
8EB
  8
LAYER_1
 10
38.38100481775353
 20
-19.3298932084846
 30
0.0
  0
VERTEX
  5
8EC
  8
LAYER_1
 10
38.146146749032
 20
-19.25142684129201
 30
0.0
  0
VERTEX
  5
8ED
  8
LAYER_1
 10
37.90536906112402
 20
-19.19058830009693
 30
0.0
  0
VERTEX
  5
8EE
  8
LAYER_1
 10
37.68173440897854
 20
-19.15413220960967
 30
0.0
  0
VERTEX
  5
8EF
  8
LAYER_1
 10
37.58355280098829
 20
-19.14715840360345
 30
0.0
  0
VERTEX
  5
8F0
  8
LAYER_1
 10
37.49830544754452
 20
-19.14881319454055
 30
0.0
  0
VERTEX
  5
8F1
  8
LAYER_1
 10
37.42887518051587
 20
-19.15994091050977
 30
0.0
  0
VERTEX
  5
8F2
  8
LAYER_1
 10
37.37814483177094
 20
-19.1813858795999
 30
0.0
  0
VERTEX
  5
8F3
  8
LAYER_1
 10
37.29378519468362
 20
-19.23749778419733
 30
0.0
  0
VERTEX
  5
8F4
  8
LAYER_1
 10
37.06023373228692
 20
-20.66249784082174
 30
0.0
  0
VERTEX
  5
8F5
  8
LAYER_1
 10
36.97614382526082
 20
-21.20394377183709
 30
0.0
  0
VERTEX
  5
8F6
  8
LAYER_1
 10
36.89521327463289
 20
-21.78540670190107
 30
0.0
  0
VERTEX
  5
8F7
  8
LAYER_1
 10
36.81626225195348
 20
-22.41789629437579
 30
0.0
  0
VERTEX
  5
8F8
  8
LAYER_1
 10
36.73811092877295
 20
-23.11242221262334
 30
0.0
  0
VERTEX
  5
8F9
  8
LAYER_1
 10
36.57948806711006
 20
-24.73162167988532
 30
0.0
  0
VERTEX
  5
8FA
  8
LAYER_1
 10
36.40990606204717
 20
-26.73108241058383
 30
0.0
  0
VERTEX
  5
8FB
  8
LAYER_1
 10
36.28995369215001
 20
-28.22466679855177
 30
0.0
  0
VERTEX
  5
8FC
  8
LAYER_1
 10
36.16240180434163
 20
-29.28749818354845
 30
0.0
  0
SEQEND
  5
E6B
  8
LAYER_1
  0
POLYLINE
  5
77
  8
LAYER_1
 66
     1
 10
0.0
 20
0.0
 30
0.0
 70
     1
  0
VERTEX
  5
8FD
  8
LAYER_1
 10
38.0625044927001
 20
-26.75959438954872
 30
0.0
  0
VERTEX
  5
8FE
  8
LAYER_1
 10
40.63600787263132
 20
-21.52818173640237
 30
0.0
  0
VERTEX
  5
8FF
  8
LAYER_1
 10
40.40699308126304
 20
-21.20783979308241
 30
0.0
  0
VERTEX
  5
900
  8
LAYER_1
 10
40.15023070209946
 20
-20.87883965486321
 30
0.0
  0
VERTEX
  5
901
  8
LAYER_1
 10
39.85450362518078
 20
-20.53768120040257
 30
0.0
  0
VERTEX
  5
902
  8
LAYER_1
 10
39.69460727160417
 20
-20.37231989185535
 30
0.0
  0
VERTEX
  5
903
  8
LAYER_1
 10
39.58923456352578
 20
-20.28483906186858
 30
0.0
  0
VERTEX
  5
904
  8
LAYER_1
 10
39.55311773765504
 20
-20.26789463523266
 30
0.0
  0
VERTEX
  5
905
  8
LAYER_1
 10
39.52597961648681
 20
-20.26752929891362
 30
0.0
  0
VERTEX
  5
906
  8
LAYER_1
 10
39.50626946446373
 20
-20.28277937647039
 30
0.0
  0
VERTEX
  5
907
  8
LAYER_1
 10
39.49243654602844
 20
-20.31268119146188
 30
0.0
  0
VERTEX
  5
908
  8
LAYER_1
 10
39.45384413159006
 20
-20.43749783188105
 30
0.0
  0
VERTEX
  5
909
  8
LAYER_1
 10
39.29710784600873
 20
-21.2624978646636
 30
0.0
  0
VERTEX
  5
90A
  8
LAYER_1
 10
39.14133505228664
 20
-22.04343539569527
 30
0.0
  0
VERTEX
  5
90B
  8
LAYER_1
 10
38.9869152471328
 20
-22.76249792426825
 30
0.0
  0
VERTEX
  5
90C
  8
LAYER_1
 10
38.83345893383816
 20
-23.43749795109034
 30
0.0
  0
VERTEX
  5
90D
  8
LAYER_1
 10
38.09304844386007
 20
-26.51249807327986
 30
0.0
  0
SEQEND
  5
E6C
  8
LAYER_1
  0
POLYLINE
  5
78
  8
LAYER_1
 66
     1
 10
0.0
 20
0.0
 30
0.0
 70
     1
  0
VERTEX
  5
90E
  8
LAYER_1
 10
34.09228680711331
 20
-26.51249807327986
 30
0.0
  0
VERTEX
  5
90F
  8
LAYER_1
 10
34.19026505113705
 20
-25.87499804794788
 30
0.0
  0
VERTEX
  5
910
  8
LAYER_1
 10
34.39927087545844
 20
-24.59999799728394
 30
0.0
  0
VERTEX
  5
911
  8
LAYER_1
 10
34.55530799460742
 20
-23.72928246679819
 30
0.0
  0
VERTEX
  5
912
  8
LAYER_1
 10
34.7076280746284
 20
-22.92929218234
 30
0.0
  0
VERTEX
  5
913
  8
LAYER_1
 10
34.85508361207596
 20
-22.2050268680041
 30
0.0
  0
VERTEX
  5
914
  8
LAYER_1
 10
34.9965271035047
 20
-21.56148624788521
 30
0.0
  0
VERTEX
  5
915
  8
LAYER_1
 10
35.13081104546923
 20
-21.00367004607809
 30
0.0
  0
VERTEX
  5
916
  8
LAYER_1
 10
35.25678793452415
 20
-20.53657798667745
 30
0.0
  0
VERTEX
  5
917
  8
LAYER_1
 10
35.37331026722405
 20
-20.16520979377805
 30
0.0
  0
VERTEX
  5
918
  8
LAYER_1
 10
35.47923054012354
 20
-19.89456519147461
 30
0.0
  0
VERTEX
  5
919
  8
LAYER_1
 10
35.5821833257251
 20
-19.65047690525407
 30
0.0
  0
VERTEX
  5
91A
  8
LAYER_1
 10
35.61350192753972
 20
-19.56101100088845
 30
0.0
  0
VERTEX
  5
91B
  8
LAYER_1
 10
35.62500439584255
 20
-19.51008493363316
 30
0.0
  0
VERTEX
  5
91C
  8
LAYER_1
 10
35.64774901169483
 20
-19.45890325898507
 30
0.0
  0
VERTEX
  5
91D
  8
LAYER_1
 10
35.70922948610453
 20
-19.37560277021116
 30
0.0
  0
VERTEX
  5
91E
  8
LAYER_1
 10
35.90787777171337
 20
-19.1545162806709
 30
0.0
  0
VERTEX
  5
91F
  8
LAYER_1
 10
36.13990877490343
 20
-18.93056732578248
 30
0.0
  0
VERTEX
  5
920
  8
LAYER_1
 10
36.24311764628963
 20
-18.84368875532334
 30
0.0
  0
VERTEX
  5
921
  8
LAYER_1
 10
36.32428201790903
 20
-18.78749776631594
 30
0.0
  0
VERTEX
  5
922
  8
LAYER_1
 10
36.38202201899519
 20
-18.73470479546813
 30
0.0
  0
VERTEX
  5
923
  8
LAYER_1
 10
36.44014918119401
 20
-18.64640401070938
 30
0.0
  0
VERTEX
  5
924
  8
LAYER_1
 10
36.49189700948969
 20
-18.53490010002861
 30
0.0
  0
VERTEX
  5
925
  8
LAYER_1
 10
36.53049900886646
 20
-18.41249775141478
 30
0.0
  0
VERTEX
  5
926
  8
LAYER_1
 10
36.60267740057239
 20
-18.11249773949385
 30
0.0
  0
VERTEX
  5
927
  8
LAYER_1
 10
36.82117336324234
 20
-17.09999769926071
 30
0.0
  0
VERTEX
  5
928
  8
LAYER_1
 10
37.05073820844653
 20
-16.05389226042533
 30
0.0
  0
VERTEX
  5
929
  8
LAYER_1
 10
37.26886740552537
 20
-15.10121429456357
 30
0.0
  0
VERTEX
  5
92A
  8
LAYER_1
 10
37.49614311860062
 20
-14.1541779915623
 30
0.0
  0
VERTEX
  5
92B
  8
LAYER_1
 10
37.75314751179408
 20
-13.1249975413084
 30
0.0
  0
VERTEX
  5
92C
  8
LAYER_1
 10
38.08586930568453
 20
-11.81249748915434
 30
0.0
  0
VERTEX
  5
92D
  8
LAYER_1
 10
38.27733724126033
 20
-11.26454461187856
 30
0.0
  0
VERTEX
  5
92E
  8
LAYER_1
 10
38.37985852100046
 20
-10.98990445826488
 30
0.0
  0
VERTEX
  5
92F
  8
LAYER_1
 10
38.48864267186472
 20
-10.73457890573256
 30
0.0
  0
VERTEX
  5
930
  8
LAYER_1
 10
38.60333523039333
 20
-10.49915769226249
 30
0.0
  0
VERTEX
  5
931
  8
LAYER_1
 10
38.72358173312652
 20
-10.28423055583556
 30
0.0
  0
VERTEX
  5
932
  8
LAYER_1
 10
38.84902771660448
 20
-10.09038723443266
 30
0.0
  0
VERTEX
  5
933
  8
LAYER_1
 10
38.97931871736745
 20
-9.91821746603469
 30
0.0
  0
VERTEX
  5
934
  8
LAYER_1
 10
39.11410027195564
 20
-9.768310988622542
 30
0.0
  0
VERTEX
  5
935
  8
LAYER_1
 10
39.25301791690927
 20
-9.641257540177108
 30
0.0
  0
VERTEX
  5
936
  8
LAYER_1
 10
39.39614377356176
 20
-9.532042917922203
 30
0.0
  0
VERTEX
  5
937
  8
LAYER_1
 10
39.55066147115274
 20
-9.42840253780841
 30
0.0
  0
VERTEX
  5
938
  8
LAYER_1
 10
39.71099653409742
 20
-9.333068992485533
 30
0.0
  0
VERTEX
  5
939
  8
LAYER_1
 10
39.87157448681103
 20
-9.248774874603379
 30
0.0
  0
VERTEX
  5
93A
  8
LAYER_1
 10
40.02682085370881
 20
-9.178252776811755
 30
0.0
  0
VERTEX
  5
93B
  8
LAYER_1
 10
40.17116115920599
 20
-9.124235291760463
 30
0.0
  0
VERTEX
  5
93C
  8
LAYER_1
 10
40.2990209277178
 20
-9.089455012099311
 30
0.0
  0
VERTEX
  5
93D
  8
LAYER_1
 10
40.40482568365947
 20
-9.076644530478106
 30
0.0
  0
VERTEX
  5
93E
  8
LAYER_1
 10
40.48039735091005
 20
-9.065375977246235
 30
0.0
  0
VERTEX
  5
93F
  8
LAYER_1
 10
40.53980093066565
 20
-9.033218810886186
 30
0.0
  0
VERTEX
  5
940
  8
LAYER_1
 10
40.58303379232214
 20
-8.980175215120157
 30
0.0
  0
VERTEX
  5
941
  8
LAYER_1
 10
40.61009330527541
 20
-8.90624737367034
 30
0.0
  0
VERTEX
  5
942
  8
LAYER_1
 10
40.64803982235875
 20
-8.737497366964817
 30
0.0
  0
VERTEX
  5
943
  8
LAYER_1
 10
40.8013026439928
 20
-7.912497334182262
 30
0.0
  0
VERTEX
  5
944
  8
LAYER_1
 10
40.977019369581
 20
-7.0324191742111
 30
0.0
  0
VERTEX
  5
945
  8
LAYER_1
 10
41.18426710923251
 20
-6.074997261166573
 30
0.0
  0
VERTEX
  5
946
  8
LAYER_1
 10
41.41396875283816
 20
-5.062497220933437
 30
0.0
  0
VERTEX
  5
947
  8
LAYER_1
 10
41.54767874121301
 20
-4.612497203052044
 30
0.0
  0
VERTEX
  5
948
  8
LAYER_1
 10
41.80605753770335
 20
-3.337497152388096
 30
0.0
  0
VERTEX
  5
949
  8
LAYER_1
 10
41.93468329789406
 20
-2.675407213961338
 30
0.0
  0
VERTEX
  5
94A
  8
LAYER_1
 10
42.05418450810328
 20
-2.004877333117812
 30
0.0
  0
VERTEX
  5
94B
  8
LAYER_1
 10
42.16369812988833
 20
-1.332080889400917
 30
0.0
  0
VERTEX
  5
94C
  8
LAYER_1
 10
42.26236112480656
 20
-0.6631912623540508
 30
0.0
  0
VERTEX
  5
94D
  8
LAYER_1
 10
42.3493104544153
 20
-0.0043818315206121
 30
0.0
  0
VERTEX
  5
94E
  8
LAYER_1
 10
42.4236830802719
 20
0.6381740235560005
 30
0.0
  0
VERTEX
  5
94F
  8
LAYER_1
 10
42.48461596393369
 20
1.258302923332388
 30
0.0
  0
VERTEX
  5
950
  8
LAYER_1
 10
42.53124606695802
 20
1.849831488265153
 30
0.0
  0
VERTEX
  5
951
  8
LAYER_1
 10
42.6189621864426
 20
3.137159973946353
 30
0.0
  0
VERTEX
  5
952
  8
LAYER_1
 10
42.51576936892126
 20
3.825298984597623
 30
0.0
  0
VERTEX
  5
953
  8
LAYER_1
 10
42.22852957423095
 20
3.77936748883937
 30
0.0
  0
VERTEX
  5
954
  8
LAYER_1
 10
42.10657161663058
 20
3.767369025806691
 30
0.0
  0
VERTEX
  5
955
  8
LAYER_1
 10
41.98684491198664
 20
3.768654005688502
 30
0.0
  0
VERTEX
  5
956
  8
LAYER_1
 10
41.88311096660564
 20
3.782302755953752
 30
0.0
  0
VERTEX
  5
957
  8
LAYER_1
 10
41.80913128679411
 20
3.807395604071388
 30
0.0
  0
VERTEX
  5
958
  8
LAYER_1
 10
41.73486033428114
 20
3.834141602786634
 30
0.0
  0
VERTEX
  5
959
  8
LAYER_1
 10
41.65240324824362
 20
3.83251538854406
 30
0.0
  0
VERTEX
  5
95A
  8
LAYER_1
 10
41.5550570795686
 20
3.801292362914601
 30
0.0
  0
VERTEX
  5
95B
  8
LAYER_1
 10
41.43611887914315
 20
3.739247927469194
 30
0.0
  0
VERTEX
  5
95C
  8
LAYER_1
 10
41.28927063399678
 20
3.662399554088878
 30
0.0
  0
VERTEX
  5
95D
  8
LAYER_1
 10
41.22307961154992
 20
3.642422319798018
 30
0.0
  0
VERTEX
  5
95E
  8
LAYER_1
 10
41.15094163145807
 20
3.634463538444896
 30
0.0
  0
VERTEX
  5
95F
  8
LAYER_1
 10
41.06477992542432
 20
3.638313573533167
 30
0.0
  0
VERTEX
  5
960
  8
LAYER_1
 10
40.95651772515176
 20
3.653762788566484
 30
0.0
  0
VERTEX
  5
961
  8
LAYER_1
 10
40.64138476870255
 20
3.718620212482875
 30
0.0
  0
VERTEX
  5
962
  8
LAYER_1
 10
40.40101379198782
 20
3.777028780621615
 30
0.0
  0
VERTEX
  5
963
  8
LAYER_1
 10
40.15598469795485
 20
3.84626034149732
 30
0.0
  0
VERTEX
  5
964
  8
LAYER_1
 10
39.93499649879442
 20
3.917654650899343
 30
0.0
  0
VERTEX
  5
965
  8
LAYER_1
 10
39.76674820669733
 20
3.982551464617032
 30
0.0
  0
VERTEX
  5
966
  8
LAYER_1
 10
39.61899645884463
 20
4.037862780808757
 30
0.0
  0
VERTEX
  5
967
  8
LAYER_1
 10
39.45381568213183
 20
4.08315796328367
 30
0.0
  0
VERTEX
  5
968
  8
LAYER_1
 10
39.29138157332133
 20
4.113762816307258
 30
0.0
  0
VERTEX
  5
969
  8
LAYER_1
 10
39.15186982917558
 20
4.125003144145012
 30
0.0
  0
VERTEX
  5
96A
  8
LAYER_1
 10
38.99188154481494
 20
4.139008705961789
 30
0.0
  0
VERTEX
  5
96B
  8
LAYER_1
 10
38.78129309838444
 20
4.178202617405896
 30
0.0
  0
VERTEX
  5
96C
  8
LAYER_1
 10
38.53407494423377
 20
4.238350717467997
 30
0.0
  0
VERTEX
  5
96D
  8
LAYER_1
 10
38.26419753671264
 20
4.315218845138753
 30
0.0
  0
VERTEX
  5
96E
  8
LAYER_1
 10
37.98563133017075
 20
4.404572839408831
 30
0.0
  0
VERTEX
  5
96F
  8
LAYER_1
 10
37.7123467789578
 20
4.502178539268894
 30
0.0
  0
VERTEX
  5
970
  8
LAYER_1
 10
37.4583143374235
 20
4.603801783709605
 30
0.0
  0
VERTEX
  5
971
  8
LAYER_1
 10
37.23750445991755
 20
4.705208411721628
 30
0.0
  0
VERTEX
  5
972
  8
LAYER_1
 10
37.06383138533967
 20
4.797622277576364
 30
0.0
  0
VERTEX
  5
973
  8
LAYER_1
 10
36.88559379821057
 20
4.902965375789789
 30
0.0
  0
VERTEX
  5
974
  8
LAYER_1
 10
36.70391887011886
 20
5.020210961986903
 30
0.0
  0
VERTEX
  5
975
  8
LAYER_1
 10
36.51993377265312
 20
5.148332291792707
 30
0.0
  0
VERTEX
  5
976
  8
LAYER_1
 10
36.14954175595391
 20
5.433095204730385
 30
0.0
  0
VERTEX
  5
977
  8
LAYER_1
 10
35.78343512082169
 20
5.749040159602828
 30
0.0
  0
VERTEX
  5
978
  8
LAYER_1
 10
35.43063123996519
 20
6.087953201410036
 30
0.0
  0
VERTEX
  5
979
  8
LAYER_1
 10
35.10014748609316
 20
6.441620375152011
 30
0.0
  0
VERTEX
  5
97A
  8
LAYER_1
 10
34.80100123191433
 20
6.801827725828758
 30
0.0
  0
VERTEX
  5
97B
  8
LAYER_1
 10
34.66599759618134
 20
6.981817106580172
 30
0.0
  0
VERTEX
  5
97C
  8
LAYER_1
 10
34.54220985013743
 20
7.160361298440279
 30
0.0
  0
VERTEX
  5
97D
  8
LAYER_1
 10
34.4224378123212
 20
7.327440854874498
 30
0.0
  0
VERTEX
  5
97E
  8
LAYER_1
 10
34.29863375188948
 20
7.476218586591607
 30
0.0
  0
VERTEX
  5
97F
  8
LAYER_1
 10
34.1755861870417
 20
7.603009752374287
 30
0.0
  0
VERTEX
  5
980
  8
LAYER_1
 10
34.05808363597728
 20
7.704129611005222
 30
0.0
  0
VERTEX
  5
981
  8
LAYER_1
 10
33.95091461689565
 20
7.77589342126709
 30
0.0
  0
VERTEX
  5
982
  8
LAYER_1
 10
33.85886764799623
 20
7.814616441942572
 30
0.0
  0
VERTEX
  5
983
  8
LAYER_1
 10
33.82001134430218
 20
7.820436174555008
 30
0.0
  0
VERTEX
  5
984
  8
LAYER_1
 10
33.78673124747847
 20
7.816613931814351
 30
0.0
  0
VERTEX
  5
985
  8
LAYER_1
 10
33.75962592230002
 20
7.80268912106844
 30
0.0
  0
VERTEX
  5
986
  8
LAYER_1
 10
33.73929393354177
 20
7.778201149665108
 30
0.0
  0
VERTEX
  5
987
  8
LAYER_1
 10
33.68718958708908
 20
7.685095847994489
 30
0.0
  0
VERTEX
  5
988
  8
LAYER_1
 10
33.52663884433679
 20
6.861299534067712
 30
0.0
  0
VERTEX
  5
989
  8
LAYER_1
 10
33.38214890197182
 20
6.037149627727048
 30
0.0
  0
VERTEX
  5
98A
  8
LAYER_1
 10
33.26021242398053
 20
5.212503187358379
 30
0.0
  0
VERTEX
  5
98B
  8
LAYER_1
 10
33.15433674637659
 20
4.387503154575825
 30
0.0
  0
VERTEX
  5
98C
  8
LAYER_1
 10
33.06444238656786
 20
2.175003066658974
 30
0.0
  0
VERTEX
  5
98D
  8
LAYER_1
 10
33.0251280163045
 20
0.9820890214198483
 30
0.0
  0
VERTEX
  5
98E
  8
LAYER_1
 10
33.012052935564
 20
-0.115635543415415
 30
0.0
  0
VERTEX
  5
98F
  8
LAYER_1
 10
33.02522350434074
 20
-1.2680408508972
 30
0.0
  0
VERTEX
  5
990
  8
LAYER_1
 10
33.06464608262905
 20
-2.62499712407589
 30
0.0
  0
VERTEX
  5
991
  8
LAYER_1
 10
33.15474413849897
 20
-5.212497226893902
 30
0.0
  0
VERTEX
  5
992
  8
LAYER_1
 10
33.26349118088632
 20
-6.974997296929359
 30
0.0
  0
VERTEX
  5
993
  8
LAYER_1
 10
33.38723317152169
 20
-9.116181194095283
 30
0.0
  0
VERTEX
  5
994
  8
LAYER_1
 10
33.50084043144098
 20
-11.34649095458763
 30
0.0
  0
VERTEX
  5
995
  8
LAYER_1
 10
33.59865317790395
 20
-13.54730397193253
 30
0.0
  0
VERTEX
  5
996
  8
LAYER_1
 10
33.6750116281704
 20
-15.59999763965607
 30
0.0
  0
VERTEX
  5
997
  8
LAYER_1
 10
33.82206104379449
 20
-19.79999780654907
 30
0.0
  0
VERTEX
  5
998
  8
LAYER_1
 10
33.97392581389529
 20
-23.92499797046185
 30
0.0
  0
VERTEX
  5
999
  8
LAYER_1
 10
34.05640473005342
 20
-26.21249806135893
 30
0.0
  0
SEQEND
  5
E6D
  8
LAYER_1
  0
POLYLINE
  5
79
  8
LAYER_1
 66
     1
 10
0.0
 20
0.0
 30
0.0
 70
     1
  0
VERTEX
  5
99A
  8
LAYER_1
 10
32.10000425577164
 20
-25.65265739009872
 30
0.0
  0
VERTEX
  5
99B
  8
LAYER_1
 10
32.10000425577164
 20
-25.50531673522978
 30
0.0
  0
VERTEX
  5
99C
  8
LAYER_1
 10
31.956893039802
 20
-24.77140735508099
 30
0.0
  0
VERTEX
  5
99D
  8
LAYER_1
 10
31.83992246852821
 20
-24.23898956092318
 30
0.0
  0
VERTEX
  5
99E
  8
LAYER_1
 10
31.77341603376809
 20
-23.99022188545209
 30
0.0
  0
VERTEX
  5
99F
  8
LAYER_1
 10
31.69804994612838
 20
-23.74218009749914
 30
0.0
  0
VERTEX
  5
9A0
  8
LAYER_1
 10
31.611190040511
 20
-23.48668800189904
 30
0.0
  0
VERTEX
  5
9A1
  8
LAYER_1
 10
31.51020215181789
 20
-23.21556940348647
 30
0.0
  0
VERTEX
  5
9A2
  8
LAYER_1
 10
31.25530576481214
 20
-22.59374791756272
 30
0.0
  0
VERTEX
  5
9A3
  8
LAYER_1
 10
31.0228964707768
 20
-22.04999789595604
 30
0.0
  0
VERTEX
  5
9A4
  8
LAYER_1
 10
30.97111264010803
 20
-22.04999789595604
 30
0.0
  0
VERTEX
  5
9A5
  8
LAYER_1
 10
30.94136736608043
 20
-22.06505622669965
 30
0.0
  0
VERTEX
  5
9A6
  8
LAYER_1
 10
30.91716924151068
 20
-22.1083950323322
 30
0.0
  0
VERTEX
  5
9A7
  8
LAYER_1
 10
30.89837448697276
 20
-22.17726003295632
 30
0.0
  0
VERTEX
  5
9A8
  8
LAYER_1
 10
30.88483932304068
 20
-22.26889694867461
 30
0.0
  0
VERTEX
  5
9A9
  8
LAYER_1
 10
30.87297264929004
 20
-22.50946940580413
 30
0.0
  0
VERTEX
  5
9AA
  8
LAYER_1
 10
30.88041898485075
 20
-22.80807816454164
 30
0.0
  0
VERTEX
  5
9AB
  8
LAYER_1
 10
30.90602809431479
 20
-23.14268898570801
 30
0.0
  0
VERTEX
  5
9AC
  8
LAYER_1
 10
30.94864974227417
 20
-23.4912676301241
 30
0.0
  0
VERTEX
  5
9AD
  8
LAYER_1
 10
31.00713369332087
 20
-23.83177985861079
 30
0.0
  0
VERTEX
  5
9AE
  8
LAYER_1
 10
31.0803297120469
 20
-24.14219143198896
 30
0.0
  0
VERTEX
  5
9AF
  8
LAYER_1
 10
31.1138167267092
 20
-24.26249798387289
 30
0.0
  0
VERTEX
  5
9B0
  8
LAYER_1
 10
31.30477350567983
 20
-24.90383803539025
 30
0.0
  0
VERTEX
  5
9B1
  8
LAYER_1
 10
31.41573817981627
 20
-25.25540472969987
 30
0.0
  0
VERTEX
  5
9B2
  8
LAYER_1
 10
31.46206955021685
 20
-25.37449051821664
 30
0.0
  0
VERTEX
  5
9B3
  8
LAYER_1
 10
31.5076567779379
 20
-25.4647660740253
 30
0.0
  0
VERTEX
  5
9B4
  8
LAYER_1
 10
31.55651723930358
 20
-25.53297250191379
 30
0.0
  0
VERTEX
  5
9B5
  8
LAYER_1
 10
31.61266831063808
 20
-25.58585090667005
 30
0.0
  0
VERTEX
  5
9B6
  8
LAYER_1
 10
31.68012736826554
 20
-25.63014239308202
 30
0.0
  0
VERTEX
  5
9B7
  8
LAYER_1
 10
31.76291178851017
 20
-25.67258806593763
 30
0.0
  0
VERTEX
  5
9B8
  8
LAYER_1
 10
31.95633335877212
 20
-25.76174042515619
 30
0.0
  0
VERTEX
  5
9B9
  8
LAYER_1
 10
32.01618544390914
 20
-25.7833487701575
 30
0.0
  0
VERTEX
  5
9BA
  8
LAYER_1
 10
32.05656990858743
 20
-25.78934340012064
 30
0.0
  0
VERTEX
  5
9BB
  8
LAYER_1
 10
32.0813153874599
 20
-25.77949794607097
 30
0.0
  0
VERTEX
  5
9BC
  8
LAYER_1
 10
32.09425051517948
 20
-25.75358603903386
 30
0.0
  0
SEQEND
  5
E6E
  8
LAYER_1
  0
POLYLINE
  5
7A
  8
LAYER_1
 66
     1
 10
0.0
 20
0.0
 30
0.0
 70
     1
  0
VERTEX
  5
9BD
  8
LAYER_1
 10
40.98750460892916
 20
-20.84897213153305
 30
0.0
  0
VERTEX
  5
9BE
  8
LAYER_1
 10
41.58162770587717
 20
-19.70573494445414
 30
0.0
  0
VERTEX
  5
9BF
  8
LAYER_1
 10
42.11011224835013
 20
-18.70097686264219
 30
0.0
  0
VERTEX
  5
9C0
  8
LAYER_1
 10
42.54642350156028
 20
-17.89067880099234
 30
0.0
  0
VERTEX
  5
9C1
  8
LAYER_1
 10
42.91709620029543
 20
-17.21885984460945
 30
0.0
  0
VERTEX
  5
9C2
  8
LAYER_1
 10
42.83163017405646
 20
-17.1031787696999
 30
0.0
  0
VERTEX
  5
9C3
  8
LAYER_1
 10
42.71628352273308
 20
-16.90831120045782
 30
0.0
  0
VERTEX
  5
9C4
  8
LAYER_1
 10
42.55897684469542
 20
-16.6022455753445
 30
0.0
  0
VERTEX
  5
9C5
  8
LAYER_1
 10
42.47195735895916
 20
-16.38832680799705
 30
0.0
  0
VERTEX
  5
9C6
  8
LAYER_1
 10
42.41078898796047
 20
-16.16114715611548
 30
0.0
  0
VERTEX
  5
9C7
  8
LAYER_1
 10
42.37451569056235
 20
-15.92351018428688
 30
0.0
  0
VERTEX
  5
9C8
  8
LAYER_1
 10
42.36218142562779
 20
-15.67821945709832
 30
0.0
  0
VERTEX
  5
9C9
  8
LAYER_1
 10
42.37283015201982
 20
-15.42807853913689
 30
0.0
  0
VERTEX
  5
9CA
  8
LAYER_1
 10
42.40550582860145
 20
-15.17589099498967
 30
0.0
  0
VERTEX
  5
9CB
  8
LAYER_1
 10
42.45925241423568
 20
-14.92446038924374
 30
0.0
  0
VERTEX
  5
9CC
  8
LAYER_1
 10
42.53311386778552
 20
-14.6765902864862
 30
0.0
  0
VERTEX
  5
9CD
  8
LAYER_1
 10
42.62613414811398
 20
-14.43508425130412
 30
0.0
  0
VERTEX
  5
9CE
  8
LAYER_1
 10
42.73735721408407
 20
-14.20274584828458
 30
0.0
  0
VERTEX
  5
9CF
  8
LAYER_1
 10
42.8658270245588
 20
-13.98237864201467
 30
0.0
  0
VERTEX
  5
9D0
  8
LAYER_1
 10
43.01058753840117
 20
-13.77678619708148
 30
0.0
  0
VERTEX
  5
9D1
  8
LAYER_1
 10
43.17068271447419
 20
-13.58877207807208
 30
0.0
  0
VERTEX
  5
9D2
  8
LAYER_1
 10
43.34515651164088
 20
-13.42113984957357
 30
0.0
  0
VERTEX
  5
9D3
  8
LAYER_1
 10
43.53305288876423
 20
-13.27669307617301
 30
0.0
  0
VERTEX
  5
9D4
  8
LAYER_1
 10
43.63173578195435
 20
-13.21404034906794
 30
0.0
  0
VERTEX
  5
9D5
  8
LAYER_1
 10
43.73341580470726
 20
-13.15823532245751
 30
0.0
  0
VERTEX
  5
9D6
  8
LAYER_1
 10
43.87575541186904
 20
-13.07996342568858
 30
0.0
  0
VERTEX
  5
9D7
  8
LAYER_1
 10
43.99231923503772
 20
-13.0041701873178
 30
0.0
  0
VERTEX
  5
9D8
  8
LAYER_1
 10
44.07107857501656
 20
-12.93950550840928
 30
0.0
  0
VERTEX
  5
9D9
  8
LAYER_1
 10
44.0925225953108
 20
-12.91404947283591
 30
0.0
  0
VERTEX
  5
9DA
  8
LAYER_1
 10
44.1000047326088
 20
-12.89461929002715
 30
0.0
  0
VERTEX
  5
9DB
  8
LAYER_1
 10
44.09005681611877
 20
-12.84141531170379
 30
0.0
  0
VERTEX
  5
9DC
  8
LAYER_1
 10
44.06064549366351
 20
-12.75270832562379
 30
0.0
  0
VERTEX
  5
9DD
  8
LAYER_1
 10
43.94602719294605
 20
-12.47468316082251
 30
0.0
  0
VERTEX
  5
9DE
  8
LAYER_1
 10
43.76133895463401
 20
-12.07233945688056
 30
0.0
  0
VERTEX
  5
9DF
  8
LAYER_1
 10
43.51176990290494
 20
-11.55747287505518
 30
0.0
  0
VERTEX
  5
9E0
  8
LAYER_1
 10
43.41688359395067
 20
-11.37592729317355
 30
0.0
  0
VERTEX
  5
9E1
  8
LAYER_1
 10
43.31647935403103
 20
-11.2038893684775
 30
0.0
  0
VERTEX
  5
9E2
  8
LAYER_1
 10
43.21089485072507
 20
-11.04163226185437
 30
0.0
  0
VERTEX
  5
9E3
  8
LAYER_1
 10
43.10046775161186
 20
-10.8894291341915
 30
0.0
  0
VERTEX
  5
9E4
  8
LAYER_1
 10
42.98553572427046
 20
-10.74755314637622
 30
0.0
  0
VERTEX
  5
9E5
  8
LAYER_1
 10
42.86643643627994
 20
-10.61627745929587
 30
0.0
  0
VERTEX
  5
9E6
  8
LAYER_1
 10
42.74350755521937
 20
-10.49587523383778
 30
0.0
  0
VERTEX
  5
9E7
  8
LAYER_1
 10
42.61708674866782
 20
-10.3866196308893
 30
0.0
  0
VERTEX
  5
9E8
  8
LAYER_1
 10
42.48751168420434
 20
-10.28878381133776
 30
0.0
  0
VERTEX
  5
9E9
  8
LAYER_1
 10
42.355120029408
 20
-10.20264093607049
 30
0.0
  0
VERTEX
  5
9EA
  8
LAYER_1
 10
42.22024945185788
 20
-10.12846416597483
 30
0.0
  0
VERTEX
  5
9EB
  8
LAYER_1
 10
42.08323761913303
 20
-10.06652666193811
 30
0.0
  0
VERTEX
  5
9EC
  8
LAYER_1
 10
41.94442219881252
 20
-10.01710158484768
 30
0.0
  0
VERTEX
  5
9ED
  8
LAYER_1
 10
41.80414085847542
 20
-9.980462095590868
 30
0.0
  0
VERTEX
  5
9EE
  8
LAYER_1
 10
41.66273126570078
 20
-9.956881355055007
 30
0.0
  0
VERTEX
  5
9EF
  8
LAYER_1
 10
41.5205310880677
 20
-9.946632524127438
 30
0.0
  0
VERTEX
  5
9F0
  8
LAYER_1
 10
41.14777530731541
 20
-9.937497414648533
 30
0.0
  0
VERTEX
  5
9F1
  8
LAYER_1
 10
40.8753574251497
 20
-11.43749747425318
 30
0.0
  0
VERTEX
  5
9F2
  8
LAYER_1
 10
40.34826860139506
 20
-15.11249762028456
 30
0.0
  0
VERTEX
  5
9F3
  8
LAYER_1
 10
40.11326620691516
 20
-16.6124976798892
 30
0.0
  0
VERTEX
  5
9F4
  8
LAYER_1
 10
39.65942439190698
 20
-19.28353302131489
 30
0.0
  0
VERTEX
  5
9F5
  8
LAYER_1
 10
40.09846449147736
 20
-19.74828367953207
 30
0.0
  0
VERTEX
  5
9F6
  8
LAYER_1
 10
40.28373045260158
 20
-19.95370866882993
 30
0.0
  0
VERTEX
  5
9F7
  8
LAYER_1
 10
40.46361468898757
 20
-20.16947526326332
 30
0.0
  0
VERTEX
  5
9F8
  8
LAYER_1
 10
40.61755885337369
 20
-20.36994984218571
 30
0.0
  0
VERTEX
  5
9F9
  8
LAYER_1
 10
40.72500459849834
 20
-20.52949878495055
 30
0.0
  0
VERTEX
  5
9FA
  8
LAYER_1
 10
40.86844210419804
 20
-20.7534437328831
 30
0.0
  0
VERTEX
  5
9FB
  8
LAYER_1
 10
40.92064913752256
 20
-20.82191250944906
 30
0.0
  0
VERTEX
  5
9FC
  8
LAYER_1
 10
40.95000460743904
 20
-20.84746768184247
 30
0.0
  0
SEQEND
  5
E6F
  8
LAYER_1
  0
POLYLINE
  5
7B
  8
LAYER_1
 66
     1
 10
0.0
 20
0.0
 30
0.0
 70
     1
  0
VERTEX
  5
9FD
  8
LAYER_1
 10
39.1024308226397
 20
-18.62275661189272
 30
0.0
  0
VERTEX
  5
9FE
  8
LAYER_1
 10
39.15078456400903
 20
-18.33749774843454
 30
0.0
  0
VERTEX
  5
9FF
  8
LAYER_1
 10
39.33435922050897
 20
-17.09999769926071
 30
0.0
  0
VERTEX
  5
A00
  8
LAYER_1
 10
39.63709641873743
 20
-14.96249761432409
 30
0.0
  0
VERTEX
  5
A01
  8
LAYER_1
 10
39.78728868567924
 20
-13.9082788224332
 30
0.0
  0
VERTEX
  5
A02
  8
LAYER_1
 10
39.98105460930353
 20
-12.63749752193689
 30
0.0
  0
VERTEX
  5
A03
  8
LAYER_1
 10
40.20585025814107
 20
-11.21249746531248
 30
0.0
  0
VERTEX
  5
A04
  8
LAYER_1
 10
40.31542742235924
 20
-10.67190931873776
 30
0.0
  0
VERTEX
  5
A05
  8
LAYER_1
 10
40.38976737216311
 20
-10.30034876384324
 30
0.0
  0
VERTEX
  5
A06
  8
LAYER_1
 10
40.4164453924559
 20
-10.11705397285804
 30
0.0
  0
VERTEX
  5
A07
  8
LAYER_1
 10
40.41257291594146
 20
-10.07528246824575
 30
0.0
  0
VERTEX
  5
A08
  8
LAYER_1
 10
40.39757904133624
 20
-10.05570887990798
 30
0.0
  0
VERTEX
  5
A09
  8
LAYER_1
 10
40.33528587690274
 20
-10.04999741911888
 30
0.0
  0
VERTEX
  5
A0A
  8
LAYER_1
 10
40.26011781852728
 20
-10.06701880450579
 30
0.0
  0
VERTEX
  5
A0B
  8
LAYER_1
 10
40.16217586814207
 20
-10.11436738777452
 30
0.0
  0
VERTEX
  5
A0C
  8
LAYER_1
 10
40.04846828567608
 20
-10.18646980958707
 30
0.0
  0
VERTEX
  5
A0D
  8
LAYER_1
 10
39.9260033310583
 20
-10.27775271060543
 30
0.0
  0
VERTEX
  5
A0E
  8
LAYER_1
 10
39.8017892642177
 20
-10.38264273149162
 30
0.0
  0
VERTEX
  5
A0F
  8
LAYER_1
 10
39.68283434508324
 20
-10.49556651290763
 30
0.0
  0
VERTEX
  5
A10
  8
LAYER_1
 10
39.57614683358392
 20
-10.61095069551546
 30
0.0
  0
VERTEX
  5
A11
  8
LAYER_1
 10
39.48873498964869
 20
-10.72322191997712
 30
0.0
  0
VERTEX
  5
A12
  8
LAYER_1
 10
39.29041572635055
 20
-11.00939670976242
 30
0.0
  0
VERTEX
  5
A13
  8
LAYER_1
 10
38.95229116429248
 20
-12.01094712330024
 30
0.0
  0
VERTEX
  5
A14
  8
LAYER_1
 10
38.81905581024708
 20
-12.42859255628827
 30
0.0
  0
VERTEX
  5
A15
  8
LAYER_1
 10
38.67539195198016
 20
-12.92095913858497
 30
0.0
  0
VERTEX
  5
A16
  8
LAYER_1
 10
38.52440766695842
 20
-13.47561036738766
 30
0.0
  0
VERTEX
  5
A17
  8
LAYER_1
 10
38.36921103264856
 20
-14.08010973989365
 30
0.0
  0
VERTEX
  5
A18
  8
LAYER_1
 10
38.21291012651731
 20
-14.72202075330025
 30
0.0
  0
VERTEX
  5
A19
  8
LAYER_1
 10
38.05861302603137
 20
-15.38890690480478
 30
0.0
  0
VERTEX
  5
A1A
  8
LAYER_1
 10
37.90942780865745
 20
-16.06833169160455
 30
0.0
  0
VERTEX
  5
A1B
  8
LAYER_1
 10
37.76846255186224
 20
-16.74785861089687
 30
0.0
  0
VERTEX
  5
A1C
  8
LAYER_1
 10
37.57534849611146
 20
-17.70821957468709
 30
0.0
  0
VERTEX
  5
A1D
  8
LAYER_1
 10
37.479352257862
 20
-18.52499775588512
 30
0.0
  0
VERTEX
  5
A1E
  8
LAYER_1
 10
37.754052063137
 20
-18.52499775588512
 30
0.0
  0
VERTEX
  5
A1F
  8
LAYER_1
 10
37.85128256171548
 20
-18.53085018192641
 30
0.0
  0
VERTEX
  5
A20
  8
LAYER_1
 10
37.96679925932821
 20
-18.54803568268904
 30
0.0
  0
VERTEX
  5
A21
  8
LAYER_1
 10
38.24478990716805
 20
-18.61417524421105
 30
0.0
  0
VERTEX
  5
A22
  8
LAYER_1
 10
38.57222131767971
 20
-18.71895511211651
 30
0.0
  0
VERTEX
  5
A23
  8
LAYER_1
 10
38.9332908018864
 20
-18.8579139580708
 30
0.0
  0
VERTEX
  5
A24
  8
LAYER_1
 10
38.96623039399002
 20
-18.86829064624911
 30
0.0
  0
VERTEX
  5
A25
  8
LAYER_1
 10
38.9943899817077
 20
-18.86926360527213
 30
0.0
  0
VERTEX
  5
A26
  8
LAYER_1
 10
39.01847426873105
 20
-18.85985307736743
 30
0.0
  0
VERTEX
  5
A27
  8
LAYER_1
 10
39.03918795875171
 20
-18.83907930476256
 30
0.0
  0
VERTEX
  5
A28
  8
LAYER_1
 10
39.07332236255139
 20
-18.75952299436259
 30
0.0
  0
SEQEND
  5
E70
  8
LAYER_1
  0
POLYLINE
  5
7C
  8
LAYER_1
 66
     1
 10
0.0
 20
0.0
 30
0.0
 70
     1
  0
VERTEX
  5
A29
  8
LAYER_1
 10
11.92150199849561
 20
-1.293747071176767
 30
0.0
  0
VERTEX
  5
A2A
  8
LAYER_1
 10
12.02574782796694
 20
-0.9374970570206642
 30
0.0
  0
VERTEX
  5
A2B
  8
LAYER_1
 10
12.60021404602372
 20
0.8625030145049095
 30
0.0
  0
VERTEX
  5
A2C
  8
LAYER_1
 10
12.69302855881294
 20
1.357100215879115
 30
0.0
  0
VERTEX
  5
A2D
  8
LAYER_1
 10
12.60527540474631
 20
2.347301664365844
 30
0.0
  0
VERTEX
  5
A2E
  8
LAYER_1
 10
12.45226281826299
 20
4.016225863949391
 30
0.0
  0
VERTEX
  5
A2F
  8
LAYER_1
 10
12.30171946447943
 20
5.550003200769424
 30
0.0
  0
VERTEX
  5
A30
  8
LAYER_1
 10
12.23661600740648
 20
6.187503226101398
 30
0.0
  0
VERTEX
  5
A31
  8
LAYER_1
 10
11.99095800492351
 20
8.662503324449062
 30
0.0
  0
VERTEX
  5
A32
  8
LAYER_1
 10
11.89472701058305
 20
9.300003349781036
 30
0.0
  0
VERTEX
  5
A33
  8
LAYER_1
 10
11.85999035125589
 20
9.575643009171472
 30
0.0
  0
VERTEX
  5
A34
  8
LAYER_1
 10
11.83654743343388
 20
9.854886184330098
 30
0.0
  0
VERTEX
  5
A35
  8
LAYER_1
 10
11.82646299185987
 20
10.10512545208621
 30
0.0
  0
VERTEX
  5
A36
  8
LAYER_1
 10
11.83180176127672
 20
10.29375338926911
 30
0.0
  0
VERTEX
  5
A37
  8
LAYER_1
 10
11.84063006970019
 20
10.44619539744936
 30
0.0
  0
VERTEX
  5
A38
  8
LAYER_1
 10
11.83515516883664
 20
10.5579032349857
 30
0.0
  0
VERTEX
  5
A39
  8
LAYER_1
 10
11.81569199280637
 20
10.62659865320278
 30
0.0
  0
VERTEX
  5
A3A
  8
LAYER_1
 10
11.8008132185163
 20
10.64410475235554
 30
0.0
  0
VERTEX
  5
A3B
  8
LAYER_1
 10
11.78255547572967
 20
10.65000340342522
 30
0.0
  0
VERTEX
  5
A3C
  8
LAYER_1
 10
11.70000344514847
 20
10.65000340342522
 30
0.0
  0
VERTEX
  5
A3D
  8
LAYER_1
 10
11.70000344514847
 20
-1.64999708533287
 30
0.0
  0
VERTEX
  5
A3E
  8
LAYER_1
 10
11.75862980708636
 20
-1.64999708533287
 30
0.0
  0
VERTEX
  5
A3F
  8
LAYER_1
 10
11.77253428021779
 20
-1.64272596687988
 30
0.0
  0
VERTEX
  5
A40
  8
LAYER_1
 10
11.78961897166429
 20
-1.621886732653365
 30
0.0
  0
VERTEX
  5
A41
  8
LAYER_1
 10
11.83065688761221
 20
-1.545348643674515
 30
0.0
  0
VERTEX
  5
A42
  8
LAYER_1
 10
11.87639931114953
 20
-1.432072271985817
 30
0.0
  0
SEQEND
  5
E71
  8
LAYER_1
  0
POLYLINE
  5
7D
  8
LAYER_1
 66
     1
 10
0.0
 20
0.0
 30
0.0
 70
     1
  0
VERTEX
  5
A43
  8
LAYER_1
 10
34.12500433623791
 20
9.075347790485225
 30
0.0
  0
VERTEX
  5
A44
  8
LAYER_1
 10
34.13484185830994
 20
9.125179999898386
 30
0.0
  0
VERTEX
  5
A45
  8
LAYER_1
 10
34.1616271906843
 20
9.186683859505601
 30
0.0
  0
VERTEX
  5
A46
  8
LAYER_1
 10
34.20126948259834
 20
9.252046477711348
 30
0.0
  0
VERTEX
  5
A47
  8
LAYER_1
 10
34.24967788328945
 20
9.313454962920105
 30
0.0
  0
VERTEX
  5
A48
  8
LAYER_1
 10
34.3213695566461
 20
9.38561762837547
 30
0.0
  0
VERTEX
  5
A49
  8
LAYER_1
 10
34.34959706026891
 20
9.404284424040277
 30
0.0
  0
VERTEX
  5
A4A
  8
LAYER_1
 10
34.37589915995515
 20
9.411533141010837
 30
0.0
  0
VERTEX
  5
A4B
  8
LAYER_1
 10
34.40264096928014
 20
9.407507488797904
 30
0.0
  0
VERTEX
  5
A4C
  8
LAYER_1
 10
34.43218760181919
 20
9.392351176912225
 30
0.0
  0
VERTEX
  5
A4D
  8
LAYER_1
 10
34.50915579084082
 20
9.329221412165651
 30
0.0
  0
VERTEX
  5
A4E
  8
LAYER_1
 10
34.57954083406425
 20
9.279472169255612
 30
0.0
  0
VERTEX
  5
A4F
  8
LAYER_1
 10
34.65753102533498
 20
9.250265042422312
 30
0.0
  0
VERTEX
  5
A50
  8
LAYER_1
 10
34.7420750757354
 20
9.241843418464024
 30
0.0
  0
VERTEX
  5
A51
  8
LAYER_1
 10
34.83212169634791
 20
9.25445068417902
 30
0.0
  0
VERTEX
  5
A52
  8
LAYER_1
 10
34.87862925605429
 20
9.272968627974315
 30
0.0
  0
VERTEX
  5
A53
  8
LAYER_1
 10
34.937923331508
 20
9.307466284614867
 30
0.0
  0
VERTEX
  5
A54
  8
LAYER_1
 10
35.08721055168542
 20
9.416957616737628
 30
0.0
  0
VERTEX
  5
A55
  8
LAYER_1
 10
35.26466240093606
 20
9.568038441159075
 30
0.0
  0
VERTEX
  5
A56
  8
LAYER_1
 10
35.45495792331583
 20
9.74582251849098
 30
0.0
  0
VERTEX
  5
A57
  8
LAYER_1
 10
35.64277616288065
 20
9.935423609345113
 30
0.0
  0
VERTEX
  5
A58
  8
LAYER_1
 10
35.81279616368641
 20
10.12195547433324
 30
0.0
  0
VERTEX
  5
A59
  8
LAYER_1
 10
35.94969696978903
 20
10.29053187406714
 30
0.0
  0
VERTEX
  5
A5A
  8
LAYER_1
 10
36.03815762524442
 20
10.42626656915859
 30
0.0
  0
VERTEX
  5
A5B
  8
LAYER_1
 10
36.07035283344673
 20
10.49107903325262
 30
0.0
  0
VERTEX
  5
A5C
  8
LAYER_1
 10
36.08921843861562
 20
10.54269103834128
 30
0.0
  0
VERTEX
  5
A5D
  8
LAYER_1
 10
36.0912763649623
 20
10.58557956405788
 30
0.0
  0
VERTEX
  5
A5E
  8
LAYER_1
 10
36.07304853669801
 20
10.62422159003575
 30
0.0
  0
VERTEX
  5
A5F
  8
LAYER_1
 10
36.03105687803395
 20
10.6630940959082
 30
0.0
  0
VERTEX
  5
A60
  8
LAYER_1
 10
35.96182331318135
 20
10.70667406130857
 30
0.0
  0
VERTEX
  5
A61
  8
LAYER_1
 10
35.72771816175538
 20
10.82586428922633
 30
0.0
  0
VERTEX
  5
A62
  8
LAYER_1
 10
35.50313762583073
 20
10.92867411868379
 30
0.0
  0
VERTEX
  5
A63
  8
LAYER_1
 10
35.41582862722828
 20
10.96011421314461
 30
0.0
  0
VERTEX
  5
A64
  8
LAYER_1
 10
35.33875590718657
 20
10.97942603912287
 30
0.0
  0
VERTEX
  5
A65
  8
LAYER_1
 10
35.2671060399462
 20
10.98749580539062
 30
0.0
  0
VERTEX
  5
A66
  8
LAYER_1
 10
35.1960655997478
 20
10.98520972071989
 30
0.0
  0
VERTEX
  5
A67
  8
LAYER_1
 10
35.03655929743934
 20
10.95311483365118
 30
0.0
  0
VERTEX
  5
A68
  8
LAYER_1
 10
34.91808759595622
 20
10.91645841241638
 30
0.0
  0
VERTEX
  5
A69
  8
LAYER_1
 10
34.80153259793661
 20
10.87212579836986
 30
0.0
  0
VERTEX
  5
A6A
  8
LAYER_1
 10
34.70030606897193
 20
10.82570585847017
 30
0.0
  0
VERTEX
  5
A6B
  8
LAYER_1
 10
34.62781977465359
 20
10.78278745967589
 30
0.0
  0
VERTEX
  5
A6C
  8
LAYER_1
 10
34.49776986322397
 20
10.68750340491533
 30
0.0
  0
VERTEX
  5
A6D
  8
LAYER_1
 10
34.04360907690523
 20
9.056398596199372
 30
0.0
  0
VERTEX
  5
A6E
  8
LAYER_1
 10
34.08430670657157
 20
9.015700966533032
 30
0.0
  0
VERTEX
  5
A6F
  8
LAYER_1
 10
34.10010883309045
 20
9.00781664455749
 30
0.0
  0
VERTEX
  5
A70
  8
LAYER_1
 10
34.11304940752342
 20
9.016434448831628
 30
0.0
  0
VERTEX
  5
A71
  8
LAYER_1
 10
34.12179303889705
 20
9.039597217944518
 30
0.0
  0
SEQEND
  5
E72
  8
LAYER_1
  0
POLYLINE
  5
7E
  8
LAYER_1
 66
     1
 10
0.0
 20
0.0
 30
0.0
 70
     1
  0
VERTEX
  5
A72
  8
LAYER_1
 10
-67.64999970793724
 20
26.25000402331352
 30
0.0
  0
VERTEX
  5
A73
  8
LAYER_1
 10
-67.64999970793724
 20
10.87500341236591
 30
0.0
  0
VERTEX
  5
A74
  8
LAYER_1
 10
0.9000030159950256
 20
10.87500341236591
 30
0.0
  0
VERTEX
  5
A75
  8
LAYER_1
 10
0.9000030159950256
 20
26.25000402331352
 30
0.0
  0
SEQEND
  5
E73
  8
LAYER_1
  0
POLYLINE
  5
7F
  8
LAYER_1
 66
     1
 10
0.0
 20
0.0
 30
0.0
 70
     1
  0
VERTEX
  5
A76
  8
LAYER_1
 10
23.06250389665365
 20
20.34116098588429
 30
0.0
  0
VERTEX
  5
A77
  8
LAYER_1
 10
23.36293124053782
 20
20.23239573422773
 30
0.0
  0
VERTEX
  5
A78
  8
LAYER_1
 10
23.48201498623288
 20
20.19755502602086
 30
0.0
  0
VERTEX
  5
A79
  8
LAYER_1
 10
23.55863951448322
 20
20.18267598182261
 30
0.0
  0
VERTEX
  5
A7A
  8
LAYER_1
 10
23.62424935460378
 20
20.18508213650894
 30
0.0
  0
VERTEX
  5
A7B
  8
LAYER_1
 10
23.68962813513193
 20
20.20081714831194
 30
0.0
  0
VERTEX
  5
A7C
  8
LAYER_1
 10
23.75494785481094
 20
20.23015667177205
 30
0.0
  0
VERTEX
  5
A7D
  8
LAYER_1
 10
23.82038051238409
 20
20.27337636142968
 30
0.0
  0
VERTEX
  5
A7E
  8
LAYER_1
 10
23.88609810659464
 20
20.33075187182525
 30
0.0
  0
VERTEX
  5
A7F
  8
LAYER_1
 10
23.95227263618587
 20
20.40255885749918
 30
0.0
  0
VERTEX
  5
A80
  8
LAYER_1
 10
24.01907609990106
 20
20.48907297299188
 30
0.0
  0
VERTEX
  5
A81
  8
LAYER_1
 10
24.08668049648347
 20
20.59056987284379
 30
0.0
  0
VERTEX
  5
A82
  8
LAYER_1
 10
24.22498008322307
 20
20.83961464378685
 30
0.0
  0
VERTEX
  5
A83
  8
LAYER_1
 10
24.36854738635085
 20
21.15189840665172
 30
0.0
  0
VERTEX
  5
A84
  8
LAYER_1
 10
24.51875839581301
 20
21.52962639776175
 30
0.0
  0
VERTEX
  5
A85
  8
LAYER_1
 10
24.67698910155573
 20
21.97500385344028
 30
0.0
  0
VERTEX
  5
A86
  8
LAYER_1
 10
24.98129939498233
 20
22.90523880521673
 30
0.0
  0
VERTEX
  5
A87
  8
LAYER_1
 10
25.24068740453659
 20
23.7746182697629
 30
0.0
  0
VERTEX
  5
A88
  8
LAYER_1
 10
25.35512284615622
 20
24.19422756436571
 30
0.0
  0
VERTEX
  5
A89
  8
LAYER_1
 10
25.46023246876133
 20
24.60791143121021
 30
0.0
  0
VERTEX
  5
A8A
  8
LAYER_1
 10
25.55665118966976
 20
25.01876601831285
 30
0.0
  0
VERTEX
  5
A8B
  8
LAYER_1
 10
25.64501392619938
 20
25.42988747369004
 30
0.0
  0
VERTEX
  5
A8C
  8
LAYER_1
 10
25.72595559566804
 20
25.84437194535821
 30
0.0
  0
VERTEX
  5
A8D
  8
LAYER_1
 10
25.80011111539358
 20
26.26531558133378
 30
0.0
  0
VERTEX
  5
A8E
  8
LAYER_1
 10
25.93060337488674
 20
27.13896493827281
 30
0.0
  0
VERTEX
  5
A8F
  8
LAYER_1
 10
26.04157004322169
 20
28.07560472863854
 30
0.0
  0
VERTEX
  5
A90
  8
LAYER_1
 10
26.13809045894125
 20
29.10000413656235
 30
0.0
  0
VERTEX
  5
A91
  8
LAYER_1
 10
26.24902492914822
 20
30.41250418871641
 30
0.0
  0
VERTEX
  5
A92
  8
LAYER_1
 10
26.25000402331352
 20
31.48083299790993
 30
0.0
  0
VERTEX
  5
A93
  8
LAYER_1
 10
26.82084837244354
 20
31.57211469106477
 30
0.0
  0
VERTEX
  5
A94
  8
LAYER_1
 10
33.48233069907826
 20
31.58100767042308
 30
0.0
  0
VERTEX
  5
A95
  8
LAYER_1
 10
33.61445581937618
 20
31.40925594596102
 30
0.0
  0
VERTEX
  5
A96
  8
LAYER_1
 10
33.68660548079457
 20
31.30070074546878
 30
0.0
  0
VERTEX
  5
A97
  8
LAYER_1
 10
33.78538137283233
 20
31.132094141432
 30
0.0
  0
VERTEX
  5
A98
  8
LAYER_1
 10
34.01079264093623
 20
30.70690967127702
 30
0.0
  0
VERTEX
  5
A99
  8
LAYER_1
 10
34.10386111558937
 20
30.50833650851231
 30
0.0
  0
VERTEX
  5
A9A
  8
LAYER_1
 10
34.17584993141649
 20
30.32709455856941
 30
0.0
  0
VERTEX
  5
A9B
  8
LAYER_1
 10
34.22724294541568
 20
30.15972442486025
 30
0.0
  0
VERTEX
  5
A9C
  8
LAYER_1
 10
34.25852401458499
 20
30.00276671079678
 30
0.0
  0
VERTEX
  5
A9D
  8
LAYER_1
 10
34.2701769959225
 20
29.85276201979094
 30
0.0
  0
VERTEX
  5
A9E
  8
LAYER_1
 10
34.26268574642624
 20
29.70625095525469
 30
0.0
  0
VERTEX
  5
A9F
  8
LAYER_1
 10
34.23653412309429
 20
29.55977412059996
 30
0.0
  0
VERTEX
  5
AA0
  8
LAYER_1
 10
34.19220598292472
 20
29.40987211923871
 30
0.0
  0
VERTEX
  5
AA1
  8
LAYER_1
 10
34.15656439096182
 20
29.28435579112902
 30
0.0
  0
VERTEX
  5
AA2
  8
LAYER_1
 10
34.13961122417159
 20
29.16865378558059
 30
0.0
  0
VERTEX
  5
AA3
  8
LAYER_1
 10
34.140649928879
 20
29.06489934542494
 30
0.0
  0
VERTEX
  5
AA4
  8
LAYER_1
 10
34.15898395140901
 20
28.97522571349358
 30
0.0
  0
VERTEX
  5
AA5
  8
LAYER_1
 10
34.19391673808659
 20
28.90176613261804
 30
0.0
  0
VERTEX
  5
AA6
  8
LAYER_1
 10
34.24475173523674
 20
28.84665384562982
 30
0.0
  0
VERTEX
  5
AA7
  8
LAYER_1
 10
34.31079238918441
 20
28.81202209536044
 30
0.0
  0
VERTEX
  5
AA8
  8
LAYER_1
 10
34.39134214625457
 20
28.80000412464142
 30
0.0
  0
VERTEX
  5
AA9
  8
LAYER_1
 10
34.52626002088364
 20
28.79100668081054
 30
0.0
  0
VERTEX
  5
AAA
  8
LAYER_1
 10
34.65492032543827
 20
28.76438063335604
 30
0.0
  0
VERTEX
  5
AAB
  8
LAYER_1
 10
34.77644475313142
 20
28.72067540833509
 30
0.0
  0
VERTEX
  5
AAC
  8
LAYER_1
 10
34.88995499717605
 20
28.66044043180487
 30
0.0
  0
VERTEX
  5
AAD
  8
LAYER_1
 10
34.9945727507851
 20
28.58422512982257
 30
0.0
  0
VERTEX
  5
AAE
  8
LAYER_1
 10
35.08941970717152
 20
28.49257892844538
 30
0.0
  0
VERTEX
  5
AAF
  8
LAYER_1
 10
35.17361755954828
 20
28.38605125373046
 30
0.0
  0
VERTEX
  5
AB0
  8
LAYER_1
 10
35.24628800112831
 20
28.26519153173501
 30
0.0
  0
VERTEX
  5
AB1
  8
LAYER_1
 10
35.57078386589295
 20
27.65165416583221
 30
0.0
  0
VERTEX
  5
AB2
  8
LAYER_1
 10
35.84718116880843
 20
27.14897548078228
 30
0.0
  0
VERTEX
  5
AB3
  8
LAYER_1
 10
36.07658654838069
 20
26.75519412439153
 30
0.0
  0
VERTEX
  5
AB4
  8
LAYER_1
 10
36.26010664311566
 20
26.46834874446623
 30
0.0
  0
VERTEX
  5
AB5
  8
LAYER_1
 10
36.38948883990563
 20
26.27417052513265
 30
0.0
  0
VERTEX
  5
AB6
  8
LAYER_1
 10
36.49055392751237
 20
26.10684024719691
 30
0.0
  0
VERTEX
  5
AB7
  8
LAYER_1
 10
36.56511144803102
 20
25.96036778458168
 30
0.0
  0
VERTEX
  5
AB8
  8
LAYER_1
 10
36.61497094355671
 20
25.8287630112096
 30
0.0
  0
VERTEX
  5
AB9
  8
LAYER_1
 10
36.6419419561846
 20
25.70603580100333
 30
0.0
  0
VERTEX
  5
ABA
  8
LAYER_1
 10
36.64783402800983
 20
25.58619602788553
 30
0.0
  0
VERTEX
  5
ABB
  8
LAYER_1
 10
36.63445670112753
 20
25.46325356577887
 30
0.0
  0
VERTEX
  5
ABC
  8
LAYER_1
 10
36.60361951763286
 20
25.331218288606
 30
0.0
  0
VERTEX
  5
ABD
  8
LAYER_1
 10
36.50619556179979
 20
24.96989666447462
 30
0.0
  0
VERTEX
  5
ABE
  8
LAYER_1
 10
36.48144922910182
 20
24.85110168239224
 30
0.0
  0
VERTEX
  5
ABF
  8
LAYER_1
 10
36.47252300271883
 20
24.76210255412089
 30
0.0
  0
VERTEX
  5
AC0
  8
LAYER_1
 10
36.47929913977776
 20
24.6943132550272
 30
0.0
  0
VERTEX
  5
AC1
  8
LAYER_1
 10
36.50165989740554
 20
24.6391477604778
 30
0.0
  0
VERTEX
  5
AC2
  8
LAYER_1
 10
36.59266430287542
 20
24.53234408647833
 30
0.0
  0
VERTEX
  5
AC3
  8
LAYER_1
 10
36.65374787903773
 20
24.48318491944591
 30
0.0
  0
VERTEX
  5
AC4
  8
LAYER_1
 10
36.72969460620836
 20
24.44275279362632
 30
0.0
  0
VERTEX
  5
AC5
  8
LAYER_1
 10
36.82015001587041
 20
24.4110142384785
 30
0.0
  0
VERTEX
  5
AC6
  8
LAYER_1
 10
36.92475963950699
 20
24.38793578346143
 30
0.0
  0
VERTEX
  5
AC7
  8
LAYER_1
 10
37.0431690086012
 20
24.37348395803404
 30
0.0
  0
VERTEX
  5
AC8
  8
LAYER_1
 10
37.17502365463614
 20
24.36762529165531
 30
0.0
  0
VERTEX
  5
AC9
  8
LAYER_1
 10
37.31996910909491
 20
24.37032631378418
 30
0.0
  0
VERTEX
  5
ACA
  8
LAYER_1
 10
37.47765090346063
 20
24.3815535538796
 30
0.0
  0
VERTEX
  5
ACB
  8
LAYER_1
 10
37.82980563784528
 20
24.42945280580594
 30
0.0
  0
VERTEX
  5
ACC
  8
LAYER_1
 10
38.22865210965492
 20
24.51105528310597
 30
0.0
  0
VERTEX
  5
ACD
  8
LAYER_1
 10
38.67135457075437
 20
24.62609322145134
 30
0.0
  0
VERTEX
  5
ACE
  8
LAYER_1
 10
39.15507727300846
 20
24.77429885651368
 30
0.0
  0
VERTEX
  5
ACF
  8
LAYER_1
 10
39.71250455826521
 20
24.95671623810071
 30
0.0
  0
VERTEX
  5
AD0
  8
LAYER_1
 10
41.96250464767218
 20
25.65824300953922
 30
0.0
  0
VERTEX
  5
AD1
  8
LAYER_1
 10
42.06127940767102
 20
25.71037350674061
 30
0.0
  0
VERTEX
  5
AD2
  8
LAYER_1
 10
42.12858927088419
 20
25.75740163930591
 30
0.0
  0
VERTEX
  5
AD3
  8
LAYER_1
 10
42.19095219923442
 20
25.82256863887913
 30
0.0
  0
VERTEX
  5
AD4
  8
LAYER_1
 10
42.24635527478509
 20
25.90142499413567
 30
0.0
  0
VERTEX
  5
AD5
  8
LAYER_1
 10
42.2927855795996
 20
25.98952119375099
 30
0.0
  0
VERTEX
  5
AD6
  8
LAYER_1
 10
42.32823019574133
 20
26.08240772640051
 30
0.0
  0
VERTEX
  5
AD7
  8
LAYER_1
 10
42.35067620527367
 20
26.17563508075966
 30
0.0
  0
VERTEX
  5
AD8
  8
LAYER_1
 10
42.35811069026001
 20
26.26475374550387
 30
0.0
  0
VERTEX
  5
AD9
  8
LAYER_1
 10
42.34852073276373
 20
26.34531420930857
 30
0.0
  0
VERTEX
  5
ADA
  8
LAYER_1
 10
42.30036780580041
 20
26.53717075197854
 30
0.0
  0
VERTEX
  5
ADB
  8
LAYER_1
 10
41.26460109381252
 20
28.08750409632921
 30
0.0
  0
VERTEX
  5
ADC
  8
LAYER_1
 10
41.12545512190208
 20
28.23750410228968
 30
0.0
  0
VERTEX
  5
ADD
  8
LAYER_1
 10
40.98562574250163
 20
28.40953535912558
 30
0.0
  0
VERTEX
  5
ADE
  8
LAYER_1
 10
40.84483668449815
 20
28.61250411719084
 30
0.0
  0
VERTEX
  5
ADF
  8
LAYER_1
 10
40.70336421900463
 20
28.83750412613153
 30
0.0
  0
VERTEX
  5
AE0
  8
LAYER_1
 10
39.98928174902848
 20
29.85000416636467
 30
0.0
  0
VERTEX
  5
AE1
  8
LAYER_1
 10
38.55688386352409
 20
31.87500424683094
 30
0.0
  0
VERTEX
  5
AE2
  8
LAYER_1
 10
37.83856844799585
 20
32.88750428706408
 30
0.0
  0
VERTEX
  5
AE3
  8
LAYER_1
 10
37.58310881888082
 20
33.22500430047512
 30
0.0
  0
VERTEX
  5
AE4
  8
LAYER_1
 10
37.46789710831668
 20
33.38326098022486
 30
0.0
  0
VERTEX
  5
AE5
  8
LAYER_1
 10
37.36513062239187
 20
33.53739567180884
 30
0.0
  0
VERTEX
  5
AE6
  8
LAYER_1
 10
37.27473267171852
 20
33.6878548605749
 30
0.0
  0
VERTEX
  5
AE7
  8
LAYER_1
 10
37.19662656690878
 20
33.83508503187089
 30
0.0
  0
VERTEX
  5
AE8
  8
LAYER_1
 10
37.13073561857476
 20
33.97953267104464
 30
0.0
  0
VERTEX
  5
AE9
  8
LAYER_1
 10
37.07698313732863
 20
34.12164426344402
 30
0.0
  0
VERTEX
  5
AEA
  8
LAYER_1
 10
37.03529243378249
 20
34.26186629441685
 30
0.0
  0
VERTEX
  5
AEB
  8
LAYER_1
 10
37.00558681854849
 20
34.40064524931098
 30
0.0
  0
VERTEX
  5
AEC
  8
LAYER_1
 10
36.98778960223878
 20
34.53842761347427
 30
0.0
  0
VERTEX
  5
AED
  8
LAYER_1
 10
36.98182409546549
 20
34.67565987225453
 30
0.0
  0
VERTEX
  5
AEE
  8
LAYER_1
 10
36.98761360884075
 20
34.81278851099964
 30
0.0
  0
VERTEX
  5
AEF
  8
LAYER_1
 10
37.00508145297669
 20
34.95026001505742
 30
0.0
  0
VERTEX
  5
AF0
  8
LAYER_1
 10
37.03415093848545
 20
35.08852086977572
 30
0.0
  0
VERTEX
  5
AF1
  8
LAYER_1
 10
37.07474537597918
 20
35.22801756050239
 30
0.0
  0
VERTEX
  5
AF2
  8
LAYER_1
 10
37.12678807607
 20
35.36919657258527
 30
0.0
  0
VERTEX
  5
AF3
  8
LAYER_1
 10
37.19020234937005
 20
35.5125043913722
 30
0.0
  0
VERTEX
  5
AF4
  8
LAYER_1
 10
37.2818758203116
 20
35.69449515155722
 30
0.0
  0
VERTEX
  5
AF5
  8
LAYER_1
 10
37.37159914376635
 20
35.84881296849942
 30
0.0
  0
VERTEX
  5
AF6
  8
LAYER_1
 10
37.46483693598248
 20
35.98094097509322
 30
0.0
  0
VERTEX
  5
AF7
  8
LAYER_1
 10
37.56705381320819
 20
36.09636230423303
 30
0.0
  0
VERTEX
  5
AF8
  8
LAYER_1
 10
37.68371439169167
 20
36.2005600888133
 30
0.0
  0
VERTEX
  5
AF9
  8
LAYER_1
 10
37.82028328768108
 20
36.29901746172845
 30
0.0
  0
VERTEX
  5
AFA
  8
LAYER_1
 10
37.9822251174246
 20
36.39721755587288
 30
0.0
  0
VERTEX
  5
AFB
  8
LAYER_1
 10
38.17500449717045
 20
36.50064350414102
 30
0.0
  0
VERTEX
  5
AFC
  8
LAYER_1
 10
38.58750451356173
 20
36.71250443905592
 30
0.0
  0
VERTEX
  5
AFD
  8
LAYER_1
 10
41.43750462681055
 20
36.70363334694774
 30
0.0
  0
VERTEX
  5
AFE
  8
LAYER_1
 10
42.11250465363264
 20
36.58006085491429
 30
0.0
  0
VERTEX
  5
AFF
  8
LAYER_1
 10
43.08195423291329
 20
36.40041195108364
 30
0.0
  0
VERTEX
  5
B00
  8
LAYER_1
 10
43.78633398930154
 20
36.26246139431521
 30
0.0
  0
VERTEX
  5
B01
  8
LAYER_1
 10
44.39737092837395
 20
36.13104322994478
 30
0.0
  0
VERTEX
  5
B02
  8
LAYER_1
 10
45.08679205570706
 20
35.97099150330808
 30
0.0
  0
VERTEX
  5
B03
  8
LAYER_1
 10
46.18607938327568
 20
35.71068040844173
 30
0.0
  0
VERTEX
  5
B04
  8
LAYER_1
 10
46.54929211382159
 20
35.58725306331749
 30
0.0
  0
VERTEX
  5
B05
  8
LAYER_1
 10
47.01510798808636
 20
35.44802883527649
 30
0.0
  0
VERTEX
  5
B06
  8
LAYER_1
 10
47.62500487267971
 20
35.2866217503737
 30
0.0
  0
VERTEX
  5
B07
  8
LAYER_1
 10
48.42562990449369
 20
35.07366957626098
 30
0.0
  0
VERTEX
  5
B08
  8
LAYER_1
 10
49.35000494122505
 20
34.81051779331102
 30
0.0
  0
VERTEX
  5
B09
  8
LAYER_1
 10
51.10002899725482
 20
34.28748123013459
 30
0.0
  0
VERTEX
  5
B0A
  8
LAYER_1
 10
52.56334882239553
 20
33.82735637648875
 30
0.0
  0
VERTEX
  5
B0B
  8
LAYER_1
 10
54.19187177735898
 20
33.28338306962098
 30
0.0
  0
VERTEX
  5
B0C
  8
LAYER_1
 10
56.437505222857
 20
32.50880114677877
 30
0.0
  0
VERTEX
  5
B0D
  8
LAYER_1
 10
58.08750528842211
 20
31.93610948241236
 30
0.0
  0
VERTEX
  5
B0E
  8
LAYER_1
 10
59.02500532567501
 20
31.61032419951898
 30
0.0
  0
VERTEX
  5
B0F
  8
LAYER_1
 10
60.60000538825989
 20
31.04807670327101
 30
0.0
  0
VERTEX
  5
B10
  8
LAYER_1
 10
61.42500542104244
 20
30.74876412698411
 30
0.0
  0
VERTEX
  5
B11
  8
LAYER_1
 10
61.61250542849302
 20
30.68591376405179
 30
0.0
  0
VERTEX
  5
B12
  8
LAYER_1
 10
62.36250545829535
 20
30.41238028108575
 30
0.0
  0
VERTEX
  5
B13
  8
LAYER_1
 10
63.52500550448895
 20
30.00265305654338
 30
0.0
  0
VERTEX
  5
B14
  8
LAYER_1
 10
64.01461489894427
 20
29.82810873368778
 30
0.0
  0
VERTEX
  5
B15
  8
LAYER_1
 10
64.61250554770231
 20
29.59971040307829
 30
0.0
  0
VERTEX
  5
B16
  8
LAYER_1
 10
65.30953682539985
 20
29.33169297067621
 30
0.0
  0
VERTEX
  5
B17
  8
LAYER_1
 10
66.03750560432673
 20
29.06189421159588
 30
0.0
  0
VERTEX
  5
B18
  8
LAYER_1
 10
67.16250564903021
 20
28.64588685544257
 30
0.0
  0
VERTEX
  5
B19
  8
LAYER_1
 10
67.4434336455828
 20
28.54662902888166
 30
0.0
  0
VERTEX
  5
B1A
  8
LAYER_1
 10
67.6900989578844
 20
28.48162606666792
 30
0.0
  0
VERTEX
  5
B1B
  8
LAYER_1
 10
67.80273854995812
 20
28.46224639231871
 30
0.0
  0
VERTEX
  5
B1C
  8
LAYER_1
 10
67.90939900198956
 20
28.45176191320924
 30
0.0
  0
VERTEX
  5
B1D
  8
LAYER_1
 10
68.01094249098554
 20
28.45028312239051
 30
0.0
  0
VERTEX
  5
B1E
  8
LAYER_1
 10
68.10823119395286
 20
28.45792051291349
 30
0.0
  0
VERTEX
  5
B1F
  8
LAYER_1
 10
68.20212728789835
 20
28.47478457782918
 30
0.0
  0
VERTEX
  5
B20
  8
LAYER_1
 10
68.29349294982883
 20
28.50098581018855
 30
0.0
  0
VERTEX
  5
B21
  8
LAYER_1
 10
68.38319035675113
 20
28.5366347030426
 30
0.0
  0
VERTEX
  5
B22
  8
LAYER_1
 10
68.47208168567207
 20
28.58184174944231
 30
0.0
  0
VERTEX
  5
B23
  8
LAYER_1
 10
68.65089481753712
 20
28.70137227508264
 30
0.0
  0
VERTEX
  5
B24
  8
LAYER_1
 10
68.83682976147855
 20
28.86046133151743
 30
0.0
  0
VERTEX
  5
B25
  8
LAYER_1
 10
68.98336281237937
 20
29.01087476802201
 30
0.0
  0
VERTEX
  5
B26
  8
LAYER_1
 10
69.03793126913789
 20
29.08057402119049
 30
0.0
  0
VERTEX
  5
B27
  8
LAYER_1
 10
69.0819157995985
 20
29.1499685814787
 30
0.0
  0
VERTEX
  5
B28
  8
LAYER_1
 10
69.11672749338376
 20
29.2215836617684
 30
0.0
  0
VERTEX
  5
B29
  8
LAYER_1
 10
69.14377744011622
 20
29.29794447494128
 30
0.0
  0
VERTEX
  5
B2A
  8
LAYER_1
 10
69.18023645091282
 20
29.47500415146351
 30
0.0
  0
VERTEX
  5
B2B
  8
LAYER_1
 10
69.22706722430564
 20
29.81250416487455
 30
0.0
  0
VERTEX
  5
B2C
  8
LAYER_1
 10
69.30451175857036
 20
30.78750420361757
 30
0.0
  0
VERTEX
  5
B2D
  8
LAYER_1
 10
69.491241564036
 20
33.10427213536643
 30
0.0
  0
VERTEX
  5
B2E
  8
LAYER_1
 10
69.63778496304064
 20
34.80000436306
 30
0.0
  0
VERTEX
  5
B2F
  8
LAYER_1
 10
69.82512601830055
 20
37.05000445246696
 30
0.0
  0
VERTEX
  5
B30
  8
LAYER_1
 10
69.90745610687833
 20
38.05809875157638
 30
0.0
  0
VERTEX
  5
B31
  8
LAYER_1
 10
70.00647071135134
 20
39.16532541839919
 30
0.0
  0
VERTEX
  5
B32
  8
LAYER_1
 10
70.09993023043648
 20
40.26964144876564
 30
0.0
  0
VERTEX
  5
B33
  8
LAYER_1
 10
70.16890447542221
 20
41.27073783469272
 30
0.0
  0
VERTEX
  5
B34
  8
LAYER_1
 10
70.22044223733712
 20
42.1983293223069
 30
0.0
  0
VERTEX
  5
B35
  8
LAYER_1
 10
70.12979464676843
 20
42.47299421955118
 30
0.0
  0
VERTEX
  5
B36
  8
LAYER_1
 10
70.07943328492166
 20
42.59156992691209
 30
0.0
  0
VERTEX
  5
B37
  8
LAYER_1
 10
70.00932042574323
 20
42.71138330942444
 30
0.0
  0
VERTEX
  5
B38
  8
LAYER_1
 10
69.9287365154471
 20
42.8184615680725
 30
0.0
  0
VERTEX
  5
B39
  8
LAYER_1
 10
69.84696200024723
 20
42.89883190384052
 30
0.0
  0
VERTEX
  5
B3A
  8
LAYER_1
 10
69.65477694429475
 20
43.05000469088554
 30
0.0
  0
VERTEX
  5
B3B
  8
LAYER_1
 10
39.60000455379486
 20
43.05000469088554
 30
0.0
  0
VERTEX
  5
B3C
  8
LAYER_1
 10
39.60000455379486
 20
42.97500468790531
 30
0.0
  0
VERTEX
  5
B3D
  8
LAYER_1
 10
39.59092252218397
 20
42.95981914042689
 30
0.0
  0
VERTEX
  5
B3E
  8
LAYER_1
 10
39.56484830239788
 20
42.94570781174115
 30
0.0
  0
VERTEX
  5
B3F
  8
LAYER_1
 10
39.46875454857945
 20
42.92187968579431
 30
0.0
  0
VERTEX
  5
B40
  8
LAYER_1
 10
39.32578579289839
 20
42.90586406015791
 30
0.0
  0
VERTEX
  5
B41
  8
LAYER_1
 10
39.15000453591347
 20
42.90000468492508
 30
0.0
  0
VERTEX
  5
B42
  8
LAYER_1
 10
38.70000451803207
 20
42.90000468492508
 30
0.0
  0
VERTEX
  5
B43
  8
LAYER_1
 10
38.70000451803207
 20
43.41000470519067
 30
0.0
  0
VERTEX
  5
B44
  8
LAYER_1
 10
38.69330415011876
 20
43.62154883124374
 30
0.0
  0
VERTEX
  5
B45
  8
LAYER_1
 10
38.67463686996523
 20
43.80162236781098
 30
0.0
  0
VERTEX
  5
B46
  8
LAYER_1
 10
38.64615341295105
 20
43.93588707902853
 30
0.0
  0
VERTEX
  5
B47
  8
LAYER_1
 10
38.62890272292734
 20
43.98136042642372
 30
0.0
  0
VERTEX
  5
B48
  8
LAYER_1
 10
38.61000451445581
 20
44.01000472903253
 30
0.0
  0
VERTEX
  5
B49
  8
LAYER_1
 10
38.58342968429825
 20
44.02809236827146
 30
0.0
  0
VERTEX
  5
B4A
  8
LAYER_1
 10
38.54221447269957
 20
44.04498304704596
 30
0.0
  0
VERTEX
  5
B4B
  8
LAYER_1
 10
38.42416856957135
 20
44.07369009839922
 30
0.0
  0
VERTEX
  5
B4C
  8
LAYER_1
 10
38.27247813385621
 20
44.09315903348741
 30
0.0
  0
VERTEX
  5
B4D
  8
LAYER_1
 10
38.10375449433924
 20
44.10042300270564
 30
0.0
  0
VERTEX
  5
B4E
  8
LAYER_1
 10
37.77678451343149
 20
44.1134625099702
 30
0.0
  0
VERTEX
  5
B4F
  8
LAYER_1
 10
37.63403386327499
 20
44.13065819492003
 30
0.0
  0
VERTEX
  5
B50
  8
LAYER_1
 10
37.50387975489235
 20
44.15600666942483
 30
0.0
  0
VERTEX
  5
B51
  8
LAYER_1
 10
37.3854024244653
 20
44.19028455999204
 30
0.0
  0
VERTEX
  5
B52
  8
LAYER_1
 10
37.27768210817554
 20
44.23426849312914
 30
0.0
  0
VERTEX
  5
B53
  8
LAYER_1
 10
37.17979904220479
 20
44.28873509534357
 30
0.0
  0
VERTEX
  5
B54
  8
LAYER_1
 10
37.09083346273476
 20
44.35446099314279
 30
0.0
  0
VERTEX
  5
B55
  8
LAYER_1
 10
37.00986560594717
 20
44.43222281303424
 30
0.0
  0
VERTEX
  5
B56
  8
LAYER_1
 10
36.93597570802372
 20
44.52279718152539
 30
0.0
  0
VERTEX
  5
B57
  8
LAYER_1
 10
36.86824400514613
 20
44.62696072512369
 30
0.0
  0
VERTEX
  5
B58
  8
LAYER_1
 10
36.80575073349611
 20
44.74549007033659
 30
0.0
  0
VERTEX
  5
B59
  8
LAYER_1
 10
36.74757612925539
 20
44.87916184367154
 30
0.0
  0
VERTEX
  5
B5A
  8
LAYER_1
 10
36.69280042860566
 20
45.02875267163601
 30
0.0
  0
VERTEX
  5
B5B
  8
LAYER_1
 10
36.58976668280604
 20
45.37879799748329
 30
0.0
  0
VERTEX
  5
B5C
  8
LAYER_1
 10
36.52007688280489
 20
45.63260615841492
 30
0.0
  0
VERTEX
  5
B5D
  8
LAYER_1
 10
36.45512075724522
 20
45.83518843034879
 30
0.0
  0
VERTEX
  5
B5E
  8
LAYER_1
 10
36.39107846995692
 20
45.99190314232126
 30
0.0
  0
VERTEX
  5
B5F
  8
LAYER_1
 10
36.32413018476994
 20
46.10810862336871
 30
0.0
  0
VERTEX
  5
B60
  8
LAYER_1
 10
36.25045606551417
 20
46.1891632025275
 30
0.0
  0
VERTEX
  5
B61
  8
LAYER_1
 10
36.16623627601953
 20
46.24042520883398
 30
0.0
  0
VERTEX
  5
B62
  8
LAYER_1
 10
36.06765098011593
 20
46.26725297132454
 30
0.0
  0
VERTEX
  5
B63
  8
LAYER_1
 10
35.95088034163328
 20
46.27500481903553
 30
0.0
  0
VERTEX
  5
B64
  8
LAYER_1
 10
35.70000439882278
 20
46.27500481903553
 30
0.0
  0
VERTEX
  5
B65
  8
LAYER_1
 10
35.69958612872597
 20
46.7812548391521
 30
0.0
  0
VERTEX
  5
B66
  8
LAYER_1
 10
35.69433596006721
 20
47.03425688755978
 30
0.0
  0
VERTEX
  5
B67
  8
LAYER_1
 10
35.67739664172181
 20
47.25129836967794
 30
0.0
  0
VERTEX
  5
B68
  8
LAYER_1
 10
35.64630768919059
 20
47.43915596020992
 30
0.0
  0
VERTEX
  5
B69
  8
LAYER_1
 10
35.59860861797439
 20
47.60460633385912
 30
0.0
  0
VERTEX
  5
B6A
  8
LAYER_1
 10
35.531838943574
 20
47.75442616532892
 30
0.0
  0
VERTEX
  5
B6B
  8
LAYER_1
 10
35.44353818149029
 20
47.8953921293227
 30
0.0
  0
VERTEX
  5
B6C
  8
LAYER_1
 10
35.33124584722405
 20
48.03428090054385
 30
0.0
  0
VERTEX
  5
B6D
  8
LAYER_1
 10
35.1925014562761
 20
48.17786915369574
 30
0.0
  0
VERTEX
  5
B6E
  8
LAYER_1
 10
34.95556067334807
 20
48.40078872606244
 30
0.0
  0
VERTEX
  5
B6F
  8
LAYER_1
 10
34.75077826004799
 20
48.57226838154012
 30
0.0
  0
VERTEX
  5
B70
  8
LAYER_1
 10
34.65560799231356
 20
48.64038620344193
 30
0.0
  0
VERTEX
  5
B71
  8
LAYER_1
 10
34.56267117735227
 20
48.69764560171711
 30
0.0
  0
VERTEX
  5
B72
  8
LAYER_1
 10
34.47003243528617
 20
48.74471376156421
 30
0.0
  0
VERTEX
  5
B73
  8
LAYER_1
 10
34.37575638623731
 20
48.78225786818177
 30
0.0
  0
VERTEX
  5
B74
  8
LAYER_1
 10
34.27790765032775
 20
48.81094510676834
 30
0.0
  0
VERTEX
  5
B75
  8
LAYER_1
 10
34.17455084767953
 20
48.83144266252245
 30
0.0
  0
VERTEX
  5
B76
  8
LAYER_1
 10
33.94357152265529
 20
48.85053746632748
 30
0.0
  0
VERTEX
  5
B77
  8
LAYER_1
 10
33.66733537214101
 20
48.84487976118524
 30
0.0
  0
VERTEX
  5
B78
  8
LAYER_1
 10
33.3303593571131
 20
48.81980702868405
 30
0.0
  0
VERTEX
  5
B79
  8
LAYER_1
 10
32.66250427812338
 20
48.76064050291761
 30
0.0
  0
VERTEX
  5
B7A
  8
LAYER_1
 10
30.11250417679548
 20
48.5229499388969
 30
0.0
  0
VERTEX
  5
B7B
  8
LAYER_1
 10
29.40000414848328
 20
48.4508377237846
 30
0.0
  0
VERTEX
  5
B7C
  8
LAYER_1
 10
27.91875408962369
 20
48.30186520259693
 30
0.0
  0
VERTEX
  5
B7D
  8
LAYER_1
 10
26.40000402927399
 20
48.15000489354134
 30
0.0
  0
VERTEX
  5
B7E
  8
LAYER_1
 10
24.90000396966934
 20
48.00000488758087
 30
0.0
  0
VERTEX
  5
B7F
  8
LAYER_1
 10
23.38125390931964
 20
47.84814457852529
 30
0.0
  0
VERTEX
  5
B80
  8
LAYER_1
 10
21.90000385046005
 20
47.69930447663036
 30
0.0
  0
VERTEX
  5
B81
  8
LAYER_1
 10
20.28750378638506
 20
47.54873052527439
 30
0.0
  0
VERTEX
  5
B82
  8
LAYER_1
 10
19.5075959417836
 20
47.4701243383366
 30
0.0
  0
VERTEX
  5
B83
  8
LAYER_1
 10
19.20125367009707
 20
47.42971372382575
 30
0.0
  0
VERTEX
  5
B84
  8
LAYER_1
 10
18.94585642687464
 20
47.38767074942766
 30
0.0
  0
VERTEX
  5
B85
  8
LAYER_1
 10
18.73780715815728
 20
47.34332490574788
 30
0.0
  0
VERTEX
  5
B86
  8
LAYER_1
 10
18.57350880998595
 20
47.29600568339195
 30
0.0
  0
VERTEX
  5
B87
  8
LAYER_1
 10
18.44936432840162
 20
47.24504257296542
 30
0.0
  0
VERTEX
  5
B88
  8
LAYER_1
 10
18.36177665944527
 20
47.18976506507383
 30
0.0
  0
VERTEX
  5
B89
  8
LAYER_1
 10
18.09869794365469
 20
46.95676770848771
 30
0.0
  0
VERTEX
  5
B8A
  8
LAYER_1
 10
17.98347730001894
 20
46.83958741076469
 30
0.0
  0
VERTEX
  5
B8B
  8
LAYER_1
 10
17.87872025205346
 20
46.72105476410128
 30
0.0
  0
VERTEX
  5
B8C
  8
LAYER_1
 10
17.78411513938119
 20
46.60049631650718
 30
0.0
  0
VERTEX
  5
B8D
  8
LAYER_1
 10
17.69935030162507
 20
46.47723861599206
 30
0.0
  0
VERTEX
  5
B8E
  8
LAYER_1
 10
17.62411407840803
 20
46.35060821056565
 30
0.0
  0
VERTEX
  5
B8F
  8
LAYER_1
 10
17.55809480935302
 20
46.21993164823762
 30
0.0
  0
VERTEX
  5
B90
  8
LAYER_1
 10
17.50098083408297
 20
46.08453547701767
 30
0.0
  0
VERTEX
  5
B91
  8
LAYER_1
 10
17.4524604922208
 20
45.94374624491547
 30
0.0
  0
VERTEX
  5
B92
  8
LAYER_1
 10
17.41222212338947
 20
45.79689049994074
 30
0.0
  0
VERTEX
  5
B93
  8
LAYER_1
 10
17.37995406721191
 20
45.64329479010317
 30
0.0
  0
VERTEX
  5
B94
  8
LAYER_1
 10
17.35534466331105
 20
45.48228566341244
 30
0.0
  0
VERTEX
  5
B95
  8
LAYER_1
 10
17.33808225130984
 20
45.31318966787825
 30
0.0
  0
VERTEX
  5
B96
  8
LAYER_1
 10
17.32435176149808
 20
44.94804326231824
 30
0.0
  0
VERTEX
  5
B97
  8
LAYER_1
 10
17.31018922789816
 20
44.47342201636483
 30
0.0
  0
VERTEX
  5
B98
  8
LAYER_1
 10
17.27705432526594
 20
44.04923778834267
 30
0.0
  0
VERTEX
  5
B99
  8
LAYER_1
 10
17.24818967642934
 20
43.84539034388557
 30
0.0
  0
VERTEX
  5
B9A
  8
LAYER_1
 10
17.23336637581844
 20
43.78127151227551
 30
0.0
  0
VERTEX
  5
B9B
  8
LAYER_1
 10
17.21642925842744
 20
43.73915078706305
 30
0.0
  0
VERTEX
  5
B9C
  8
LAYER_1
 10
17.19598844976758
 20
43.71662430273719
 30
0.0
  0
VERTEX
  5
B9D
  8
LAYER_1
 10
17.17065407535009
 20
43.71128819378687
 30
0.0
  0
VERTEX
  5
B9E
  8
LAYER_1
 10
17.09974513128712
 20
43.74257163996877
 30
0.0
  0
VERTEX
  5
B9F
  8
LAYER_1
 10
16.9690814663726
 20
43.82417244927204
 30
0.0
  0
VERTEX
  5
BA0
  8
LAYER_1
 10
15.41250359266996
 20
43.19934367494592
 30
0.0
  0
VERTEX
  5
BA1
  8
LAYER_1
 10
15.2926303354657
 20
43.19967418589597
 30
0.0
  0
VERTEX
  5
BA2
  8
LAYER_1
 10
15.2653133253123
 20
43.20534979749347
 30
0.0
  0
VERTEX
  5
BA3
  8
LAYER_1
 10
15.23598945119262
 20
43.2216387892892
 30
0.0
  0
VERTEX
  5
BA4
  8
LAYER_1
 10
15.17417948776285
 20
43.28249258656791
 30
0.0
  0
VERTEX
  5
BA5
  8
LAYER_1
 10
15.11291719859311
 20
43.37510692391726
 30
0.0
  0
VERTEX
  5
BA6
  8
LAYER_1
 10
15.05791933710016
 20
43.49235314752239
 30
0.0
  0
VERTEX
  5
BA7
  8
LAYER_1
 10
14.99751359912123
 20
43.61622987026311
 30
0.0
  0
VERTEX
  5
BA8
  8
LAYER_1
 10
14.91793434075736
 20
43.73740445001627
 30
0.0
  0
VERTEX
  5
BA9
  8
LAYER_1
 10
14.82952679068084
 20
43.84197471179046
 30
0.0
  0
VERTEX
  5
BAA
  8
LAYER_1
 10
14.74263617756394
 20
43.91603848059424
 30
0.0
  0
VERTEX
  5
BAB
  8
LAYER_1
 10
14.54219075918901
 20
44.04737536298967
 30
0.0
  0
VERTEX
  5
BAC
  8
LAYER_1
 10
6.937503255903721
 20
43.86986052183566
 30
0.0
  0
VERTEX
  5
BAD
  8
LAYER_1
 10
3.750003129243851
 20
43.79645523869161
 30
0.0
  0
VERTEX
  5
BAE
  8
LAYER_1
 10
-2.174997106194496
 20
43.64779206071266
 30
0.0
  0
VERTEX
  5
BAF
  8
LAYER_1
 10
-8.978040248499521
 20
43.47075937762361
 30
0.0
  0
VERTEX
  5
BB0
  8
LAYER_1
 10
-11.3290579539945
 20
43.42073218226457
 30
0.0
  0
VERTEX
  5
BB1
  8
LAYER_1
 10
-13.42499755322933
 20
43.38600321577371
 30
0.0
  0
VERTEX
  5
BB2
  8
LAYER_1
 10
-16.31249766796827
 20
43.34480883626823
 30
0.0
  0
VERTEX
  5
BB3
  8
LAYER_1
 10
-16.59374767914414
 20
43.3170435075243
 30
0.0
  0
VERTEX
  5
BB4
  8
LAYER_1
 10
-16.74318431035167
 20
43.30757112639166
 30
0.0
  0
VERTEX
  5
BB5
  8
LAYER_1
 10
-16.7926237289941
 20
43.3112740889587
 30
0.0
  0
VERTEX
  5
BB6
  8
LAYER_1
 10
-16.82814274425323
 20
43.32207675780454
 30
0.0
  0
VERTEX
  5
BB7
  8
LAYER_1
 10
-16.85194050207221
 20
43.34108433607157
 30
0.0
  0
VERTEX
  5
BB8
  8
LAYER_1
 10
-16.86621614839422
 20
43.3694020269022
 30
0.0
  0
VERTEX
  5
BB9
  8
LAYER_1
 10
-16.87499769032001
 20
43.45838855882388
 30
0.0
  0
VERTEX
  5
BBA
  8
LAYER_1
 10
-16.88536041602511
 20
43.52451439491081
 30
0.0
  0
VERTEX
  5
BBB
  8
LAYER_1
 10
-16.91552066243097
 20
43.6092187437401
 30
0.0
  0
VERTEX
  5
BBC
  8
LAYER_1
 10
-16.96408653347349
 20
43.71020984424152
 30
0.0
  0
VERTEX
  5
BBD
  8
LAYER_1
 10
-17.02966613308856
 20
43.82519593534478
 30
0.0
  0
VERTEX
  5
BBE
  8
LAYER_1
 10
-17.20629893377986
 20
44.08798604507578
 30
0.0
  0
VERTEX
  5
BBF
  8
LAYER_1
 10
-17.43428389599194
 20
44.379254984371
 30
0.0
  0
VERTEX
  5
BC0
  8
LAYER_1
 10
-17.54552645705137
 20
44.51250474900007
 30
0.0
  0
VERTEX
  5
BC1
  8
LAYER_1
 10
-18.98938699498881
 20
46.31250482052565
 30
0.0
  0
VERTEX
  5
BC2
  8
LAYER_1
 10
-19.15094239108318
 20
46.51396089638406
 30
0.0
  0
VERTEX
  5
BC3
  8
LAYER_1
 10
-19.68749780207872
 20
47.19942383072157
 30
0.0
  0
VERTEX
  5
BC4
  8
LAYER_1
 10
-19.85939335413281
 20
47.41271192810599
 30
0.0
  0
VERTEX
  5
BC5
  8
LAYER_1
 10
-20.01744628762907
 20
47.58946132469119
 30
0.0
  0
VERTEX
  5
BC6
  8
LAYER_1
 10
-20.16546993574694
 20
47.73231015955812
 30
0.0
  0
VERTEX
  5
BC7
  8
LAYER_1
 10
-20.30727763166583
 20
47.84389657178772
 30
0.0
  0
VERTEX
  5
BC8
  8
LAYER_1
 10
-20.44668270856518
 20
47.92685870046095
 30
0.0
  0
VERTEX
  5
BC9
  8
LAYER_1
 10
-20.58749849962441
 20
47.98383468465876
 30
0.0
  0
VERTEX
  5
BCA
  8
LAYER_1
 10
-20.73353833802293
 20
48.01746266346208
 30
0.0
  0
VERTEX
  5
BCB
  8
LAYER_1
 10
-20.88861555694017
 20
48.03038077595187
 30
0.0
  0
VERTEX
  5
BCC
  8
LAYER_1
 10
-21.06305611181814
 20
48.02508478725117
 30
0.0
  0
VERTEX
  5
BCD
  8
LAYER_1
 10
-21.13371846098442
 20
48.01371996278562
 30
0.0
  0
VERTEX
  5
BCE
  8
LAYER_1
 10
-21.19694408475187
 20
47.9952070223132
 30
0.0
  0
VERTEX
  5
BCF
  8
LAYER_1
 10
-21.25543440320771
 20
47.96854329388633
 30
0.0
  0
VERTEX
  5
BD0
  8
LAYER_1
 10
-21.31189083643915
 20
47.93272610555746
 30
0.0
  0
VERTEX
  5
BD1
  8
LAYER_1
 10
-21.42950772757775
 20
47.82962066140345
 30
0.0
  0
VERTEX
  5
BD2
  8
LAYER_1
 10
-21.63749787956476
 20
47.6217364337359
 30
0.0
  0
VERTEX
  5
BD3
  8
LAYER_1
 10
-21.67998503246978
 20
41.70000463724136
 30
0.0
  0
VERTEX
  5
BD4
  8
LAYER_1
 10
-21.86734532403168
 20
41.70000463724136
 30
0.0
  0
VERTEX
  5
BD5
  8
LAYER_1
 10
-21.94350021890589
 20
41.69112768376363
 30
0.0
  0
VERTEX
  5
BD6
  8
LAYER_1
 10
-22.01234980624913
 20
41.6669577609282
 30
0.0
  0
VERTEX
  5
BD7
  8
LAYER_1
 10
-22.06632980095018
 20
41.63118627513177
 30
0.0
  0
VERTEX
  5
BD8
  8
LAYER_1
 10
-22.0978759178978
 20
41.58750463277102
 30
0.0
  0
VERTEX
  5
BD9
  8
LAYER_1
 10
-22.14104622020201
 20
41.47500462830067
 30
0.0
  0
VERTEX
  5
BDA
  8
LAYER_1
 10
-33.88956572345546
 20
41.47500462830067
 30
0.0
  0
VERTEX
  5
BDB
  8
LAYER_1
 10
-33.91353204588916
 20
41.64375463500619
 30
0.0
  0
VERTEX
  5
BDC
  8
LAYER_1
 10
-33.92286020070355
 20
41.69202797700977
 30
0.0
  0
VERTEX
  5
BDD
  8
LAYER_1
 10
-33.93699243804795
 20
41.730399584595
 30
0.0
  0
VERTEX
  5
BDE
  8
LAYER_1
 10
-33.95797923622593
 20
41.75993752623314
 30
0.0
  0
VERTEX
  5
BDF
  8
LAYER_1
 10
-33.98787107354103
 20
41.78170987039546
 30
0.0
  0
VERTEX
  5
BE0
  8
LAYER_1
 10
-34.02871842829681
 20
41.79678468555321
 30
0.0
  0
VERTEX
  5
BE1
  8
LAYER_1
 10
-34.08257177879682
 20
41.80623004017767
 30
0.0
  0
VERTEX
  5
BE2
  8
LAYER_1
 10
-34.23749838024378
 20
41.81250464171171
 30
0.0
  0
VERTEX
  5
BE3
  8
LAYER_1
 10
-34.39242498169074
 20
41.80623004017767
 30
0.0
  0
VERTEX
  5
BE4
  8
LAYER_1
 10
-34.44627833219074
 20
41.79678468555321
 30
0.0
  0
VERTEX
  5
BE5
  8
LAYER_1
 10
-34.48712568694653
 20
41.78170987039546
 30
0.0
  0
VERTEX
  5
BE6
  8
LAYER_1
 10
-34.51701752426163
 20
41.75993752623314
 30
0.0
  0
VERTEX
  5
BE7
  8
LAYER_1
 10
-34.5380043224396
 20
41.730399584595
 30
0.0
  0
VERTEX
  5
BE8
  8
LAYER_1
 10
-34.5614647145984
 20
41.64375463500619
 30
0.0
  0
VERTEX
  5
BE9
  8
LAYER_1
 10
-34.57586634411001
 20
41.57111421417837
 30
0.0
  0
VERTEX
  5
BEA
  8
LAYER_1
 10
-34.59508194978802
 20
41.52014299466673
 30
0.0
  0
VERTEX
  5
BEB
  8
LAYER_1
 10
-34.61869963113238
 20
41.49079877508589
 30
0.0
  0
VERTEX
  5
BEC
  8
LAYER_1
 10
-34.64630748764304
 20
41.48303935405045
 30
0.0
  0
VERTEX
  5
BED
  8
LAYER_1
 10
-34.67749361881997
 20
41.49682253017501
 30
0.0
  0
VERTEX
  5
BEE
  8
LAYER_1
 10
-34.71184612416311
 20
41.53210610207417
 30
0.0
  0
VERTEX
  5
BEF
  8
LAYER_1
 10
-34.74895310317243
 20
41.58884786836255
 30
0.0
  0
VERTEX
  5
BF0
  8
LAYER_1
 10
-34.78840265534787
 20
41.66700562765473
 30
0.0
  0
VERTEX
  5
BF1
  8
LAYER_1
 10
-34.84374407148961
 20
41.76528890082004
 30
0.0
  0
VERTEX
  5
BF2
  8
LAYER_1
 10
-34.87455307685169
 20
41.79763705312359
 30
0.0
  0
VERTEX
  5
BF3
  8
LAYER_1
 10
-34.91067795440561
 20
41.82026663799139
 30
0.0
  0
VERTEX
  5
BF4
  8
LAYER_1
 10
-34.95453645964967
 20
41.83428547198621
 30
0.0
  0
VERTEX
  5
BF5
  8
LAYER_1
 10
-35.00854634808215
 20
41.84080137167079
 30
0.0
  0
VERTEX
  5
BF6
  8
LAYER_1
 10
-35.15669129650546
 20
41.83575563436025
 30
0.0
  0
VERTEX
  5
BF7
  8
LAYER_1
 10
-35.29672438186634
 20
41.81693328970299
 30
0.0
  0
VERTEX
  5
BF8
  8
LAYER_1
 10
-35.34713122233607
 20
41.8025269221088
 30
0.0
  0
VERTEX
  5
BF9
  8
LAYER_1
 10
-35.38641147292476
 20
41.78356414112168
 30
0.0
  0
VERTEX
  5
BFA
  8
LAYER_1
 10
-35.41602504232704
 20
41.75912523432976
 30
0.0
  0
VERTEX
  5
BFB
  8
LAYER_1
 10
-35.43743183923746
 20
41.72829048932113
 30
0.0
  0
VERTEX
  5
BFC
  8
LAYER_1
 10
-35.46146475036119
 20
41.64375463500619
 30
0.0
  0
VERTEX
  5
BFD
  8
LAYER_1
 10
-35.47769970636076
 20
41.58252855963987
 30
0.0
  0
VERTEX
  5
BFE
  8
LAYER_1
 10
-35.50507575234306
 20
41.5341943435526
 30
0.0
  0
VERTEX
  5
BFF
  8
LAYER_1
 10
-35.5402959910243
 20
41.49971335353253
 30
0.0
  0
VERTEX
  5
C00
  8
LAYER_1
 10
-35.58006352512071
 20
41.48004695636783
 30
0.0
  0
VERTEX
  5
C01
  8
LAYER_1
 10
-35.62108145734851
 20
41.47615651884666
 30
0.0
  0
VERTEX
  5
C02
  8
LAYER_1
 10
-35.66005289042391
 20
41.48900340775718
 30
0.0
  0
VERTEX
  5
C03
  8
LAYER_1
 10
-35.69368092706314
 20
41.51954898988756
 30
0.0
  0
VERTEX
  5
C04
  8
LAYER_1
 10
-35.71866866998242
 20
41.56875463202596
 30
0.0
  0
VERTEX
  5
C05
  8
LAYER_1
 10
-35.74983890210324
 20
41.66250463575125
 30
0.0
  0
VERTEX
  5
C06
  8
LAYER_1
 10
-39.12614287908405
 20
41.71008392907335
 30
0.0
  0
VERTEX
  5
C07
  8
LAYER_1
 10
-39.26017155408558
 20
41.50553031591475
 30
0.0
  0
VERTEX
  5
C08
  8
LAYER_1
 10
-39.29563684290805
 20
41.44330329112464
 30
0.0
  0
VERTEX
  5
C09
  8
LAYER_1
 10
-39.32735722860392
 20
41.37132576355948
 30
0.0
  0
VERTEX
  5
C0A
  8
LAYER_1
 10
-39.37930130680405
 20
41.20292518416591
 30
0.0
  0
VERTEX
  5
C0B
  8
LAYER_1
 10
-39.41547982106234
 20
41.00994054585787
 30
0.0
  0
VERTEX
  5
C0C
  8
LAYER_1
 10
-39.43536880375517
 20
40.80198381675916
 30
0.0
  0
VERTEX
  5
C0D
  8
LAYER_1
 10
-39.4384442872589
 20
40.58866696499358
 30
0.0
  0
VERTEX
  5
C0E
  8
LAYER_1
 10
-39.42418230394992
 20
40.37960195868493
 30
0.0
  0
VERTEX
  5
C0F
  8
LAYER_1
 10
-39.3920588862046
 20
40.18440076595702
 30
0.0
  0
VERTEX
  5
C10
  8
LAYER_1
 10
-39.34155006639932
 20
40.01267535493365
 30
0.0
  0
VERTEX
  5
C11
  8
LAYER_1
 10
-39.21259241199794
 20
39.67500455677509
 30
0.0
  0
VERTEX
  5
C12
  8
LAYER_1
 10
-35.69999843835831
 20
39.67500455677509
 30
0.0
  0
VERTEX
  5
C13
  8
LAYER_1
 10
-35.69999843835831
 20
39.75000455975533
 30
0.0
  0
VERTEX
  5
C14
  8
LAYER_1
 10
-35.69170809584259
 20
39.79368701567169
 30
0.0
  0
VERTEX
  5
C15
  8
LAYER_1
 10
-35.66922203745407
 20
39.81899459435627
 30
0.0
  0
VERTEX
  5
C16
  8
LAYER_1
 10
-35.63611771693071
 20
39.82720027637038
 30
0.0
  0
VERTEX
  5
C17
  8
LAYER_1
 10
-35.59597258801045
 20
39.81957704227533
 30
0.0
  0
VERTEX
  5
C18
  8
LAYER_1
 10
-35.55236410443126
 20
39.79739787263244
 30
0.0
  0
VERTEX
  5
C19
  8
LAYER_1
 10
-35.50886971993108
 20
39.76193574800305
 30
0.0
  0
VERTEX
  5
C1A
  8
LAYER_1
 10
-35.46906688824787
 20
39.71446364894848
 30
0.0
  0
VERTEX
  5
C1B
  8
LAYER_1
 10
-35.43653306311959
 20
39.65625455603004
 30
0.0
  0
VERTEX
  5
C1C
  8
LAYER_1
 10
-35.38899737081714
 20
39.57969845022687
 30
0.0
  0
VERTEX
  5
C1D
  8
LAYER_1
 10
-35.32138321417889
 20
39.52281418105544
 30
0.0
  0
VERTEX
  5
C1E
  8
LAYER_1
 10
-35.23203254068768
 20
39.48459717372816
 30
0.0
  0
VERTEX
  5
C1F
  8
LAYER_1
 10
-35.11928729782638
 20
39.46404285345749
 30
0.0
  0
VERTEX
  5
C20
  8
LAYER_1
 10
-34.99342548879721
 20
39.46007249268375
 30
0.0
  0
VERTEX
  5
C21
  8
LAYER_1
 10
-34.94578840391458
 20
39.46732977200431
 30
0.0
  0
VERTEX
  5
C22
  8
LAYER_1
 10
-34.90594578153117
 20
39.48197376094586
 30
0.0
  0
VERTEX
  5
C23
  8
LAYER_1
 10
-34.87209655870544
 20
39.50492326187047
 30
0.0
  0
VERTEX
  5
C24
  8
LAYER_1
 10
-34.84243967249585
 20
39.53709707714017
 30
0.0
  0
VERTEX
  5
C25
  8
LAYER_1
 10
-34.7884986581589
 20
39.63279286016301
 30
0.0
  0
VERTEX
  5
C26
  8
LAYER_1
 10
-34.74901974965925
 20
39.71101838664752
 30
0.0
  0
VERTEX
  5
C27
  8
LAYER_1
 10
-34.71189075999875
 20
39.76781656538786
 30
0.0
  0
VERTEX
  5
C28
  8
LAYER_1
 10
-34.67752239626562
 20
39.80314495389882
 30
0.0
  0
VERTEX
  5
C29
  8
LAYER_1
 10
-34.64632536554808
 20
39.81696110969516
 30
0.0
  0
VERTEX
  5
C2A
  8
LAYER_1
 10
-34.61871037493437
 20
39.80922259029168
 30
0.0
  0
VERTEX
  5
C2B
  8
LAYER_1
 10
-34.5950881315127
 20
39.77988695320315
 30
0.0
  0
VERTEX
  5
C2C
  8
LAYER_1
 10
-34.5758693423713
 20
39.72891175594434
 30
0.0
  0
VERTEX
  5
C2D
  8
LAYER_1
 10
-34.5614647145984
 20
39.65625455603004
 30
0.0
  0
VERTEX
  5
C2E
  8
LAYER_1
 10
-34.55213655978401
 20
39.60798121402646
 30
0.0
  0
VERTEX
  5
C2F
  8
LAYER_1
 10
-34.5380043224396
 20
39.56960960644123
 30
0.0
  0
VERTEX
  5
C30
  8
LAYER_1
 10
-34.51701752426163
 20
39.54007166480308
 30
0.0
  0
VERTEX
  5
C31
  8
LAYER_1
 10
-34.48712568694653
 20
39.51829932064076
 30
0.0
  0
VERTEX
  5
C32
  8
LAYER_1
 10
-34.44627833219074
 20
39.50322450548301
 30
0.0
  0
VERTEX
  5
C33
  8
LAYER_1
 10
-34.39242498169074
 20
39.49377915085856
 30
0.0
  0
VERTEX
  5
C34
  8
LAYER_1
 10
-34.23749838024378
 20
39.48750454932451
 30
0.0
  0
VERTEX
  5
C35
  8
LAYER_1
 10
-34.08257177879682
 20
39.49377915085856
 30
0.0
  0
VERTEX
  5
C36
  8
LAYER_1
 10
-34.02871842829681
 20
39.50322450548301
 30
0.0
  0
VERTEX
  5
C37
  8
LAYER_1
 10
-33.98787107354103
 20
39.51829932064076
 30
0.0
  0
VERTEX
  5
C38
  8
LAYER_1
 10
-33.95797923622593
 20
39.54007166480308
 30
0.0
  0
VERTEX
  5
C39
  8
LAYER_1
 10
-33.93699243804795
 20
39.56960960644123
 30
0.0
  0
VERTEX
  5
C3A
  8
LAYER_1
 10
-33.91353204588916
 20
39.65625455603004
 30
0.0
  0
VERTEX
  5
C3B
  8
LAYER_1
 10
-33.88956572345546
 20
39.82500456273556
 30
0.0
  0
VERTEX
  5
C3C
  8
LAYER_1
 10
-22.12499789893627
 20
39.82500456273556
 30
0.0
  0
VERTEX
  5
C3D
  8
LAYER_1
 10
-22.12499789893627
 20
39.75000455975533
 30
0.0
  0
VERTEX
  5
C3E
  8
LAYER_1
 10
-22.11316196096595
 20
39.72088346484816
 30
0.0
  0
VERTEX
  5
C3F
  8
LAYER_1
 10
-22.08093539718539
 20
39.69703580765054
 30
0.0
  0
VERTEX
  5
C40
  8
LAYER_1
 10
-22.03324008279014
 20
39.68092252576025
 30
0.0
  0
VERTEX
  5
C41
  8
LAYER_1
 10
-21.97499789297581
 20
39.67500455677509
 30
0.0
  0
VERTEX
  5
C42
  8
LAYER_1
 10
-21.90121391364843
 20
39.67007865748988
 30
0.0
  0
VERTEX
  5
C43
  8
LAYER_1
 10
-21.85368561745469
 20
39.65621785814111
 30
0.0
  0
VERTEX
  5
C44
  8
LAYER_1
 10
-21.83172487887125
 20
39.63479750648908
 30
0.0
  0
VERTEX
  5
C45
  8
LAYER_1
 10
-21.83464357237476
 20
39.60719295029407
 30
0.0
  0
VERTEX
  5
C46
  8
LAYER_1
 10
-21.86175357244188
 20
39.57477953731639
 30
0.0
  0
VERTEX
  5
C47
  8
LAYER_1
 10
-21.91236675354926
 20
39.53893261531633
 30
0.0
  0
VERTEX
  5
C48
  8
LAYER_1
 10
-21.98579499017357
 20
39.50102753205418
 30
0.0
  0
VERTEX
  5
C49
  8
LAYER_1
 10
-22.08135015679147
 20
39.46243963529024
 30
0.0
  0
VERTEX
  5
C4A
  8
LAYER_1
 10
-22.21506820103123
 20
39.40369653091849
 30
0.0
  0
VERTEX
  5
C4B
  8
LAYER_1
 10
-22.26277302071714
 20
39.37075410172454
 30
0.0
  0
VERTEX
  5
C4C
  8
LAYER_1
 10
-22.30032922724171
 20
39.33207928341402
 30
0.0
  0
VERTEX
  5
C4D
  8
LAYER_1
 10
-22.32970246195094
 20
39.28515822265351
 30
0.0
  0
VERTEX
  5
C4E
  8
LAYER_1
 10
-22.35285836619082
 20
39.22747706610963
 30
0.0
  0
VERTEX
  5
C4F
  8
LAYER_1
 10
-22.38838074864645
 20
39.06977905233811
 30
0.0
  0
VERTEX
  5
C50
  8
LAYER_1
 10
-22.40547165411569
 20
38.93097767986717
 30
0.0
  0
VERTEX
  5
C51
  8
LAYER_1
 10
-22.40402980144814
 20
38.81742864095294
 30
0.0
  0
VERTEX
  5
C52
  8
LAYER_1
 10
-22.38208515219548
 20
38.72705284809386
 30
0.0
  0
VERTEX
  5
C53
  8
LAYER_1
 10
-22.36280864183465
 20
38.68990520409077
 30
0.0
  0
VERTEX
  5
C54
  8
LAYER_1
 10
-22.33766766790943
 20
38.65777121378839
 30
0.0
  0
VERTEX
  5
C55
  8
LAYER_1
 10
-22.26880731014167
 20
38.60750465053498
 30
0.0
  0
VERTEX
  5
C56
  8
LAYER_1
 10
-22.1735340404439
 20
38.57417407083207
 30
0.0
  0
VERTEX
  5
C57
  8
LAYER_1
 10
-22.04987782036781
 20
38.55570038717813
 30
0.0
  0
VERTEX
  5
C58
  8
LAYER_1
 10
-21.89586861146511
 20
38.55000451207161
 30
0.0
  0
VERTEX
  5
C59
  8
LAYER_1
 10
-21.71318384146621
 20
38.54380841427957
 30
0.0
  0
VERTEX
  5
C5A
  8
LAYER_1
 10
-21.64738898423933
 20
38.53487528858997
 30
0.0
  0
VERTEX
  5
C5B
  8
LAYER_1
 10
-21.59574791941332
 20
38.52099610863839
 30
0.0
  0
VERTEX
  5
C5C
  8
LAYER_1
 10
-21.55610222740252
 20
38.50137887212514
 30
0.0
  0
VERTEX
  5
C5D
  8
LAYER_1
 10
-21.52629348862129
 20
38.47523157675052
 30
0.0
  0
VERTEX
  5
C5E
  8
LAYER_1
 10
-21.50416328348399
 20
38.44176222021483
 30
0.0
  0
VERTEX
  5
C5F
  8
LAYER_1
 10
-21.48755319240499
 20
38.40017880021837
 30
0.0
  0
VERTEX
  5
C60
  8
LAYER_1
 10
-21.45803341536715
 20
38.33586409156425
 30
0.0
  0
VERTEX
  5
C61
  8
LAYER_1
 10
-21.41257034635778
 20
38.28372501694343
 30
0.0
  0
VERTEX
  5
C62
  8
LAYER_1
 10
-21.3485638058725
 20
38.24310026588898
 30
0.0
  0
VERTEX
  5
C63
  8
LAYER_1
 10
-21.26341361440697
 20
38.21332852793395
 30
0.0
  0
VERTEX
  5
C64
  8
LAYER_1
 10
-21.15451959245683
 20
38.19374849261143
 30
0.0
  0
VERTEX
  5
C65
  8
LAYER_1
 10
-21.01928156051771
 20
38.18369884945447
 30
0.0
  0
VERTEX
  5
C66
  8
LAYER_1
 10
-20.65937274865512
 20
38.18954549776949
 30
0.0
  0
VERTEX
  5
C67
  8
LAYER_1
 10
-20.21249782294035
 20
38.21250449866056
 30
0.0
  0
VERTEX
  5
C68
  8
LAYER_1
 10
-20.1894569557718
 20
38.6169636484798
 30
0.0
  0
VERTEX
  5
C69
  8
LAYER_1
 10
-20.1867671642304
 20
38.78026409790935
 30
0.0
  0
VERTEX
  5
C6A
  8
LAYER_1
 10
-20.19647603622136
 20
38.92590461592666
 30
0.0
  0
VERTEX
  5
C6B
  8
LAYER_1
 10
-20.21673786854633
 20
39.03801215502602
 30
0.0
  0
VERTEX
  5
C6C
  8
LAYER_1
 10
-20.23024936258459
 20
39.07653073013593
 30
0.0
  0
VERTEX
  5
C6D
  8
LAYER_1
 10
-20.24570695800697
 20
39.1007136677017
 30
0.0
  0
VERTEX
  5
C6E
  8
LAYER_1
 10
-20.27649411589263
 20
39.15103012323803
 30
0.0
  0
VERTEX
  5
C6F
  8
LAYER_1
 10
-20.30170613452335
 20
39.22941597210648
 30
0.0
  0
VERTEX
  5
C70
  8
LAYER_1
 10
-20.31874128224681
 20
39.32514838858204
 30
0.0
  0
VERTEX
  5
C71
  8
LAYER_1
 10
-20.3249978274107
 20
39.42750454693973
 30
0.0
  0
VERTEX
  5
C72
  8
LAYER_1
 10
-20.3249978274107
 20
39.67500455677509
 30
0.0
  0
VERTEX
  5
C73
  8
LAYER_1
 10
-17.92499773204327
 20
39.67500455677509
 30
0.0
  0
VERTEX
  5
C74
  8
LAYER_1
 10
-17.92499773204327
 20
39.49193082407851
 30
0.0
  0
VERTEX
  5
C75
  8
LAYER_1
 10
-17.91907976305811
 20
39.41718922032773
 30
0.0
  0
VERTEX
  5
C76
  8
LAYER_1
 10
-17.90296648116782
 20
39.34901893850586
 30
0.0
  0
VERTEX
  5
C77
  8
LAYER_1
 10
-17.8791188239702
 20
39.29494802854664
 30
0.0
  0
VERTEX
  5
C78
  8
LAYER_1
 10
-17.84999772906303
 20
39.26250454038382
 30
0.0
  0
VERTEX
  5
C79
  8
LAYER_1
 10
-17.83493181049562
 20
39.24513127505881
 30
0.0
  0
VERTEX
  5
C7A
  8
LAYER_1
 10
-17.82087663415587
 20
39.21333873026926
 30
0.0
  0
VERTEX
  5
C7B
  8
LAYER_1
 10
-17.79702897695825
 20
39.11373674568899
 30
0.0
  0
VERTEX
  5
C7C
  8
LAYER_1
 10
-17.78091569506796
 20
38.97818047342796
 30
0.0
  0
VERTEX
  5
C7D
  8
LAYER_1
 10
-17.7749977260828
 20
38.82115180027114
 30
0.0
  0
VERTEX
  5
C7E
  8
LAYER_1
 10
-17.76654124623559
 20
38.6554747387063
 30
0.0
  0
VERTEX
  5
C7F
  8
LAYER_1
 10
-17.74031211638046
 20
38.51344533589612
 30
0.0
  0
VERTEX
  5
C80
  8
LAYER_1
 10
-17.69502080104719
 20
38.39355050701653
 30
0.0
  0
VERTEX
  5
C81
  8
LAYER_1
 10
-17.62937776476555
 20
38.29427716724346
 30
0.0
  0
VERTEX
  5
C82
  8
LAYER_1
 10
-17.54209347206532
 20
38.21411223175284
 30
0.0
  0
VERTEX
  5
C83
  8
LAYER_1
 10
-17.43187838747628
 20
38.15154261572059
 30
0.0
  0
VERTEX
  5
C84
  8
LAYER_1
 10
-17.29744297552819
 20
38.10505523432263
 30
0.0
  0
VERTEX
  5
C85
  8
LAYER_1
 10
-17.13749770075083
 20
38.07313700273491
 30
0.0
  0
VERTEX
  5
C86
  8
LAYER_1
 10
-16.8374976888299
 20
38.02957780704293
 30
0.0
  0
VERTEX
  5
C87
  8
LAYER_1
 10
-13.46249755471945
 20
37.9539025290138
 30
0.0
  0
VERTEX
  5
C88
  8
LAYER_1
 10
-7.16249730437994
 20
37.8013661825221
 30
0.0
  0
VERTEX
  5
C89
  8
LAYER_1
 10
-4.237497188150883
 20
37.72450511405955
 30
0.0
  0
VERTEX
  5
C8A
  8
LAYER_1
 10
4.837503172457218
 20
37.50011744029874
 30
0.0
  0
VERTEX
  5
C8B
  8
LAYER_1
 10
11.73750344663858
 20
37.35615275614596
 30
0.0
  0
VERTEX
  5
C8C
  8
LAYER_1
 10
14.45270555864413
 20
37.25962169705487
 30
0.0
  0
VERTEX
  5
C8D
  8
LAYER_1
 10
14.6829254844161
 20
37.37867304751369
 30
0.0
  0
VERTEX
  5
C8E
  8
LAYER_1
 10
14.7868351223767
 20
37.44906556796832
 30
0.0
  0
VERTEX
  5
C8F
  8
LAYER_1
 10
14.88642515760954
 20
37.54769968116307
 30
0.0
  0
VERTEX
  5
C90
  8
LAYER_1
 10
14.97503600736449
 20
37.66686832717504
 30
0.0
  0
VERTEX
  5
C91
  8
LAYER_1
 10
15.04600808889145
 20
37.79886444608135
 30
0.0
  0
VERTEX
  5
C92
  8
LAYER_1
 10
15.10053590185218
 20
37.9109801232118
 30
0.0
  0
VERTEX
  5
C93
  8
LAYER_1
 10
15.15546137210102
 20
37.99532814953298
 30
0.0
  0
VERTEX
  5
C94
  8
LAYER_1
 10
15.2150755265327
 20
38.05305410357134
 30
0.0
  0
VERTEX
  5
C95
  8
LAYER_1
 10
15.28366939204194
 20
38.08530356385331
 30
0.0
  0
VERTEX
  5
C96
  8
LAYER_1
 10
15.36553399552346
 20
38.09322210890531
 30
0.0
  0
VERTEX
  5
C97
  8
LAYER_1
 10
15.46496036387197
 20
38.07795531725377
 30
0.0
  0
VERTEX
  5
C98
  8
LAYER_1
 10
15.58623952398219
 20
38.04064876742513
 30
0.0
  0
VERTEX
  5
C99
  8
LAYER_1
 10
15.73366250274884
 20
37.9824480379458
 30
0.0
  0
VERTEX
  5
C9A
  8
LAYER_1
 10
16.08273028430892
 20
37.84597613380178
 30
0.0
  0
VERTEX
  5
C9B
  8
LAYER_1
 10
16.53041423766918
 20
37.68294211133073
 30
0.0
  0
VERTEX
  5
C9C
  8
LAYER_1
 10
16.73167410993387
 20
37.61566905174668
 30
0.0
  0
VERTEX
  5
C9D
  8
LAYER_1
 10
16.89054732026905
 20
37.57325885590252
 30
0.0
  0
VERTEX
  5
C9E
  8
LAYER_1
 10
17.01346596568933
 20
37.5581122543653
 30
0.0
  0
VERTEX
  5
C9F
  8
LAYER_1
 10
17.06345235687345
 20
37.56151302976399
 30
0.0
  0
VERTEX
  5
CA0
  8
LAYER_1
 10
17.10686214320933
 20
37.57262997770204
 30
0.0
  0
VERTEX
  5
CA1
  8
LAYER_1
 10
17.14449933682379
 20
37.59176318950033
 30
0.0
  0
VERTEX
  5
CA2
  8
LAYER_1
 10
17.17716794984367
 20
37.61921275647975
 30
0.0
  0
VERTEX
  5
CA3
  8
LAYER_1
 10
17.20567199439579
 20
37.65527876996117
 30
0.0
  0
VERTEX
  5
CA4
  8
LAYER_1
 10
17.23081548260697
 20
37.70026132126547
 30
0.0
  0
VERTEX
  5
CA5
  8
LAYER_1
 10
17.27423683851386
 20
37.81817640262621
 30
0.0
  0
VERTEX
  5
CA6
  8
LAYER_1
 10
17.31386411457895
 20
37.97535873112901
 30
0.0
  0
VERTEX
  5
CA7
  8
LAYER_1
 10
17.34250022324505
 20
38.08739887648179
 30
0.0
  0
VERTEX
  5
CA8
  8
LAYER_1
 10
17.36636356382457
 20
38.15059000065888
 30
0.0
  0
VERTEX
  5
CA9
  8
LAYER_1
 10
17.37589605674779
 20
38.16276721199688
 30
0.0
  0
VERTEX
  5
CAA
  8
LAYER_1
 10
17.38350409044848
 20
38.16141220666936
 30
0.0
  0
VERTEX
  5
CAB
  8
LAYER_1
 10
17.39197175724776
 20
38.11634559752231
 30
0.0
  0
VERTEX
  5
CAC
  8
LAYER_1
 10
17.40692826878732
 20
37.98538135504764
 30
0.0
  0
VERTEX
  5
CAD
  8
LAYER_1
 10
17.43911819024339
 20
37.85789973188626
 30
0.0
  0
VERTEX
  5
CAE
  8
LAYER_1
 10
17.48817742373674
 20
37.7344752434221
 30
0.0
  0
VERTEX
  5
CAF
  8
LAYER_1
 10
17.55374187138813
 20
37.61568240503906
 30
0.0
  0
VERTEX
  5
CB0
  8
LAYER_1
 10
17.63544743531831
 20
37.50209573212108
 30
0.0
  0
VERTEX
  5
CB1
  8
LAYER_1
 10
17.73293001764805
 20
37.39428974005205
 30
0.0
  0
VERTEX
  5
CB2
  8
LAYER_1
 10
17.8458255204981
 20
37.29283894421591
 30
0.0
  0
VERTEX
  5
CB3
  8
LAYER_1
 10
17.97376984598924
 20
37.19831785999658
 30
0.0
  0
VERTEX
  5
CB4
  8
LAYER_1
 10
18.25819595026357
 20
36.9916667974738
 30
0.0
  0
VERTEX
  5
CB5
  8
LAYER_1
 10
18.36615146887013
 20
36.90219363165287
 30
0.0
  0
VERTEX
  5
CB6
  8
LAYER_1
 10
18.43125371262431
 20
36.83773104910222
 30
0.0
  0
VERTEX
  5
CB7
  8
LAYER_1
 10
18.5250037163496
 20
36.72133499414134
 30
0.0
  0
VERTEX
  5
CB8
  8
LAYER_1
 10
18.5250037163496
 20
34.71532034943731
 30
0.0
  0
VERTEX
  5
CB9
  8
LAYER_1
 10
18.30501007455356
 20
34.5302079041152
 30
0.0
  0
VERTEX
  5
CBA
  8
LAYER_1
 10
18.19598817899766
 20
34.42463978883683
 30
0.0
  0
VERTEX
  5
CBB
  8
LAYER_1
 10
18.10776098401186
 20
34.31047136371086
 30
0.0
  0
VERTEX
  5
CBC
  8
LAYER_1
 10
18.03980216962514
 20
34.18960962913181
 30
0.0
  0
VERTEX
  5
CBD
  8
LAYER_1
 10
17.99158541586649
 20
34.06396158549418
 30
0.0
  0
VERTEX
  5
CBE
  8
LAYER_1
 10
17.96258440276488
 20
33.93543423319251
 30
0.0
  0
VERTEX
  5
CBF
  8
LAYER_1
 10
17.95227281034931
 20
33.80593457262128
 30
0.0
  0
VERTEX
  5
CC0
  8
LAYER_1
 10
17.96012431864876
 20
33.67736960417503
 30
0.0
  0
VERTEX
  5
CC1
  8
LAYER_1
 10
17.98561260769221
 20
33.55164632824827
 30
0.0
  0
VERTEX
  5
CC2
  8
LAYER_1
 10
18.02821135750864
 20
33.43067174523551
 30
0.0
  0
VERTEX
  5
CC3
  8
LAYER_1
 10
18.08739424812703
 20
33.31635285553126
 30
0.0
  0
VERTEX
  5
CC4
  8
LAYER_1
 10
18.16263495957636
 20
33.21059665953004
 30
0.0
  0
VERTEX
  5
CC5
  8
LAYER_1
 10
18.25340717188563
 20
33.11531015762637
 30
0.0
  0
VERTEX
  5
CC6
  8
LAYER_1
 10
18.35918456508381
 20
33.03240035021476
 30
0.0
  0
VERTEX
  5
CC7
  8
LAYER_1
 10
18.47944081919988
 20
32.96377423768971
 30
0.0
  0
VERTEX
  5
CC8
  8
LAYER_1
 10
18.61364961426283
 20
32.91133882044575
 30
0.0
  0
VERTEX
  5
CC9
  8
LAYER_1
 10
18.76128463030165
 20
32.87700109887739
 30
0.0
  0
VERTEX
  5
CCA
  8
LAYER_1
 10
19.05000373721123
 20
32.83083305155407
 30
0.0
  0
VERTEX
  5
CCB
  8
LAYER_1
 10
19.04939367346196
 20
31.98750425130129
 30
0.0
  0
VERTEX
  5
CCC
  8
LAYER_1
 10
18.97482348779091
 20
30.93750420957804
 30
0.0
  0
VERTEX
  5
CCD
  8
LAYER_1
 10
18.92705654610443
 20
30.32457686600745
 30
0.0
  0
VERTEX
  5
CCE
  8
LAYER_1
 10
18.87278011167525
 20
29.74870299596981
 30
0.0
  0
VERTEX
  5
CCF
  8
LAYER_1
 10
18.81004782722577
 20
29.19655083707865
 30
0.0
  0
VERTEX
  5
CD0
  8
LAYER_1
 10
18.73691333547838
 20
28.6547886269475
 30
0.0
  0
VERTEX
  5
CD1
  8
LAYER_1
 10
18.6514302791555
 20
28.11008460318991
 30
0.0
  0
VERTEX
  5
CD2
  8
LAYER_1
 10
18.55165230097951
 20
27.54910700341939
 30
0.0
  0
VERTEX
  5
CD3
  8
LAYER_1
 10
18.43563304367282
 20
26.9585240652495
 30
0.0
  0
VERTEX
  5
CD4
  8
LAYER_1
 10
18.30142614995783
 20
26.32500402629375
 30
0.0
  0
VERTEX
  5
CD5
  8
LAYER_1
 10
18.16618661633085
 20
25.77586207004085
 30
0.0
  0
VERTEX
  5
CD6
  8
LAYER_1
 10
17.96980237973239
 20
25.06677807553447
 30
0.0
  0
VERTEX
  5
CD7
  8
LAYER_1
 10
17.74027976597512
 20
24.29512102414002
 30
0.0
  0
VERTEX
  5
CD8
  8
LAYER_1
 10
17.50562510087171
 20
23.55825989722295
 30
0.0
  0
VERTEX
  5
CD9
  8
LAYER_1
 10
17.41233457084769
 20
23.26196666093982
 30
0.0
  0
VERTEX
  5
CDA
  8
LAYER_1
 10
17.34556990149904
 20
23.01157732008712
 30
0.0
  0
VERTEX
  5
CDB
  8
LAYER_1
 10
17.30531116387973
 20
22.80108554366138
 30
0.0
  0
VERTEX
  5
CDC
  8
LAYER_1
 10
17.29153842904372
 20
22.62448500065911
 30
0.0
  0
VERTEX
  5
CDD
  8
LAYER_1
 10
17.30423176804497
 20
22.47576936007681
 30
0.0
  0
VERTEX
  5
CDE
  8
LAYER_1
 10
17.32049698743893
 20
22.40999139975457
 30
0.0
  0
VERTEX
  5
CDF
  8
LAYER_1
 10
17.34337125193744
 20
22.34893229091102
 30
0.0
  0
VERTEX
  5
CE0
  8
LAYER_1
 10
17.40893695177511
 20
22.23796746215823
 30
0.0
  0
VERTEX
  5
CE1
  8
LAYER_1
 10
17.50090893861193
 20
22.13686854281498
 30
0.0
  0
VERTEX
  5
CE2
  8
LAYER_1
 10
17.58344124569108
 20
22.07353235528183
 30
0.0
  0
VERTEX
  5
CE3
  8
LAYER_1
 10
17.6944230513549
 20
22.0080246932011
 30
0.0
  0
VERTEX
  5
CE4
  8
LAYER_1
 10
17.82552400487827
 20
21.94359051343902
 30
0.0
  0
VERTEX
  5
CE5
  8
LAYER_1
 10
17.96841375553605
 20
21.8834747728618
 30
0.0
  0
VERTEX
  5
CE6
  8
LAYER_1
 10
18.1147619526031
 20
21.83092242833566
 30
0.0
  0
VERTEX
  5
CE7
  8
LAYER_1
 10
18.25623824535428
 20
21.78917843672682
 30
0.0
  0
VERTEX
  5
CE8
  8
LAYER_1
 10
18.38451228306446
 20
21.76148775490149
 30
0.0
  0
VERTEX
  5
CE9
  8
LAYER_1
 10
18.49125371500851
 20
21.75109533972589
 30
0.0
  0
VERTEX
  5
CEA
  8
LAYER_1
 10
18.5565740301041
 20
21.74569151121605
 30
0.0
  0
VERTEX
  5
CEB
  8
LAYER_1
 10
18.62076934515499
 20
21.73178498569256
 30
0.0
  0
VERTEX
  5
CEC
  8
LAYER_1
 10
18.67645684736782
 20
21.71148247782191
 30
0.0
  0
VERTEX
  5
CED
  8
LAYER_1
 10
18.71625372394921
 20
21.68689070227063
 30
0.0
  0
VERTEX
  5
CEE
  8
LAYER_1
 10
18.77129570291722
 20
21.65637721335366
 30
0.0
  0
VERTEX
  5
CEF
  8
LAYER_1
 10
18.87882005215518
 20
21.61281686147866
 30
0.0
  0
VERTEX
  5
CF0
  8
LAYER_1
 10
19.21909499420258
 20
21.49683706923663
 30
0.0
  0
VERTEX
  5
CF1
  8
LAYER_1
 10
19.67263681561467
 20
21.3595143263088
 30
0.0
  0
VERTEX
  5
CF2
  8
LAYER_1
 10
20.17500378191471
 20
21.22141163345943
 30
0.0
  0
VERTEX
  5
CF3
  8
LAYER_1
 10
20.45742566813715
 20
21.14022955399883
 30
0.0
  0
VERTEX
  5
CF4
  8
LAYER_1
 10
20.66250380128622
 20
21.06851494612373
 30
0.0
  0
VERTEX
  5
CF5
  8
LAYER_1
 10
20.89232164139946
 20
20.98931225923807
 30
0.0
  0
VERTEX
  5
CF6
  8
LAYER_1
 10
21.29704567782689
 20
20.86747652758176
 30
0.0
  0
VERTEX
  5
CF7
  8
LAYER_1
 10
21.79699879237528
 20
20.72618225127564
 30
0.0
  0
VERTEX
  5
CF8
  8
LAYER_1
 10
22.31250386685133
 20
20.58860393044056
 30
0.0
  0
VERTEX
  5
CF9
  8
LAYER_1
 10
22.68750388175249
 20
20.47605763256113
 30
0.0
  0
SEQEND
  5
E74
  8
LAYER_1
  0
POLYLINE
  5
80
  8
LAYER_1
 66
     1
 10
0.0
 20
0.0
 30
0.0
 70
     1
  0
VERTEX
  5
CFA
  8
LAYER_1
 10
30.36167014039746
 20
32.70000427961349
 30
0.0
  0
VERTEX
  5
CFB
  8
LAYER_1
 10
30.55285286899549
 20
32.92721204319533
 30
0.0
  0
VERTEX
  5
CFC
  8
LAYER_1
 10
30.630851827783
 20
33.0355086090687
 30
0.0
  0
VERTEX
  5
CFD
  8
LAYER_1
 10
30.70189671087824
 20
33.16241609388804
 30
0.0
  0
VERTEX
  5
CFE
  8
LAYER_1
 10
30.75814815502024
 20
33.2921307858846
 30
0.0
  0
VERTEX
  5
CFF
  8
LAYER_1
 10
30.79176679694805
 20
33.40884897328966
 30
0.0
  0
VERTEX
  5
D00
  8
LAYER_1
 10
30.80359397308541
 20
33.49730553838754
 30
0.0
  0
VERTEX
  5
D01
  8
LAYER_1
 10
30.80753878448627
 20
33.59194449972176
 30
0.0
  0
VERTEX
  5
D02
  8
LAYER_1
 10
30.7937068272167
 20
33.79428000481647
 30
0.0
  0
VERTEX
  5
D03
  8
LAYER_1
 10
30.75412195341578
 20
34.00487627600834
 30
0.0
  0
VERTEX
  5
D04
  8
LAYER_1
 10
30.69263519135993
 20
34.21275410073188
 30
0.0
  0
VERTEX
  5
D05
  8
LAYER_1
 10
30.61309756932555
 20
34.40693426642162
 30
0.0
  0
VERTEX
  5
D06
  8
LAYER_1
 10
30.51936011558907
 20
34.57643756051211
 30
0.0
  0
VERTEX
  5
D07
  8
LAYER_1
 10
30.46836989816891
 20
34.64850437678092
 30
0.0
  0
VERTEX
  5
D08
  8
LAYER_1
 10
30.41527385842689
 20
34.71028477043787
 30
0.0
  0
VERTEX
  5
D09
  8
LAYER_1
 10
30.36055337489756
 20
34.76040633991226
 30
0.0
  0
VERTEX
  5
D0A
  8
LAYER_1
 10
30.30468982611545
 20
34.79749668363341
 30
0.0
  0
VERTEX
  5
D0B
  8
LAYER_1
 10
30.15986539679085
 20
34.87500436604023
 30
0.0
  0
VERTEX
  5
D0C
  8
LAYER_1
 10
27.78750408440828
 20
34.87444365695232
 30
0.0
  0
VERTEX
  5
D0D
  8
LAYER_1
 10
27.54306857151738
 20
34.72540950874098
 30
0.0
  0
VERTEX
  5
D0E
  8
LAYER_1
 10
27.41614860380675
 20
34.63519919368896
 30
0.0
  0
VERTEX
  5
D0F
  8
LAYER_1
 10
27.30635858677595
 20
34.53120588567782
 30
0.0
  0
VERTEX
  5
D10
  8
LAYER_1
 10
27.21368143440704
 20
34.41555709391591
 30
0.0
  0
VERTEX
  5
D11
  8
LAYER_1
 10
27.13810006068211
 20
34.2903803276116
 30
0.0
  0
VERTEX
  5
D12
  8
LAYER_1
 10
27.07959737958321
 20
34.15780309597328
 30
0.0
  0
VERTEX
  5
D13
  8
LAYER_1
 10
27.03815630509242
 20
34.0199529082093
 30
0.0
  0
VERTEX
  5
D14
  8
LAYER_1
 10
27.01375975119181
 20
33.87895727352804
 30
0.0
  0
VERTEX
  5
D15
  8
LAYER_1
 10
27.00639063186345
 20
33.73694370113789
 30
0.0
  0
VERTEX
  5
D16
  8
LAYER_1
 10
27.01603186108942
 20
33.5960397002472
 30
0.0
  0
VERTEX
  5
D17
  8
LAYER_1
 10
27.04266635285178
 20
33.45837278006435
 30
0.0
  0
VERTEX
  5
D18
  8
LAYER_1
 10
27.0862770211326
 20
33.32607044979771
 30
0.0
  0
VERTEX
  5
D19
  8
LAYER_1
 10
27.14684677991395
 20
33.20126021865566
 30
0.0
  0
VERTEX
  5
D1A
  8
LAYER_1
 10
27.22435854317791
 20
33.08606959584656
 30
0.0
  0
VERTEX
  5
D1B
  8
LAYER_1
 10
27.31879522490654
 20
32.98262609057879
 30
0.0
  0
VERTEX
  5
D1C
  8
LAYER_1
 10
27.43013973908193
 20
32.89305721206072
 30
0.0
  0
VERTEX
  5
D1D
  8
LAYER_1
 10
27.55837499968612
 20
32.81949046950072
 30
0.0
  0
VERTEX
  5
D1E
  8
LAYER_1
 10
27.81017345368905
 20
32.70000427961349
 30
0.0
  0
SEQEND
  5
E75
  8
LAYER_1
  0
POLYLINE
  5
81
  8
LAYER_1
 66
     1
 10
0.0
 20
0.0
 30
0.0
 70
     1
  0
VERTEX
  5
D1F
  8
LAYER_1
 10
-64.17050649172245
 20
34.53738936077863
 30
0.0
  0
VERTEX
  5
D20
  8
LAYER_1
 10
-63.62441060702423
 20
34.46763691140839
 30
0.0
  0
VERTEX
  5
D21
  8
LAYER_1
 10
-63.36747233694047
 20
34.44445229693179
 30
0.0
  0
VERTEX
  5
D22
  8
LAYER_1
 10
-63.16525365976507
 20
34.43360275333647
 30
0.0
  0
VERTEX
  5
D23
  8
LAYER_1
 10
-62.76800777401556
 20
34.42500434815884
 30
0.0
  0
VERTEX
  5
D24
  8
LAYER_1
 10
-60.06240108493311
 20
34.7271923654841
 30
0.0
  0
VERTEX
  5
D25
  8
LAYER_1
 10
-59.73135290713247
 20
34.80138181957679
 30
0.0
  0
VERTEX
  5
D26
  8
LAYER_1
 10
-59.35980996542254
 20
34.87416114584022
 30
0.0
  0
VERTEX
  5
D27
  8
LAYER_1
 10
-58.93140203609531
 20
34.94496029259874
 30
0.0
  0
VERTEX
  5
D28
  8
LAYER_1
 10
-58.02884067359057
 20
35.08916292461717
 30
0.0
  0
VERTEX
  5
D29
  8
LAYER_1
 10
-57.17730371009345
 20
35.24788773234442
 30
0.0
  0
VERTEX
  5
D2A
  8
LAYER_1
 10
-56.35434020723086
 20
35.42564612908787
 30
0.0
  0
VERTEX
  5
D2B
  8
LAYER_1
 10
-55.53749922662973
 20
35.62694952815491
 30
0.0
  0
VERTEX
  5
D2C
  8
LAYER_1
 10
-54.33749917894602
 20
35.94048555888118
 30
0.0
  0
VERTEX
  5
D2D
  8
LAYER_1
 10
-53.92499916255474
 20
36.04026690286361
 30
0.0
  0
VERTEX
  5
D2E
  8
LAYER_1
 10
-53.45742101897486
 20
36.16400693190323
 30
0.0
  0
VERTEX
  5
D2F
  8
LAYER_1
 10
-52.91249912232161
 20
36.32139107187426
 30
0.0
  0
VERTEX
  5
D30
  8
LAYER_1
 10
-51.86249908059835
 20
36.63290622161026
 30
0.0
  0
VERTEX
  5
D31
  8
LAYER_1
 10
-51.60547750929788
 20
36.71835125577805
 30
0.0
  0
VERTEX
  5
D32
  8
LAYER_1
 10
-51.35077473657285
 20
36.82534065439292
 30
0.0
  0
VERTEX
  5
D33
  8
LAYER_1
 10
-51.09834372497773
 20
36.95392290690502
 30
0.0
  0
VERTEX
  5
D34
  8
LAYER_1
 10
-50.848137437067
 20
37.1041465027645
 30
0.0
  0
VERTEX
  5
D35
  8
LAYER_1
 10
-50.6001088353951
 20
37.27605993142151
 30
0.0
  0
VERTEX
  5
D36
  8
LAYER_1
 10
-50.35421088251654
 20
37.4697116823262
 30
0.0
  0
VERTEX
  5
D37
  8
LAYER_1
 10
-50.11039654098576
 20
37.68515024492871
 30
0.0
  0
VERTEX
  5
D38
  8
LAYER_1
 10
-49.86861877335724
 20
37.92242410867919
 30
0.0
  0
VERTEX
  5
D39
  8
LAYER_1
 10
-49.62883054218545
 20
38.1815817630278
 30
0.0
  0
VERTEX
  5
D3A
  8
LAYER_1
 10
-49.39098481002486
 20
38.46267169742468
 30
0.0
  0
VERTEX
  5
D3B
  8
LAYER_1
 10
-49.15503453942995
 20
38.76574240131998
 30
0.0
  0
VERTEX
  5
D3C
  8
LAYER_1
 10
-48.92093269295517
 20
39.09084236416385
 30
0.0
  0
VERTEX
  5
D3D
  8
LAYER_1
 10
-48.688632233155
 20
39.43802007540644
 30
0.0
  0
VERTEX
  5
D3E
  8
LAYER_1
 10
-48.45808612258391
 20
39.80732402449789
 30
0.0
  0
VERTEX
  5
D3F
  8
LAYER_1
 10
-48.22924732379636
 20
40.19880270088836
 30
0.0
  0
VERTEX
  5
D40
  8
LAYER_1
 10
-48.00206879934684
 20
40.612504594028
 30
0.0
  0
VERTEX
  5
D41
  8
LAYER_1
 10
-47.6460363864783
 20
41.25828397169996
 30
0.0
  0
VERTEX
  5
D42
  8
LAYER_1
 10
-47.3512207547294
 20
41.75771094425269
 30
0.0
  0
VERTEX
  5
D43
  8
LAYER_1
 10
-47.17379531372025
 20
42.04488445930514
 30
0.0
  0
VERTEX
  5
D44
  8
LAYER_1
 10
-47.09999889135361
 20
42.18035233277422
 30
0.0
  0
VERTEX
  5
D45
  8
LAYER_1
 10
-47.09999889135361
 20
42.20778740087339
 30
0.0
  0
VERTEX
  5
D46
  8
LAYER_1
 10
-46.60150880517708
 20
43.02264606152569
 30
0.0
  0
VERTEX
  5
D47
  8
LAYER_1
 10
-46.37052475476283
 20
43.38792201034613
 30
0.0
  0
VERTEX
  5
D48
  8
LAYER_1
 10
-46.13602798758841
 20
43.73531960626883
 30
0.0
  0
VERTEX
  5
D49
  8
LAYER_1
 10
-45.90180520319821
 20
44.06012721154966
 30
0.0
  0
VERTEX
  5
D4A
  8
LAYER_1
 10
-45.67164310113661
 20
44.35763318844451
 30
0.0
  0
VERTEX
  5
D4B
  8
LAYER_1
 10
-45.449328380948
 20
44.62312589920928
 30
0.0
  0
VERTEX
  5
D4C
  8
LAYER_1
 10
-45.23864774217675
 20
44.85189370609984
 30
0.0
  0
VERTEX
  5
D4D
  8
LAYER_1
 10
-45.04338788436727
 20
45.03922497137209
 30
0.0
  0
VERTEX
  5
D4E
  8
LAYER_1
 10
-44.86733550706393
 20
45.18040805728191
 30
0.0
  0
VERTEX
  5
D4F
  8
LAYER_1
 10
-44.58062938351155
 20
45.3699435877591
 30
0.0
  0
VERTEX
  5
D50
  8
LAYER_1
 10
-44.26334351547169
 20
45.55620924423673
 30
0.0
  0
VERTEX
  5
D51
  8
LAYER_1
 10
-43.91918406388581
 20
45.73752868750644
 30
0.0
  0
VERTEX
  5
D52
  8
LAYER_1
 10
-43.55185718969538
 20
45.91222557835987
 30
0.0
  0
VERTEX
  5
D53
  8
LAYER_1
 10
-43.16506905384187
 20
46.07862357758863
 30
0.0
  0
VERTEX
  5
D54
  8
LAYER_1
 10
-42.76252581726676
 20
46.23504634598436
 30
0.0
  0
VERTEX
  5
D55
  8
LAYER_1
 10
-42.3479336409115
 20
46.37981754433869
 30
0.0
  0
VERTEX
  5
D56
  8
LAYER_1
 10
-41.92499868571758
 20
46.51126083344323
 30
0.0
  0
VERTEX
  5
D57
  8
LAYER_1
 10
-41.43749866634607
 20
46.65345771669733
 30
0.0
  0
VERTEX
  5
D58
  8
LAYER_1
 10
-40.31249862164259
 20
46.90693472164483
 30
0.0
  0
VERTEX
  5
D59
  8
LAYER_1
 10
-38.43749854713678
 20
47.32805330846591
 30
0.0
  0
VERTEX
  5
D5A
  8
LAYER_1
 10
-37.68749851733446
 20
47.49569489033949
 30
0.0
  0
VERTEX
  5
D5B
  8
LAYER_1
 10
-33.41249834746122
 20
48.5354375298714
 30
0.0
  0
VERTEX
  5
D5C
  8
LAYER_1
 10
-32.84999832510948
 20
48.69116841412259
 30
0.0
  0
VERTEX
  5
D5D
  8
LAYER_1
 10
-31.53749827295542
 20
49.06829344073189
 30
0.0
  0
VERTEX
  5
D5E
  8
LAYER_1
 10
-30.7874982431531
 20
49.28968758309006
 30
0.0
  0
VERTEX
  5
D5F
  8
LAYER_1
 10
-30.48749823123217
 20
49.36657325662975
 30
0.0
  0
VERTEX
  5
D60
  8
LAYER_1
 10
-29.24999818205833
 20
49.74160289552663
 30
0.0
  0
VERTEX
  5
D61
  8
LAYER_1
 10
-28.25342237305928
 20
50.04696889945848
 30
0.0
  0
VERTEX
  5
D62
  8
LAYER_1
 10
-27.39431180095924
 20
50.31823666234074
 30
0.0
  0
VERTEX
  5
D63
  8
LAYER_1
 10
-26.65030592715868
 20
50.56347597955975
 30
0.0
  0
VERTEX
  5
D64
  8
LAYER_1
 10
-25.99904421305806
 20
50.79075664650188
 30
0.0
  0
VERTEX
  5
D65
  8
LAYER_1
 10
-25.41816612005787
 20
51.00814845855349
 30
0.0
  0
VERTEX
  5
D66
  8
LAYER_1
 10
-24.88531110955855
 20
51.22372121110091
 30
0.0
  0
VERTEX
  5
D67
  8
LAYER_1
 10
-24.37811864296058
 20
51.44554469953052
 30
0.0
  0
VERTEX
  5
D68
  8
LAYER_1
 10
-23.87422818166444
 20
51.68168871922866
 30
0.0
  0
VERTEX
  5
D69
  8
LAYER_1
 10
-22.8109583526339
 20
52.19485692794905
 30
0.0
  0
VERTEX
  5
D6A
  8
LAYER_1
 10
-22.38644091176408
 20
52.46641745297002
 30
0.0
  0
VERTEX
  5
D6B
  8
LAYER_1
 10
-22.18202729532308
 20
52.61225421719072
 30
0.0
  0
VERTEX
  5
D6C
  8
LAYER_1
 10
-22.09498929345675
 20
52.68686017466785
 30
0.0
  0
VERTEX
  5
D6D
  8
LAYER_1
 10
-22.01802484279325
 20
52.76269143540807
 30
0.0
  0
VERTEX
  5
D6E
  8
LAYER_1
 10
-21.95110470355766
 20
52.83982318917528
 30
0.0
  0
VERTEX
  5
D6F
  8
LAYER_1
 10
-21.89419963597503
 20
52.91833062573342
 30
0.0
  0
VERTEX
  5
D70
  8
LAYER_1
 10
-21.84728040027041
 20
52.99828893484641
 30
0.0
  0
VERTEX
  5
D71
  8
LAYER_1
 10
-21.81031775666886
 20
53.07977330627818
 30
0.0
  0
VERTEX
  5
D72
  8
LAYER_1
 10
-21.78328246539543
 20
53.16285892979266
 30
0.0
  0
VERTEX
  5
D73
  8
LAYER_1
 10
-21.76614528667519
 20
53.24762099515375
 30
0.0
  0
VERTEX
  5
D74
  8
LAYER_1
 10
-21.75887698073318
 20
53.33413469212539
 30
0.0
  0
VERTEX
  5
D75
  8
LAYER_1
 10
-21.76144830779445
 20
53.4224752104715
 30
0.0
  0
VERTEX
  5
D76
  8
LAYER_1
 10
-21.77383002808408
 20
53.512717739956
 30
0.0
  0
VERTEX
  5
D77
  8
LAYER_1
 10
-21.7959929018271
 20
53.60493747034283
 30
0.0
  0
VERTEX
  5
D78
  8
LAYER_1
 10
-21.82790768924858
 20
53.6992095913959
 30
0.0
  0
VERTEX
  5
D79
  8
LAYER_1
 10
-21.86954515057358
 20
53.79560929287913
 30
0.0
  0
VERTEX
  5
D7A
  8
LAYER_1
 10
-21.93842823555193
 20
53.90584189519124
 30
0.0
  0
VERTEX
  5
D7B
  8
LAYER_1
 10
-22.0400994009532
 20
54.02329414144803
 30
0.0
  0
VERTEX
  5
D7C
  8
LAYER_1
 10
-22.16694832263428
 20
54.14235068875713
 30
0.0
  0
VERTEX
  5
D7D
  8
LAYER_1
 10
-22.3113646764521
 20
54.25739619422616
 30
0.0
  0
VERTEX
  5
D7E
  8
LAYER_1
 10
-22.46573813826355
 20
54.36281531496272
 30
0.0
  0
VERTEX
  5
D7F
  8
LAYER_1
 10
-22.62245838392553
 20
54.45299270807443
 30
0.0
  0
VERTEX
  5
D80
  8
LAYER_1
 10
-22.77391508929495
 20
54.52231303066891
 30
0.0
  0
VERTEX
  5
D81
  8
LAYER_1
 10
-22.91249793022871
 20
54.56516093985377
 30
0.0
  0
VERTEX
  5
D82
  8
LAYER_1
 10
-23.16047018740647
 20
54.62379592709647
 30
0.0
  0
VERTEX
  5
D83
  8
LAYER_1
 10
-23.42496740466917
 20
54.69782911127925
 30
0.0
  0
VERTEX
  5
D84
  8
LAYER_1
 10
-23.71317280459098
 20
54.78990370073608
 30
0.0
  0
VERTEX
  5
D85
  8
LAYER_1
 10
-24.03226960974609
 20
54.9026629038009
 30
0.0
  0
VERTEX
  5
D86
  8
LAYER_1
 10
-24.38944104270867
 20
55.03874992880768
 30
0.0
  0
VERTEX
  5
D87
  8
LAYER_1
 10
-24.7918703260529
 20
55.20080798409037
 30
0.0
  0
VERTEX
  5
D88
  8
LAYER_1
 10
-25.76123533418303
 20
55.61341001881931
 30
0.0
  0
VERTEX
  5
D89
  8
LAYER_1
 10
-26.70591786549854
 20
56.02542605130279
 30
0.0
  0
VERTEX
  5
D8A
  8
LAYER_1
 10
-26.88571009047875
 20
56.14323044164229
 30
0.0
  0
VERTEX
  5
D8B
  8
LAYER_1
 10
-26.95948635662089
 20
56.2077699239391
 30
0.0
  0
VERTEX
  5
D8C
  8
LAYER_1
 10
-27.02745404168527
 20
56.29641138273022
 30
0.0
  0
VERTEX
  5
D8D
  8
LAYER_1
 10
-27.08206435404187
 20
56.39747226891176
 30
0.0
  0
VERTEX
  5
D8E
  8
LAYER_1
 10
-27.11576850206065
 20
56.49927003337984
 30
0.0
  0
VERTEX
  5
D8F
  8
LAYER_1
 10
-27.16603468866235
 20
56.73750523477793
 30
0.0
  0
VERTEX
  5
D90
  8
LAYER_1
 10
-28.18184676486639
 20
59.81250535696745
 30
0.0
  0
VERTEX
  5
D91
  8
LAYER_1
 10
-28.55757700043372
 20
60.75000539422035
 30
0.0
  0
VERTEX
  5
D92
  8
LAYER_1
 10
-28.84439699058958
 20
61.44673589181539
 30
0.0
  0
VERTEX
  5
D93
  8
LAYER_1
 10
-29.11955305669931
 20
62.07205977741914
 30
0.0
  0
VERTEX
  5
D94
  8
LAYER_1
 10
-29.39288202935504
 20
62.64384386061715
 30
0.0
  0
VERTEX
  5
D95
  8
LAYER_1
 10
-29.67422073914889
 20
63.17995495099493
 30
0.0
  0
VERTEX
  5
D96
  8
LAYER_1
 10
-29.973406016673
 20
63.69825985813802
 30
0.0
  0
VERTEX
  5
D97
  8
LAYER_1
 10
-30.30027469251949
 20
64.21662539163196
 30
0.0
  0
VERTEX
  5
D98
  8
LAYER_1
 10
-30.66466359728051
 20
64.75291836106229
 30
0.0
  0
VERTEX
  5
D99
  8
LAYER_1
 10
-31.07640956154817
 20
65.32500557601452
 30
0.0
  0
VERTEX
  5
D9A
  8
LAYER_1
 10
-31.6009191475306
 20
66.03750560432673
 30
0.0
  0
VERTEX
  5
D9B
  8
LAYER_1
 10
-33.71249835938215
 20
68.14917415099828
 30
0.0
  0
VERTEX
  5
D9C
  8
LAYER_1
 10
-34.23749838024378
 20
68.55798374451021
 30
0.0
  0
VERTEX
  5
D9D
  8
LAYER_1
 10
-34.70733756113012
 20
68.91300888891132
 30
0.0
  0
VERTEX
  5
D9E
  8
LAYER_1
 10
-35.17454702614899
 20
69.243589691919
 30
0.0
  0
VERTEX
  5
D9F
  8
LAYER_1
 10
-35.64189667106233
 20
69.55078270391382
 30
0.0
  0
VERTEX
  5
DA0
  8
LAYER_1
 10
-36.11215639163211
 20
69.83564447527647
 30
0.0
  0
VERTEX
  5
DA1
  8
LAYER_1
 10
-36.58809608362029
 20
70.09923155638752
 30
0.0
  0
VERTEX
  5
DA2
  8
LAYER_1
 10
-37.07248564278884
 20
70.34260049762763
 30
0.0
  0
VERTEX
  5
DA3
  8
LAYER_1
 10
-37.56809496489971
 20
70.56680784937741
 30
0.0
  0
VERTEX
  5
DA4
  8
LAYER_1
 10
-38.07769394571486
 20
70.7729101620175
 30
0.0
  0
VERTEX
  5
DA5
  8
LAYER_1
 10
-38.60405248099625
 20
70.96196398592852
 30
0.0
  0
VERTEX
  5
DA6
  8
LAYER_1
 10
-39.14994046650584
 20
71.13502587149111
 30
0.0
  0
VERTEX
  5
DA7
  8
LAYER_1
 10
-39.7181277980056
 20
71.29315236908589
 30
0.0
  0
VERTEX
  5
DA8
  8
LAYER_1
 10
-40.31138437125747
 20
71.43740002909347
 30
0.0
  0
VERTEX
  5
DA9
  8
LAYER_1
 10
-40.93248008202342
 20
71.56882540189449
 30
0.0
  0
VERTEX
  5
DAA
  8
LAYER_1
 10
-41.58418482606541
 20
71.68848503786958
 30
0.0
  0
VERTEX
  5
DAB
  8
LAYER_1
 10
-42.2692684991454
 20
71.79743548739935
 30
0.0
  0
VERTEX
  5
DAC
  8
LAYER_1
 10
-42.99050099702534
 20
71.89673330086447
 30
0.0
  0
VERTEX
  5
DAD
  8
LAYER_1
 10
-43.91249876469374
 20
72.01484145048354
 30
0.0
  0
VERTEX
  5
DAE
  8
LAYER_1
 10
-45.9645157605903
 20
72.05362573998815
 30
0.0
  0
VERTEX
  5
DAF
  8
LAYER_1
 10
-47.01877336399333
 20
72.06151610821382
 30
0.0
  0
VERTEX
  5
DB0
  8
LAYER_1
 10
-48.02803907916937
 20
72.04346492774584
 30
0.0
  0
VERTEX
  5
DB1
  8
LAYER_1
 10
-49.00605064970183
 20
71.99820218728189
 30
0.0
  0
VERTEX
  5
DB2
  8
LAYER_1
 10
-49.96654581917409
 20
71.92445787551964
 30
0.0
  0
VERTEX
  5
DB3
  8
LAYER_1
 10
-50.92326233116953
 20
71.82096198115676
 30
0.0
  0
VERTEX
  5
DB4
  8
LAYER_1
 10
-51.88993792927156
 20
71.68644449289091
 30
0.0
  0
VERTEX
  5
DB5
  8
LAYER_1
 10
-52.88031035706356
 20
71.5196353994198
 30
0.0
  0
VERTEX
  5
DB6
  8
LAYER_1
 10
-53.90811735812892
 20
71.31926468944107
 30
0.0
  0
VERTEX
  5
DB7
  8
LAYER_1
 10
-55.01249920576811
 20
71.09066140479501
 30
0.0
  0
VERTEX
  5
DB8
  8
LAYER_1
 10
-56.13749925047159
 20
70.78288941508163
 30
0.0
  0
VERTEX
  5
DB9
  8
LAYER_1
 10
-57.22499929368496
 20
70.44692949691404
 30
0.0
  0
VERTEX
  5
DBA
  8
LAYER_1
 10
-57.699036294217
 20
70.29459338425688
 30
0.0
  0
VERTEX
  5
DBB
  8
LAYER_1
 10
-58.17363314574458
 20
70.13048814969153
 30
0.0
  0
VERTEX
  5
DBC
  8
LAYER_1
 10
-58.64733111311564
 20
69.95534769523937
 30
0.0
  0
VERTEX
  5
DBD
  8
LAYER_1
 10
-59.1186714611781
 20
69.76990592292181
 30
0.0
  0
VERTEX
  5
DBE
  8
LAYER_1
 10
-59.58619545477987
 20
69.57489673476023
 30
0.0
  0
VERTEX
  5
DBF
  8
LAYER_1
 10
-60.0484443587689
 20
69.37105403277602
 30
0.0
  0
VERTEX
  5
DC0
  8
LAYER_1
 10
-60.5039594379931
 20
69.1591117189906
 30
0.0
  0
VERTEX
  5
DC1
  8
LAYER_1
 10
-60.95128195730038
 20
68.93980369542538
 30
0.0
  0
VERTEX
  5
DC2
  8
LAYER_1
 10
-61.3889531815387
 20
68.71386386410174
 30
0.0
  0
VERTEX
  5
DC3
  8
LAYER_1
 10
-61.81551437555594
 20
68.48202612704105
 30
0.0
  0
VERTEX
  5
DC4
  8
LAYER_1
 10
-62.22950680420006
 20
68.24502438626476
 30
0.0
  0
VERTEX
  5
DC5
  8
LAYER_1
 10
-62.62947173231898
 20
68.00359254379423
 30
0.0
  0
VERTEX
  5
DC6
  8
LAYER_1
 10
-63.01395042476059
 20
67.75846450165086
 30
0.0
  0
VERTEX
  5
DC7
  8
LAYER_1
 10
-63.38148414637287
 20
67.51037416185608
 30
0.0
  0
VERTEX
  5
DC8
  8
LAYER_1
 10
-63.73061416200371
 20
67.26005542643125
 30
0.0
  0
VERTEX
  5
DC9
  8
LAYER_1
 10
-64.05988173650104
 20
67.0082421973978
 30
0.0
  0
VERTEX
  5
DCA
  8
LAYER_1
 10
-64.4049193331723
 20
66.72266345103432
 30
0.0
  0
VERTEX
  5
DCB
  8
LAYER_1
 10
-64.76995025586874
 20
66.39775684455952
 30
0.0
  0
VERTEX
  5
DCC
  8
LAYER_1
 10
-65.14464415002195
 20
66.04405714256009
 30
0.0
  0
VERTEX
  5
DCD
  8
LAYER_1
 10
-65.51867066106354
 20
65.67209910962265
 30
0.0
  0
VERTEX
  5
DCE
  8
LAYER_1
 10
-65.88169943442517
 20
65.2924175103339
 30
0.0
  0
VERTEX
  5
DCF
  8
LAYER_1
 10
-66.22340011553844
 20
64.91554710928051
 30
0.0
  0
VERTEX
  5
DD0
  8
LAYER_1
 10
-66.53344234983496
 20
64.55202267104912
 30
0.0
  0
VERTEX
  5
DD1
  8
LAYER_1
 10
-66.80149578274634
 20
64.21237896022643
 30
0.0
  0
VERTEX
  5
DD2
  8
LAYER_1
 10
-67.40256484797901
 20
63.4125055000186
 30
0.0
  0
VERTEX
  5
DD3
  8
LAYER_1
 10
-67.89588760728067
 20
62.66250547021627
 30
0.0
  0
VERTEX
  5
DD4
  8
LAYER_1
 10
-68.36310244764807
 20
61.75796198482865
 30
0.0
  0
VERTEX
  5
DD5
  8
LAYER_1
 10
-68.70324877042663
 20
61.06973337202425
 30
0.0
  0
VERTEX
  5
DD6
  8
LAYER_1
 10
-68.85949638050303
 20
60.72946117674211
 30
0.0
  0
VERTEX
  5
DD7
  8
LAYER_1
 10
-69.00703071674083
 20
60.39019366034559
 30
0.0
  0
VERTEX
  5
DD8
  8
LAYER_1
 10
-69.14622959941752
 20
60.05076327643883
 30
0.0
  0
VERTEX
  5
DD9
  8
LAYER_1
 10
-69.2774708488106
 20
59.71000247862601
 30
0.0
  0
VERTEX
  5
DDA
  8
LAYER_1
 10
-69.40113228519753
 20
59.36674372051129
 30
0.0
  0
VERTEX
  5
DDB
  8
LAYER_1
 10
-69.5175917288558
 20
59.01981945569885
 30
0.0
  0
VERTEX
  5
DDC
  8
LAYER_1
 10
-69.62722700006292
 20
58.66806213779284
 30
0.0
  0
VERTEX
  5
DDD
  8
LAYER_1
 10
-69.73041591909637
 20
58.31030422039744
 30
0.0
  0
VERTEX
  5
DDE
  8
LAYER_1
 10
-69.82753630623364
 20
57.94537815711681
 30
0.0
  0
VERTEX
  5
DDF
  8
LAYER_1
 10
-69.91896598175221
 20
57.57211640155511
 30
0.0
  0
VERTEX
  5
DE0
  8
LAYER_1
 10
-70.0862644790432
 20
56.79591562800519
 30
0.0
  0
VERTEX
  5
DE1
  8
LAYER_1
 10
-70.23533397318924
 20
55.97236152858102
 30
0.0
  0
VERTEX
  5
DE2
  8
LAYER_1
 10
-70.34571006305833
 20
55.23651193782011
 30
0.0
  0
VERTEX
  5
DE3
  8
LAYER_1
 10
-70.43461107130351
 20
54.48972860633769
 30
0.0
  0
VERTEX
  5
DE4
  8
LAYER_1
 10
-70.5020065720809
 20
53.7315206026133
 30
0.0
  0
VERTEX
  5
DE5
  8
LAYER_1
 10
-70.54786613954664
 20
52.96139699512648
 30
0.0
  0
VERTEX
  5
DE6
  8
LAYER_1
 10
-70.57215934785683
 20
52.17886685235678
 30
0.0
  0
VERTEX
  5
DE7
  8
LAYER_1
 10
-70.57485577116758
 20
51.38343924278374
 30
0.0
  0
VERTEX
  5
DE8
  8
LAYER_1
 10
-70.55592498363504
 20
50.5746232348869
 30
0.0
  0
VERTEX
  5
DE9
  8
LAYER_1
 10
-70.51533655941529
 20
49.7519278971458
 30
0.0
  0
VERTEX
  5
DEA
  8
LAYER_1
 10
-70.45306007266447
 20
48.91486229804001
 30
0.0
  0
VERTEX
  5
DEB
  8
LAYER_1
 10
-70.36906509753871
 20
48.06293550604903
 30
0.0
  0
VERTEX
  5
DEC
  8
LAYER_1
 10
-70.26332120819413
 20
47.19565658965244
 30
0.0
  0
VERTEX
  5
DED
  8
LAYER_1
 10
-70.13579797878683
 20
46.31253461732976
 30
0.0
  0
VERTEX
  5
DEE
  8
LAYER_1
 10
-69.98646498347293
 20
45.41307865756055
 30
0.0
  0
VERTEX
  5
DEF
  8
LAYER_1
 10
-69.81529179640856
 20
44.49679777882434
 30
0.0
  0
VERTEX
  5
DF0
  8
LAYER_1
 10
-69.62224799174983
 20
43.56320104960069
 30
0.0
  0
VERTEX
  5
DF1
  8
LAYER_1
 10
-69.40730314365287
 20
42.61179753836913
 30
0.0
  0
VERTEX
  5
DF2
  8
LAYER_1
 10
-69.3394152870067
 20
42.32679922999218
 30
0.0
  0
VERTEX
  5
DF3
  8
LAYER_1
 10
-69.29326279934686
 20
42.10505527708891
 30
0.0
  0
VERTEX
  5
DF4
  8
LAYER_1
 10
-69.27339114917794
 20
41.91124552876715
 30
0.0
  0
VERTEX
  5
DF5
  8
LAYER_1
 10
-69.27473109706023
 20
41.81377843417056
 30
0.0
  0
VERTEX
  5
DF6
  8
LAYER_1
 10
-69.28434580500445
 20
41.71004983413481
 30
0.0
  0
VERTEX
  5
DF7
  8
LAYER_1
 10
-69.33067223533098
 20
41.46614804229969
 30
0.0
  0
VERTEX
  5
DF8
  8
LAYER_1
 10
-69.41691590866203
 20
41.1442200023697
 30
0.0
  0
VERTEX
  5
DF9
  8
LAYER_1
 10
-69.72733685835598
 20
40.12500457465649
 30
0.0
  0
VERTEX
  5
DFA
  8
LAYER_1
 10
-69.85864185037912
 20
39.67445617231857
 30
0.0
  0
VERTEX
  5
DFB
  8
LAYER_1
 10
-69.93359415692564
 20
39.34566898503454
 30
0.0
  0
VERTEX
  5
DFC
  8
LAYER_1
 10
-69.95296637623147
 20
39.20959130479
 30
0.0
  0
VERTEX
  5
DFD
  8
LAYER_1
 10
-69.96188441187171
 20
39.08314047761168
 30
0.0
  0
VERTEX
  5
DFE
  8
LAYER_1
 10
-69.95320324909348
 20
38.83136811485733
 30
0.0
  0
VERTEX
  5
DFF
  8
LAYER_1
 10
-69.93363965733369
 20
38.68227470977714
 30
0.0
  0
VERTEX
  5
E00
  8
LAYER_1
 10
-69.90171161717859
 20
38.52730274282983
 30
0.0
  0
VERTEX
  5
E01
  8
LAYER_1
 10
-69.85803889581699
 20
38.36751838939869
 30
0.0
  0
VERTEX
  5
E02
  8
LAYER_1
 10
-69.8032412604376
 20
38.20398782486698
 30
0.0
  0
VERTEX
  5
E03
  8
LAYER_1
 10
-69.73793847822917
 20
38.03777722461797
 30
0.0
  0
VERTEX
  5
E04
  8
LAYER_1
 10
-69.66275031638042
 20
37.86995276403496
 30
0.0
  0
VERTEX
  5
E05
  8
LAYER_1
 10
-69.57829654208015
 20
37.7015806185012
 30
0.0
  0
VERTEX
  5
E06
  8
LAYER_1
 10
-69.48519692251708
 20
37.53372696339999
 30
0.0
  0
VERTEX
  5
E07
  8
LAYER_1
 10
-69.38407122487993
 20
37.36745797411459
 30
0.0
  0
VERTEX
  5
E08
  8
LAYER_1
 10
-69.27553921635749
 20
37.20383982602827
 30
0.0
  0
VERTEX
  5
E09
  8
LAYER_1
 10
-69.16022066413846
 20
37.04393869452433
 30
0.0
  0
VERTEX
  5
E0A
  8
LAYER_1
 10
-69.03873533541163
 20
36.88882075498603
 30
0.0
  0
VERTEX
  5
E0B
  8
LAYER_1
 10
-68.91170299736572
 20
36.73955218279664
 30
0.0
  0
VERTEX
  5
E0C
  8
LAYER_1
 10
-68.7797434171895
 20
36.59719915333945
 30
0.0
  0
VERTEX
  5
E0D
  8
LAYER_1
 10
-68.64347636207168
 20
36.46282784199774
 30
0.0
  0
VERTEX
  5
E0E
  8
LAYER_1
 10
-68.50352159920104
 20
36.33750442415476
 30
0.0
  0
VERTEX
  5
E0F
  8
LAYER_1
 10
-68.31537558369719
 20
36.18641775431349
 30
0.0
  0
VERTEX
  5
E10
  8
LAYER_1
 10
-68.1093786159374
 20
36.03763811807637
 30
0.0
  0
VERTEX
  5
E11
  8
LAYER_1
 10
-67.88699397344186
 20
35.89177342191052
 30
0.0
  0
VERTEX
  5
E12
  8
LAYER_1
 10
-67.64968493373075
 20
35.74943157228306
 30
0.0
  0
VERTEX
  5
E13
  8
LAYER_1
 10
-67.3989147743242
 20
35.61122047566111
 30
0.0
  0
VERTEX
  5
E14
  8
LAYER_1
 10
-67.1361467727424
 20
35.47774803851178
 30
0.0
  0
VERTEX
  5
E15
  8
LAYER_1
 10
-66.86284420650554
 20
35.34962216730219
 30
0.0
  0
VERTEX
  5
E16
  8
LAYER_1
 10
-66.58047035313373
 20
35.22745076849947
 30
0.0
  0
VERTEX
  5
E17
  8
LAYER_1
 10
-66.29048849014718
 20
35.11184174857071
 30
0.0
  0
VERTEX
  5
E18
  8
LAYER_1
 10
-65.99436189506605
 20
35.00340301398305
 30
0.0
  0
VERTEX
  5
E19
  8
LAYER_1
 10
-65.6935538454105
 20
34.9027424712036
 30
0.0
  0
VERTEX
  5
E1A
  8
LAYER_1
 10
-65.38952761870071
 20
34.81046802669948
 30
0.0
  0
VERTEX
  5
E1B
  8
LAYER_1
 10
-65.08374649245684
 20
34.7271875869378
 30
0.0
  0
VERTEX
  5
E1C
  8
LAYER_1
 10
-64.77767374419906
 20
34.65350905838569
 30
0.0
  0
VERTEX
  5
E1D
  8
LAYER_1
 10
-64.47277265144754
 20
34.59004034751027
 30
0.0
  0
SEQEND
  5
E76
  8
LAYER_1
  0
POLYLINE
  5
82
  8
LAYER_1
 66
     1
 10
0.0
 20
0.0
 30
0.0
 70
     1
  0
VERTEX
  5
E1E
  8
LAYER_1
 10
-18.033120685937
 20
43.12188174414436
 30
0.0
  0
VERTEX
  5
E1F
  8
LAYER_1
 10
-17.94155920750001
 20
43.21344322258135
 30
0.0
  0
VERTEX
  5
E20
  8
LAYER_1
 10
-17.8768939133539
 20
43.29524881671202
 30
0.0
  0
VERTEX
  5
E21
  8
LAYER_1
 10
-17.85722250197095
 20
43.33347369111014
 30
0.0
  0
VERTEX
  5
E22
  8
LAYER_1
 10
-17.84999772906303
 20
43.36335465841252
 30
0.0
  0
VERTEX
  5
E23
  8
LAYER_1
 10
-17.84999772906303
 20
43.4217046158067
 30
0.0
  0
VERTEX
  5
E24
  8
LAYER_1
 10
-19.57662411437666
 20
45.66763831616373
 30
0.0
  0
VERTEX
  5
E25
  8
LAYER_1
 10
-19.74249893087151
 20
45.78382156014905
 30
0.0
  0
VERTEX
  5
E26
  8
LAYER_1
 10
-19.82114616586487
 20
45.83273949374307
 30
0.0
  0
VERTEX
  5
E27
  8
LAYER_1
 10
-19.89643193201359
 20
45.86757949887917
 30
0.0
  0
VERTEX
  5
E28
  8
LAYER_1
 10
-19.96705119323088
 20
45.88834849890063
 30
0.0
  0
VERTEX
  5
E29
  8
LAYER_1
 10
-20.03169891342994
 20
45.8950534171507
 30
0.0
  0
VERTEX
  5
E2A
  8
LAYER_1
 10
-20.08907005652395
 20
45.88770117697267
 30
0.0
  0
VERTEX
  5
E2B
  8
LAYER_1
 10
-20.13785958642611
 20
45.86629870170979
 30
0.0
  0
VERTEX
  5
E2C
  8
LAYER_1
 10
-20.17676246704962
 20
45.83085291470535
 30
0.0
  0
VERTEX
  5
E2D
  8
LAYER_1
 10
-20.20447366230768
 20
45.7813707393026
 30
0.0
  0
VERTEX
  5
E2E
  8
LAYER_1
 10
-20.22214984088192
 20
45.69555444070735
 30
0.0
  0
VERTEX
  5
E2F
  8
LAYER_1
 10
-20.2366251018069
 20
45.54959437884406
 30
0.0
  0
VERTEX
  5
E30
  8
LAYER_1
 10
-20.24999782443047
 20
45.15893734793089
 30
0.0
  0
VERTEX
  5
E31
  8
LAYER_1
 10
-20.24999782443047
 20
44.65513802139095
 30
0.0
  0
VERTEX
  5
E32
  8
LAYER_1
 10
-20.51074340828154
 20
44.56085119496498
 30
0.0
  0
VERTEX
  5
E33
  8
LAYER_1
 10
-20.64420376044168
 20
44.50121329417189
 30
0.0
  0
VERTEX
  5
E34
  8
LAYER_1
 10
-20.69454713236238
 20
44.46671267096262
 30
0.0
  0
VERTEX
  5
E35
  8
LAYER_1
 10
-20.73629251263903
 20
44.42640634573777
 30
0.0
  0
VERTEX
  5
E36
  8
LAYER_1
 10
-20.77118480961829
 20
44.37828087839204
 30
0.0
  0
VERTEX
  5
E37
  8
LAYER_1
 10
-20.8009689316468
 20
44.32032282882008
 30
0.0
  0
VERTEX
  5
E38
  8
LAYER_1
 10
-20.85219228423817
 20
44.16685522257622
 30
0.0
  0
VERTEX
  5
E39
  8
LAYER_1
 10
-20.8817367771945
 20
44.02268347625042
 30
0.0
  0
VERTEX
  5
E3A
  8
LAYER_1
 10
-20.90252119319609
 20
43.85169143536778
 30
0.0
  0
VERTEX
  5
E3B
  8
LAYER_1
 10
-20.91264226192245
 20
43.67527382894147
 30
0.0
  0
VERTEX
  5
E3C
  8
LAYER_1
 10
-20.91019671305308
 20
43.51482538598465
 30
0.0
  0
VERTEX
  5
E3D
  8
LAYER_1
 10
-20.88749784976244
 20
43.16250469535589
 30
0.0
  0
SEQEND
  5
E77
  8
LAYER_1
  0
POLYLINE
  5
83
  8
LAYER_1
 66
     1
 10
0.0
 20
0.0
 30
0.0
 70
     1
  0
VERTEX
  5
E3E
  8
LAYER_1
 10
22.08750385791063
 20
44.05565962767912
 30
0.0
  0
VERTEX
  5
E3F
  8
LAYER_1
 10
31.63434716402109
 20
44.13750473409891
 30
0.0
  0
VERTEX
  5
E40
  8
LAYER_1
 10
31.78543046211288
 20
44.27427444428427
 30
0.0
  0
VERTEX
  5
E41
  8
LAYER_1
 10
31.86027418163486
 20
44.35273047702881
 30
0.0
  0
VERTEX
  5
E42
  8
LAYER_1
 10
31.91797821026884
 20
44.4370150314836
 30
0.0
  0
VERTEX
  5
E43
  8
LAYER_1
 10
31.95852648558173
 20
44.52702121523241
 30
0.0
  0
VERTEX
  5
E44
  8
LAYER_1
 10
31.98190294514044
 20
44.62264213585897
 30
0.0
  0
VERTEX
  5
E45
  8
LAYER_1
 10
31.98809152651189
 20
44.72377090094703
 30
0.0
  0
VERTEX
  5
E46
  8
LAYER_1
 10
31.97707616726298
 20
44.83030061808034
 30
0.0
  0
VERTEX
  5
E47
  8
LAYER_1
 10
31.94884080496064
 20
44.94212439484266
 30
0.0
  0
VERTEX
  5
E48
  8
LAYER_1
 10
31.90336937717177
 20
45.05913533881773
 30
0.0
  0
VERTEX
  5
E49
  8
LAYER_1
 10
31.62283844061855
 20
45.66690756437627
 30
0.0
  0
VERTEX
  5
E4A
  8
LAYER_1
 10
31.42573110899244
 20
46.05688953413848
 30
0.0
  0
VERTEX
  5
E4B
  8
LAYER_1
 10
31.34819786852309
 20
46.18877414828056
 30
0.0
  0
VERTEX
  5
E4C
  8
LAYER_1
 10
31.27920441748076
 20
46.28848916869507
 30
0.0
  0
VERTEX
  5
E4D
  8
LAYER_1
 10
31.21464538526389
 20
46.36346058545587
 30
0.0
  0
VERTEX
  5
E4E
  8
LAYER_1
 10
31.15041540127086
 20
46.42111438863679
 30
0.0
  0
VERTEX
  5
E4F
  8
LAYER_1
 10
30.95477540649416
 20
46.57500483095646
 30
0.0
  0
VERTEX
  5
E50
  8
LAYER_1
 10
18.93750373274088
 20
46.57166945398559
 30
0.0
  0
VERTEX
  5
E51
  8
LAYER_1
 10
18.77685078785282
 20
46.44208713725561
 30
0.0
  0
VERTEX
  5
E52
  8
LAYER_1
 10
18.67964017572564
 20
46.35097528008163
 30
0.0
  0
VERTEX
  5
E53
  8
LAYER_1
 10
18.59416863148033
 20
46.24435492574368
 30
0.0
  0
VERTEX
  5
E54
  8
LAYER_1
 10
18.52079499884595
 20
46.1231556761867
 30
0.0
  0
VERTEX
  5
E55
  8
LAYER_1
 10
18.45987812155157
 20
45.98830713335563
 30
0.0
  0
VERTEX
  5
E56
  8
LAYER_1
 10
18.41177684332624
 20
45.84073889919544
 30
0.0
  0
VERTEX
  5
E57
  8
LAYER_1
 10
18.37685000789905
 20
45.68138057565108
 30
0.0
  0
VERTEX
  5
E58
  8
LAYER_1
 10
18.35545645899905
 20
45.51116176466747
 30
0.0
  0
VERTEX
  5
E59
  8
LAYER_1
 10
18.3479550403553
 20
45.33101206818959
 30
0.0
  0
VERTEX
  5
E5A
  8
LAYER_1
 10
18.35477824177179
 20
45.14696759367268
 30
0.0
  0
VERTEX
  5
E5B
  8
LAYER_1
 10
18.3765018784331
 20
44.97815737839036
 30
0.0
  0
VERTEX
  5
E5C
  8
LAYER_1
 10
18.41364855266166
 20
44.82342301146951
 30
0.0
  0
VERTEX
  5
E5D
  8
LAYER_1
 10
18.46674086677989
 20
44.68160608203701
 30
0.0
  0
VERTEX
  5
E5E
  8
LAYER_1
 10
18.53630142311025
 20
44.55154817921977
 30
0.0
  0
VERTEX
  5
E5F
  8
LAYER_1
 10
18.62285282397517
 20
44.43209089214469
 30
0.0
  0
VERTEX
  5
E60
  8
LAYER_1
 10
18.72691767169707
 20
44.32207580993865
 30
0.0
  0
VERTEX
  5
E61
  8
LAYER_1
 10
18.8490185685984
 20
44.22034452172856
 30
0.0
  0
VERTEX
  5
E62
  8
LAYER_1
 10
19.06053341637683
 20
44.06250473111868
 30
0.0
  0
SEQEND
  5
E78
  8
LAYER_1
  0
ENDSEC
  0
EOF
