  0
SECTION
  2
HEADER
  9
$ACADVER
  1
AC1009
  9
$DWGCODEPAGE
  3
ansi_1252
  9
$INSBASE
 10
0.0
 20
0.0
 30
0.0
  9
$EXTMIN
 10
-70.52445704250596
 20
-65.10253362014363
 30
0.0
  9
$EXTMAX
 10
71.3250058144331
 20
69.82719815769063
 30
0.0
  9
$LIMMIN
 10
0.0
 20
0.0
  9
$LIMMAX
 10
12.0
 20
9.0
  9
$ORTHOMODE
 70
     0
  9
$REGENMODE
 70
     1
  9
$FILLMODE
 70
     1
  9
$QTEXTMODE
 70
     0
  9
$MIRRTEXT
 70
     1
  9
$DRAGMODE
 70
     2
  9
$LTSCALE
 40
1.0
  9
$OSMODE
 70
    37
  9
$ATTMODE
 70
     1
  9
$TEXTSIZE
 40
0.2
  9
$TRACEWID
 40
0.05
  9
$TEXTSTYLE
  7
STANDARD
  9
$CLAYER
  8
0
  9
$CELTYPE
  6
BYLAYER
  9
$CECOLOR
 62
   256
  9
$DIMSCALE
 40
1.0
  9
$DIMASZ
 40
0.18
  9
$DIMEXO
 40
0.0625
  9
$DIMDLI
 40
0.38
  9
$DIMRND
 40
0.0
  9
$DIMDLE
 40
0.0
  9
$DIMEXE
 40
0.18
  9
$DIMTP
 40
0.0
  9
$DIMTM
 40
0.0
  9
$DIMTXT
 40
0.18
  9
$DIMCEN
 40
0.09
  9
$DIMTSZ
 40
0.0
  9
$DIMTOL
 70
     0
  9
$DIMLIM
 70
     0
  9
$DIMTIH
 70
     1
  9
$DIMTOH
 70
     1
  9
$DIMSE1
 70
     0
  9
$DIMSE2
 70
     0
  9
$DIMTAD
 70
     0
  9
$DIMZIN
 70
     0
  9
$DIMBLK
  1

  9
$DIMASO
 70
     1
  9
$DIMSHO
 70
     1
  9
$DIMPOST
  1

  9
$DIMAPOST
  1

  9
$DIMALT
 70
     0
  9
$DIMALTD
 70
     2
  9
$DIMALTF
 40
25.4
  9
$DIMLFAC
 40
1.0
  9
$DIMTOFL
 70
     0
  9
$DIMTVP
 40
0.0
  9
$DIMTIX
 70
     0
  9
$DIMSOXD
 70
     0
  9
$DIMSAH
 70
     0
  9
$DIMBLK1
  1

  9
$DIMBLK2
  1

  9
$DIMSTYLE
  2
STANDARD
  9
$DIMCLRD
 70
     0
  9
$DIMCLRE
 70
     0
  9
$DIMCLRT
 70
     0
  9
$DIMTFAC
 40
1.0
  9
$DIMGAP
 40
0.09
  9
$LUNITS
 70
     2
  9
$LUPREC
 70
     4
  9
$SKETCHINC
 40
0.1
  9
$FILLETRAD
 40
0.5
  9
$AUNITS
 70
     0
  9
$AUPREC
 70
     0
  9
$MENU
  1
.
  9
$ELEVATION
 40
0.0
  9
$PELEVATION
 40
0.0
  9
$THICKNESS
 40
0.0
  9
$LIMCHECK
 70
     0
  9
$CHAMFERA
 40
0.0
  9
$CHAMFERB
 40
0.0
  9
$SKPOLY
 70
     0
  9
$TDCREATE
 40
2454910.5
  9
$TDUPDATE
 40
2456995.591795717
  9
$TDINDWG
 40
0.0000000116
  9
$TDUSRTIMER
 40
0.0000000116
  9
$USRTIMER
 70
     1
  9
$ANGBASE
 50
0.0
  9
$ANGDIR
 70
     0
  9
$PDMODE
 70
     0
  9
$PDSIZE
 40
0.0
  9
$PLINEWID
 40
0.0
  9
$COORDS
 70
     1
  9
$SPLFRAME
 70
     0
  9
$SPLINETYPE
 70
     6
  9
$SPLINESEGS
 70
     8
  9
$ATTDIA
 70
     0
  9
$ATTREQ
 70
     1
  9
$HANDLING
 70
     1
  9
$HANDSEED
  5
E4A
  9
$SURFTAB1
 70
     6
  9
$SURFTAB2
 70
     6
  9
$SURFTYPE
 70
     6
  9
$SURFU
 70
     6
  9
$SURFV
 70
     6
  9
$UCSNAME
  2

  9
$UCSORG
 10
0.0
 20
0.0
 30
0.0
  9
$UCSXDIR
 10
1.0
 20
0.0
 30
0.0
  9
$UCSYDIR
 10
0.0
 20
1.0
 30
0.0
  9
$PUCSNAME
  2

  9
$PUCSORG
 10
0.0
 20
0.0
 30
0.0
  9
$PUCSXDIR
 10
1.0
 20
0.0
 30
0.0
  9
$PUCSYDIR
 10
0.0
 20
1.0
 30
0.0
  9
$USERI1
 70
     0
  9
$USERI2
 70
     0
  9
$USERI3
 70
     0
  9
$USERI4
 70
     0
  9
$USERI5
 70
     0
  9
$USERR1
 40
0.0
  9
$USERR2
 40
0.0
  9
$USERR3
 40
0.0
  9
$USERR4
 40
0.0
  9
$USERR5
 40
0.0
  9
$WORLDVIEW
 70
     1
  9
$SHADEDGE
 70
     3
  9
$SHADEDIF
 70
    70
  9
$TILEMODE
 70
     1
  9
$MAXACTVP
 70
    64
  9
$PLIMCHECK
 70
     0
  9
$PEXTMIN
 10
1.000000000000000E+20
 20
1.000000000000000E+20
 30
1.000000000000000E+20
  9
$PEXTMAX
 10
-1.000000000000000E+20
 20
-1.000000000000000E+20
 30
-1.000000000000000E+20
  9
$PLIMMIN
 10
0.0
 20
0.0
  9
$PLIMMAX
 10
12.0
 20
9.0
  9
$UNITMODE
 70
     0
  9
$VISRETAIN
 70
     1
  9
$PLINEGEN
 70
     0
  9
$PSLTSCALE
 70
     1
  0
ENDSEC
  0
SECTION
  2
TABLES
  0
TABLE
  2
VPORT
 70
     1
  0
VPORT
  2
*ACTIVE
 70
     0
 10
0.0
 20
0.0
 11
1.0
 21
1.0
 12
10.42990654205607
 22
4.5
 13
0.0
 23
0.0
 14
0.5
 24
0.5
 15
0.5
 25
0.5
 16
0.0
 26
0.0
 36
1.0
 17
0.0
 27
0.0
 37
0.0
 40
9.0
 41
1.972972972850329
 42
50.0
 43
0.0
 44
0.0
 50
0.0
 51
0.0
 71
     0
 72
   100
 73
     1
 74
     3
 75
     0
 76
     0
 77
     0
 78
     0
  0
ENDTAB
  0
TABLE
  2
LTYPE
 70
     2
  0
LTYPE
  2
CONTINUOUS
 70
     0
  3
Solid line
 72
    65
 73
     0
 40
0.0
  0
LTYPE
  2
CONTINUOUS2
 70
     0
  3
Solid Line
 72
    65
 73
     0
 40
0.0
  0
ENDTAB
  0
TABLE
  2
LAYER
 70
     2
  0
LAYER
  2
0
 70
     0
 62
     7
  6
CONTINUOUS
  0
LAYER
  2
LAYER_1
 70
     0
 62
    18
  6
CONTINUOUS
  0
ENDTAB
  0
TABLE
  2
STYLE
 70
     1
  0
STYLE
  2
STANDARD
 70
     0
 40
0.0
 41
1.0
 50
0.0
 71
     0
 42
0.2
  3
txt
  4

  0
ENDTAB
  0
TABLE
  2
VIEW
 70
     0
  0
ENDTAB
  0
TABLE
  2
UCS
 70
     0
  0
ENDTAB
  0
TABLE
  2
APPID
 70
     1
  0
APPID
  2
ACAD
 70
     0
  0
ENDTAB
  0
TABLE
  2
DIMSTYLE
 70
     1
  0
DIMSTYLE
  2
STANDARD
 70
     0
  3

  4

  5

  6

  7

 40
1.0
 41
0.18
 42
0.0625
 43
0.38
 44
0.18
 45
0.0
 46
0.0
 47
0.0
 48
0.0
140
0.18
141
0.09
142
0.0
143
25.4
144
1.0
145
0.0
146
1.0
147
0.09
 71
     0
 72
     0
 73
     1
 74
     1
 75
     0
 76
     0
 77
     0
 78
     0
170
     0
171
     2
172
     0
173
     0
174
     0
175
     0
176
     0
177
     0
178
     0
  0
ENDTAB
  0
ENDSEC
  0
SECTION
  2
BLOCKS
  0
BLOCK
  8
0
  2
$MODEL_SPACE
 70
     0
 10
0.0
 20
0.0
 30
0.0
  3
$MODEL_SPACE
  1

  0
ENDBLK
  5
21
  8
0
  0
BLOCK
 67
     1
  8
0
  2
$PAPER_SPACE
 70
     0
 10
0.0
 20
0.0
 30
0.0
  3
$PAPER_SPACE
  1

  0
ENDBLK
  5
1D
 67
     1
  8
0
  0
ENDSEC
  0
SECTION
  2
ENTITIES
  0
POLYLINE
  5
70
  8
LAYER_1
 66
     1
 10
0.0
 20
0.0
 30
0.0
 70
     1
  0
VERTEX
  5
8F
  8
LAYER_1
 10
-24.3715392581301
 20
-64.99166711709334
 30
0.0
  0
VERTEX
  5
90
  8
LAYER_1
 10
-24.28163127731685
 20
-65.09999960660934
 30
0.0
  0
VERTEX
  5
91
  8
LAYER_1
 10
-20.84013662976707
 20
-65.09999960660934
 30
0.0
  0
VERTEX
  5
92
  8
LAYER_1
 10
-20.67631723231418
 20
-65.0137718031746
 30
0.0
  0
VERTEX
  5
93
  8
LAYER_1
 10
-20.54960415742534
 20
-64.93810788987749
 30
0.0
  0
VERTEX
  5
94
  8
LAYER_1
 10
-20.47499783337116
 20
-64.87727837549706
 30
0.0
  0
VERTEX
  5
95
  8
LAYER_1
 10
-20.31632595206611
 20
-64.74514228225523
 30
0.0
  0
VERTEX
  5
96
  8
LAYER_1
 10
-19.98749781399965
 20
-64.49803914744032
 30
0.0
  0
VERTEX
  5
97
  8
LAYER_1
 10
-19.46249779313803
 20
-64.10502952043791
 30
0.0
  0
VERTEX
  5
98
  8
LAYER_1
 10
-19.38749779015779
 20
-64.04099349724943
 30
0.0
  0
VERTEX
  5
99
  8
LAYER_1
 10
-18.48749775439501
 20
-63.36286846740439
 30
0.0
  0
VERTEX
  5
9A
  8
LAYER_1
 10
-16.87499769032001
 20
-62.14446364652554
 30
0.0
  0
VERTEX
  5
9B
  8
LAYER_1
 10
-16.16249766200781
 20
-61.60418385549174
 30
0.0
  0
VERTEX
  5
9C
  8
LAYER_1
 10
-12.48749751597643
 20
-58.82631062525386
 30
0.0
  0
VERTEX
  5
9D
  8
LAYER_1
 10
-10.16249742358923
 20
-57.06816010564728
 30
0.0
  0
VERTEX
  5
9E
  8
LAYER_1
 10
-9.897908368700456
 20
-56.84967870466419
 30
0.0
  0
VERTEX
  5
9F
  8
LAYER_1
 10
-8.437497355043888
 20
-55.77544923963586
 30
0.0
  0
VERTEX
  5
A0
  8
LAYER_1
 10
-8.362497352063656
 20
-55.68505895151922
 30
0.0
  0
VERTEX
  5
A1
  8
LAYER_1
 10
-7.274997308850288
 20
-54.86647627196117
 30
0.0
  0
VERTEX
  5
A2
  8
LAYER_1
 10
-4.965710671428994
 20
-53.12649592946035
 30
0.0
  0
VERTEX
  5
A3
  8
LAYER_1
 10
-3.743924077221067
 20
-52.20509826651759
 30
0.0
  0
VERTEX
  5
A4
  8
LAYER_1
 10
-3.670630223162263
 20
-52.15980017354277
 30
0.0
  0
VERTEX
  5
A5
  8
LAYER_1
 10
-3.63912138286252
 20
-52.1543930339576
 30
0.0
  0
VERTEX
  5
A6
  8
LAYER_1
 10
-3.590479424957631
 20
-52.16788175952036
 30
0.0
  0
VERTEX
  5
A7
  8
LAYER_1
 10
-3.523122429747333
 20
-52.20131655733206
 30
0.0
  0
VERTEX
  5
A8
  8
LAYER_1
 10
-3.435468477531366
 20
-52.2557476344937
 30
0.0
  0
VERTEX
  5
A9
  8
LAYER_1
 10
-3.192942023281377
 20
-52.43179945527081
 30
0.0
  0
VERTEX
  5
AA
  8
LAYER_1
 10
-2.850244704605572
 20
-52.7044388786597
 30
0.0
  0
VERTEX
  5
AB
  8
LAYER_1
 10
-2.737497128546238
 20
-52.79637864691873
 30
0.0
  0
VERTEX
  5
AC
  8
LAYER_1
 10
-1.904587065838768
 20
-53.41693890697191
 30
0.0
  0
VERTEX
  5
AD
  8
LAYER_1
 10
-0.4795870092143559
 20
-54.48749918490648
 30
0.0
  0
VERTEX
  5
AE
  8
LAYER_1
 10
0.1125029847025871
 20
-54.93749920278788
 30
0.0
  0
VERTEX
  5
AF
  8
LAYER_1
 10
0.2116101314980341
 20
-55.03124920651317
 30
0.0
  0
VERTEX
  5
B0
  8
LAYER_1
 10
0.2979078994847058
 20
-55.09746014664415
 30
0.0
  0
VERTEX
  5
B1
  8
LAYER_1
 10
0.3368479549261045
 20
-55.11760174900701
 30
0.0
  0
VERTEX
  5
B2
  8
LAYER_1
 10
0.3662180291441928
 20
-55.12499921023846
 30
0.0
  0
VERTEX
  5
B3
  8
LAYER_1
 10
0.3992402765774468
 20
-55.13550565782639
 30
0.0
  0
VERTEX
  5
B4
  8
LAYER_1
 10
0.4481243680007321
 20
-55.16411232205098
 30
0.0
  0
VERTEX
  5
B5
  8
LAYER_1
 10
0.5671108942696748
 20
-55.2581502291747
 30
0.0
  0
VERTEX
  5
B6
  8
LAYER_1
 10
0.8129972056666119
 20
-55.46122754511468
 30
0.0
  0
VERTEX
  5
B7
  8
LAYER_1
 10
1.200003027915955
 20
-55.76249923557052
 30
0.0
  0
VERTEX
  5
B8
  8
LAYER_1
 10
1.58700885016539
 20
-56.06377092602634
 30
0.0
  0
VERTEX
  5
B9
  8
LAYER_1
 10
1.832895161562547
 20
-56.26684824196624
 30
0.0
  0
VERTEX
  5
BA
  8
LAYER_1
 10
1.951881687831621
 20
-56.36088614908991
 30
0.0
  0
VERTEX
  5
BB
  8
LAYER_1
 10
2.000765779254871
 20
-56.38949281331448
 30
0.0
  0
VERTEX
  5
BC
  8
LAYER_1
 10
2.033788026688015
 20
-56.3999992609024
 30
0.0
  0
VERTEX
  5
BD
  8
LAYER_1
 10
2.063158100905985
 20
-56.40739672213385
 30
0.0
  0
VERTEX
  5
BE
  8
LAYER_1
 10
2.10209815634729
 20
-56.42753832449671
 30
0.0
  0
VERTEX
  5
BF
  8
LAYER_1
 10
2.188395924333889
 20
-56.4937492646277
 30
0.0
  0
VERTEX
  5
C0
  8
LAYER_1
 10
2.390491073706059
 20
-56.65910083369818
 30
0.0
  0
VERTEX
  5
C1
  8
LAYER_1
 10
2.737207673505139
 20
-56.92499928176403
 30
0.0
  0
VERTEX
  5
C2
  8
LAYER_1
 10
3.262207694366765
 20
-57.32177797196292
 30
0.0
  0
VERTEX
  5
C3
  8
LAYER_1
 10
3.337503112852573
 20
-57.38105664875075
 30
0.0
  0
VERTEX
  5
C4
  8
LAYER_1
 10
5.33802812471167
 20
-58.91249936074018
 30
0.0
  0
VERTEX
  5
C5
  8
LAYER_1
 10
5.845729652579848
 20
-59.28749937564135
 30
0.0
  0
VERTEX
  5
C6
  8
LAYER_1
 10
6.945410694790368
 20
-60.1124994084239
 30
0.0
  0
VERTEX
  5
C7
  8
LAYER_1
 10
7.537390209132667
 20
-60.56249942630529
 30
0.0
  0
VERTEX
  5
C8
  8
LAYER_1
 10
7.687503285706043
 20
-60.68439359970747
 30
0.0
  0
VERTEX
  5
C9
  8
LAYER_1
 10
9.112503342330456
 20
-61.74557008695781
 30
0.0
  0
VERTEX
  5
CA
  8
LAYER_1
 10
9.309326150378126
 20
-61.90403478643388
 30
0.0
  0
VERTEX
  5
CB
  8
LAYER_1
 10
9.717032060771757
 20
-62.2124994918704
 30
0.0
  0
VERTEX
  5
CC
  8
LAYER_1
 10
10.50910320760225
 20
-62.81249951571226
 30
0.0
  0
VERTEX
  5
CD
  8
LAYER_1
 10
10.99941912882597
 20
-63.1853901555296
 30
0.0
  0
VERTEX
  5
CE
  8
LAYER_1
 10
11.36212738759835
 20
-63.44999954104424
 30
0.0
  0
VERTEX
  5
CF
  8
LAYER_1
 10
11.58033471000938
 20
-63.60526836580947
 30
0.0
  0
VERTEX
  5
D0
  8
LAYER_1
 10
11.72323348636436
 20
-63.71527638084635
 30
0.0
  0
VERTEX
  5
D1
  8
LAYER_1
 10
11.81250344961882
 20
-63.79305321319789
 30
0.0
  0
VERTEX
  5
D2
  8
LAYER_1
 10
13.51980848692662
 20
-65.10253362014363
 30
0.0
  0
VERTEX
  5
D3
  8
LAYER_1
 10
17.28551943936898
 20
-65.06249960511923
 30
0.0
  0
VERTEX
  5
D4
  8
LAYER_1
 10
17.30943974890154
 20
-64.9381096117783
 30
0.0
  0
VERTEX
  5
D5
  8
LAYER_1
 10
17.31593389926821
 20
-64.89309043081926
 30
0.0
  0
VERTEX
  5
D6
  8
LAYER_1
 10
17.31329975658029
 20
-64.85290986167864
 30
0.0
  0
VERTEX
  5
D7
  8
LAYER_1
 10
17.29674630124827
 20
-64.81228203349144
 30
0.0
  0
VERTEX
  5
D8
  8
LAYER_1
 10
17.26148251368267
 20
-64.76592107539265
 30
0.0
  0
VERTEX
  5
D9
  8
LAYER_1
 10
17.1156598634927
 20
-64.63485628600023
 30
0.0
  0
VERTEX
  5
DA
  8
LAYER_1
 10
16.83750364929438
 20
-64.41742852658129
 30
0.0
  0
VERTEX
  5
DB
  8
LAYER_1
 10
16.31250362843275
 20
-64.0083690789934
 30
0.0
  0
VERTEX
  5
DC
  8
LAYER_1
 10
16.08750361949205
 20
-63.83009006517073
 30
0.0
  0
VERTEX
  5
DD
  8
LAYER_1
 10
14.21451961930856
 20
-62.38831411454348
 30
0.0
  0
VERTEX
  5
DE
  8
LAYER_1
 10
13.98851157320671
 20
-62.21095343107332
 30
0.0
  0
VERTEX
  5
DF
  8
LAYER_1
 10
13.42346049238445
 20
-61.76273115960772
 30
0.0
  0
VERTEX
  5
E0
  8
LAYER_1
 10
13.24452393522758
 20
-61.61123378373923
 30
0.0
  0
VERTEX
  5
E1
  8
LAYER_1
 10
13.11742027933481
 20
-61.49011072874287
 30
0.0
  0
VERTEX
  5
E2
  8
LAYER_1
 10
13.0292297090271
 20
-61.38583585534057
 30
0.0
  0
VERTEX
  5
E3
  8
LAYER_1
 10
12.9670324086254
 20
-61.28488302425427
 30
0.0
  0
VERTEX
  5
E4
  8
LAYER_1
 10
12.86893835482381
 20
-61.0388389319174
 30
0.0
  0
VERTEX
  5
E5
  8
LAYER_1
 10
12.75350829528638
 20
-60.73336165730819
 30
0.0
  0
VERTEX
  5
E6
  8
LAYER_1
 10
12.67420274224467
 20
-60.56249942630529
 30
0.0
  0
VERTEX
  5
E7
  8
LAYER_1
 10
12.62062221655594
 20
-60.48749942332506
 30
0.0
  0
VERTEX
  5
E8
  8
LAYER_1
 10
11.97899472459954
 20
-58.76249935477972
 30
0.0
  0
VERTEX
  5
E9
  8
LAYER_1
 10
11.7711514260409
 20
-58.34999933838844
 30
0.0
  0
VERTEX
  5
EA
  8
LAYER_1
 10
14.16615099398813
 20
-58.34999933838844
 30
0.0
  0
VERTEX
  5
EB
  8
LAYER_1
 10
14.22017541271995
 20
-58.26258599265788
 30
0.0
  0
VERTEX
  5
EC
  8
LAYER_1
 10
14.22782200109143
 20
-58.2223034833479
 30
0.0
  0
VERTEX
  5
ED
  8
LAYER_1
 10
14.20888199669775
 20
-58.1701785578132
 30
0.0
  0
VERTEX
  5
EE
  8
LAYER_1
 10
14.16391445536079
 20
-58.1067462125675
 30
0.0
  0
VERTEX
  5
EF
  8
LAYER_1
 10
14.09347843290242
 20
-58.03254144412453
 30
0.0
  0
VERTEX
  5
F0
  8
LAYER_1
 10
13.99813298514452
 20
-57.94809924899802
 30
0.0
  0
VERTEX
  5
F1
  8
LAYER_1
 10
13.87843716790896
 20
-57.85395462370168
 30
0.0
  0
VERTEX
  5
F2
  8
LAYER_1
 10
13.56823064829237
 20
-57.63869806865446
 30
0.0
  0
VERTEX
  5
F3
  8
LAYER_1
 10
13.34699933017566
 20
-57.48449802029901
 30
0.0
  0
VERTEX
  5
F4
  8
LAYER_1
 10
13.19323063339121
 20
-57.36015067775477
 30
0.0
  0
VERTEX
  5
F5
  8
LAYER_1
 10
13.0304358421316
 20
-57.22220747240802
 30
0.0
  0
VERTEX
  5
F6
  8
LAYER_1
 10
12.78750348836184
 20
-57.03531949859122
 30
0.0
  0
VERTEX
  5
F7
  8
LAYER_1
 10
12.45319467405591
 20
-56.77941489302884
 30
0.0
  0
VERTEX
  5
F8
  8
LAYER_1
 10
12.07070754150722
 20
-56.47553808369806
 30
0.0
  0
VERTEX
  5
F9
  8
LAYER_1
 10
11.70155323175384
 20
-56.18172003054326
 30
0.0
  0
VERTEX
  5
FA
  8
LAYER_1
 10
11.39929992757276
 20
-55.94999924302101
 30
0.0
  0
VERTEX
  5
FB
  8
LAYER_1
 10
10.76609582078316
 20
-55.45927819124909
 30
0.0
  0
VERTEX
  5
FC
  8
LAYER_1
 10
10.36652741340469
 20
-55.14693387802527
 30
0.0
  0
VERTEX
  5
FD
  8
LAYER_1
 10
9.93750337511301
 20
-54.82177816591712
 30
0.0
  0
VERTEX
  5
FE
  8
LAYER_1
 10
9.590244790315113
 20
-54.55782122418605
 30
0.0
  0
VERTEX
  5
FF
  8
LAYER_1
 10
9.387261409421697
 20
-54.39261438016671
 30
0.0
  0
VERTEX
  5
100
  8
LAYER_1
 10
9.235755351572887
 20
-54.26547473394857
 30
0.0
  0
VERTEX
  5
101
  8
LAYER_1
 10
9.012261394520536
 20
-54.0930410550161
 30
0.0
  0
VERTEX
  5
102
  8
LAYER_1
 10
8.700003325939178
 20
-53.85005539894041
 30
0.0
  0
VERTEX
  5
103
  8
LAYER_1
 10
8.662503324449062
 20
-53.81175826327556
 30
0.0
  0
VERTEX
  5
104
  8
LAYER_1
 10
7.162503264844418
 20
-52.69902897449283
 30
0.0
  0
VERTEX
  5
105
  8
LAYER_1
 10
7.087503261864185
 20
-52.60634473610954
 30
0.0
  0
VERTEX
  5
106
  8
LAYER_1
 10
5.437503196299076
 20
-51.34365343402786
 30
0.0
  0
VERTEX
  5
107
  8
LAYER_1
 10
5.40000319480896
 20
-51.30307624539218
 30
0.0
  0
VERTEX
  5
108
  8
LAYER_1
 10
5.062503181397915
 20
-51.03144662842286
 30
0.0
  0
VERTEX
  5
109
  8
LAYER_1
 10
3.797058075738505
 20
-50.07518999889069
 30
0.0
  0
VERTEX
  5
10A
  8
LAYER_1
 10
2.961567538979025
 20
-49.42548458916716
 30
0.0
  0
VERTEX
  5
10B
  8
LAYER_1
 10
1.919613199894471
 20
-48.6134467810916
 30
0.0
  0
VERTEX
  5
10C
  8
LAYER_1
 10
1.759438687785951
 20
-48.48172600041265
 30
0.0
  0
VERTEX
  5
10D
  8
LAYER_1
 10
1.635208785779859
 20
-48.36263027216772
 30
0.0
  0
VERTEX
  5
10E
  8
LAYER_1
 10
1.559251723357148
 20
-48.26924494023849
 30
0.0
  0
VERTEX
  5
10F
  8
LAYER_1
 10
1.543228078702356
 20
-48.2362828428553
 30
0.0
  0
VERTEX
  5
110
  8
LAYER_1
 10
1.543895729998766
 20
-48.21465534850667
 30
0.0
  0
VERTEX
  5
111
  8
LAYER_1
 10
1.590087126364281
 20
-48.13991609919946
 30
0.0
  0
VERTEX
  5
112
  8
LAYER_1
 10
3.637503124773502
 20
-46.6157106814387
 30
0.0
  0
VERTEX
  5
113
  8
LAYER_1
 10
3.718021617930546
 20
-46.53910477373017
 30
0.0
  0
VERTEX
  5
114
  8
LAYER_1
 10
3.879466700615815
 20
-46.40789247334696
 30
0.0
  0
VERTEX
  5
115
  8
LAYER_1
 10
4.154553377106666
 20
-46.19999885559082
 30
0.0
  0
VERTEX
  5
116
  8
LAYER_1
 10
4.947329441086367
 20
-45.59999883174896
 30
0.0
  0
VERTEX
  5
117
  8
LAYER_1
 10
5.438000633382112
 20
-45.22945194202475
 30
0.0
  0
VERTEX
  5
118
  8
LAYER_1
 10
6.004372975169716
 20
-44.81249880045652
 30
0.0
  0
VERTEX
  5
119
  8
LAYER_1
 10
6.624653711292453
 20
-44.36249878257513
 30
0.0
  0
VERTEX
  5
11A
  8
LAYER_1
 10
6.787503249943256
 20
-44.20816445253601
 30
0.0
  0
VERTEX
  5
11B
  8
LAYER_1
 10
8.062503300607204
 20
-43.26975108882772
 30
0.0
  0
VERTEX
  5
11C
  8
LAYER_1
 10
8.175003305077553
 20
-43.17771762591693
 30
0.0
  0
VERTEX
  5
11D
  8
LAYER_1
 10
8.77500332891941
 20
-42.71349244627822
 30
0.0
  0
VERTEX
  5
11E
  8
LAYER_1
 10
9.162009151168872
 20
-42.41151893452665
 30
0.0
  0
VERTEX
  5
11F
  8
LAYER_1
 10
9.407895462566088
 20
-42.20814971061418
 30
0.0
  0
VERTEX
  5
120
  8
LAYER_1
 10
9.52688198883524
 20
-42.11411180349053
 30
0.0
  0
VERTEX
  5
121
  8
LAYER_1
 10
9.575766080258528
 20
-42.08550513926598
 30
0.0
  0
VERTEX
  5
122
  8
LAYER_1
 10
9.608788327691713
 20
-42.07499869167805
 30
0.0
  0
VERTEX
  5
123
  8
LAYER_1
 10
9.638158401909683
 20
-42.0676012304466
 30
0.0
  0
VERTEX
  5
124
  8
LAYER_1
 10
9.67709845735097
 20
-42.04745962808374
 30
0.0
  0
VERTEX
  5
125
  8
LAYER_1
 10
9.763396225337488
 20
-41.98124868795276
 30
0.0
  0
VERTEX
  5
126
  8
LAYER_1
 10
9.954562527576595
 20
-41.82405083717201
 30
0.0
  0
VERTEX
  5
127
  8
LAYER_1
 10
10.27500338852406
 20
-41.57775600967508
 30
0.0
  0
VERTEX
  5
128
  8
LAYER_1
 10
10.68750340491533
 20
-41.2680133351227
 30
0.0
  0
VERTEX
  5
129
  8
LAYER_1
 10
14.21985741660195
 20
-38.58749855309725
 30
0.0
  0
VERTEX
  5
12A
  8
LAYER_1
 10
14.44118048973479
 20
-38.42054112041497
 30
0.0
  0
VERTEX
  5
12B
  8
LAYER_1
 10
15.15000358223915
 20
-37.89843490841059
 30
0.0
  0
VERTEX
  5
12C
  8
LAYER_1
 10
15.61082185130686
 20
-37.5531282104419
 30
0.0
  0
VERTEX
  5
12D
  8
LAYER_1
 10
16.03417213058626
 20
-37.22164230756525
 30
0.0
  0
VERTEX
  5
12E
  8
LAYER_1
 10
16.29179494259672
 20
-37.01463272589449
 30
0.0
  0
VERTEX
  5
12F
  8
LAYER_1
 10
16.37218307633265
 20
-36.95633571715064
 30
0.0
  0
VERTEX
  5
130
  8
LAYER_1
 10
16.43031618520503
 20
-36.9240712296485
 30
0.0
  0
VERTEX
  5
131
  8
LAYER_1
 10
16.47371463670085
 20
-36.91475976327358
 30
0.0
  0
VERTEX
  5
132
  8
LAYER_1
 10
16.50989879830711
 20
-36.9253218179114
 30
0.0
  0
VERTEX
  5
133
  8
LAYER_1
 10
16.5907057217989
 20
-36.99374848976731
 30
0.0
  0
VERTEX
  5
134
  8
LAYER_1
 10
17.12577045577547
 20
-37.4899467585167
 30
0.0
  0
VERTEX
  5
135
  8
LAYER_1
 10
17.55941881769645
 20
-37.89239502354081
 30
0.0
  0
VERTEX
  5
136
  8
LAYER_1
 10
19.28905398730656
 20
-37.78432329739807
 30
0.0
  0
VERTEX
  5
137
  8
LAYER_1
 10
19.80464574713091
 20
-37.24841088799476
 30
0.0
  0
VERTEX
  5
138
  8
LAYER_1
 10
20.08952680758455
 20
-36.94396528856154
 30
0.0
  0
VERTEX
  5
139
  8
LAYER_1
 10
20.18071927871945
 20
-36.83380776044536
 30
0.0
  0
VERTEX
  5
13A
  8
LAYER_1
 10
20.24436036392442
 20
-36.74041904614911
 30
0.0
  0
VERTEX
  5
13B
  8
LAYER_1
 10
20.28541055329796
 20
-36.65534312023755
 30
0.0
  0
VERTEX
  5
13C
  8
LAYER_1
 10
20.3088303369386
 20
-36.57012395727542
 30
0.0
  0
VERTEX
  5
13D
  8
LAYER_1
 10
20.32262064741519
 20
-36.36543181845841
 30
0.0
  0
VERTEX
  5
13E
  8
LAYER_1
 10
20.33141353121114
 20
-36.21422362382098
 30
0.0
  0
VERTEX
  5
13F
  8
LAYER_1
 10
20.35453710804636
 20
-36.08640743224699
 30
0.0
  0
VERTEX
  5
140
  8
LAYER_1
 10
20.39042324079858
 20
-35.98799509098885
 30
0.0
  0
VERTEX
  5
141
  8
LAYER_1
 10
20.41266222279285
 20
-35.95169406649461
 30
0.0
  0
VERTEX
  5
142
  8
LAYER_1
 10
20.43750379234552
 20
-35.924998447299
 30
0.0
  0
VERTEX
  5
143
  8
LAYER_1
 10
20.55000379681587
 20
-35.83163173627262
 30
0.0
  0
VERTEX
  5
144
  8
LAYER_1
 10
20.55000379681587
 20
-33.53723227446455
 30
0.0
  0
VERTEX
  5
145
  8
LAYER_1
 10
20.30625378713012
 20
-33.39450950061235
 30
0.0
  0
VERTEX
  5
146
  8
LAYER_1
 10
19.37000769557231
 20
-32.84464251773918
 30
0.0
  0
VERTEX
  5
147
  8
LAYER_1
 10
18.67751161370028
 20
-32.4374983087182
 30
0.0
  0
VERTEX
  5
148
  8
LAYER_1
 10
18.67500372231007
 20
-23.84999796748161
 30
0.0
  0
VERTEX
  5
149
  8
LAYER_1
 10
19.37631200528469
 20
-23.84999796748161
 30
0.0
  0
VERTEX
  5
14A
  8
LAYER_1
 10
19.6573649710598
 20
-23.84570409612962
 30
0.0
  0
VERTEX
  5
14B
  8
LAYER_1
 10
19.89622301315096
 20
-23.83238801910632
 30
0.0
  0
VERTEX
  5
14C
  8
LAYER_1
 10
20.09530913437555
 20
-23.80939804196068
 30
0.0
  0
VERTEX
  5
14D
  8
LAYER_1
 10
20.25704633755097
 20
-23.77608247024171
 30
0.0
  0
VERTEX
  5
14E
  8
LAYER_1
 10
20.38385762549461
 20
-23.7317896094984
 30
0.0
  0
VERTEX
  5
14F
  8
LAYER_1
 10
20.47816600102385
 20
-23.67586776527974
 30
0.0
  0
VERTEX
  5
150
  8
LAYER_1
 10
20.54239446695608
 20
-23.60766524313471
 30
0.0
  0
VERTEX
  5
151
  8
LAYER_1
 10
20.57896602610869
 20
-23.52653034861231
 30
0.0
  0
VERTEX
  5
152
  8
LAYER_1
 10
20.6063549272179
 20
-23.38191326266887
 30
0.0
  0
VERTEX
  5
153
  8
LAYER_1
 10
20.62221213661894
 20
-23.2057546169371
 30
0.0
  0
VERTEX
  5
154
  8
LAYER_1
 10
20.62720670306449
 20
-23.01120701424975
 30
0.0
  0
VERTEX
  5
155
  8
LAYER_1
 10
20.62200767530718
 20
-22.81142305743959
 30
0.0
  0
VERTEX
  5
156
  8
LAYER_1
 10
20.6072841020997
 20
-22.61955534933939
 30
0.0
  0
VERTEX
  5
157
  8
LAYER_1
 10
20.58370503219469
 20
-22.44875649278189
 30
0.0
  0
VERTEX
  5
158
  8
LAYER_1
 10
20.55193951434481
 20
-22.31217909059987
 30
0.0
  0
VERTEX
  5
159
  8
LAYER_1
 10
20.51265659730274
 20
-22.22297574562608
 30
0.0
  0
VERTEX
  5
15A
  8
LAYER_1
 10
20.45237959035114
 20
-22.15859975898607
 30
0.0
  0
VERTEX
  5
15B
  8
LAYER_1
 10
20.34767035335303
 20
-22.0922659276226
 30
0.0
  0
VERTEX
  5
15C
  8
LAYER_1
 10
20.17377291436657
 20
-22.01580273813867
 30
0.0
  0
VERTEX
  5
15D
  8
LAYER_1
 10
19.90593130144998
 20
-21.92103867713729
 30
0.0
  0
VERTEX
  5
15E
  8
LAYER_1
 10
19.51938954266145
 20
-21.79980223122147
 30
0.0
  0
VERTEX
  5
15F
  8
LAYER_1
 10
18.98939166605916
 20
-21.64392188699421
 30
0.0
  0
VERTEX
  5
160
  8
LAYER_1
 10
17.40000367164612
 20
-21.1955434500174
 30
0.0
  0
VERTEX
  5
161
  8
LAYER_1
 10
16.68750364333391
 20
-20.99672735268493
 30
0.0
  0
VERTEX
  5
162
  8
LAYER_1
 10
13.68750352412462
 20
-20.16487221215647
 30
0.0
  0
VERTEX
  5
163
  8
LAYER_1
 10
13.27500350773335
 20
-20.0506388519455
 30
0.0
  0
VERTEX
  5
164
  8
LAYER_1
 10
12.90105818037409
 20
-19.9586282250922
 30
0.0
  0
VERTEX
  5
165
  8
LAYER_1
 10
12.5812534801662
 20
-19.89782398976241
 30
0.0
  0
VERTEX
  5
166
  8
LAYER_1
 10
12.30000346899033
 20
-19.85924248779027
 30
0.0
  0
VERTEX
  5
167
  8
LAYER_1
 10
12.30000346899033
 20
-17.41604603244788
 30
0.0
  0
VERTEX
  5
168
  8
LAYER_1
 10
12.52500347793102
 20
-17.32970542783851
 30
0.0
  0
VERTEX
  5
169
  8
LAYER_1
 10
12.52500347793102
 20
-6.370289553452139
 30
0.0
  0
VERTEX
  5
16A
  8
LAYER_1
 10
12.41989410507567
 20
-6.329955302597838
 30
0.0
  0
VERTEX
  5
16B
  8
LAYER_1
 10
12.37626804349237
 20
-6.303533276180406
 30
0.0
  0
VERTEX
  5
16C
  8
LAYER_1
 10
12.33518449513001
 20
-6.261408511226099
 30
0.0
  0
VERTEX
  5
16D
  8
LAYER_1
 10
12.30126256566147
 20
-6.209379343749712
 30
0.0
  0
VERTEX
  5
16E
  8
LAYER_1
 10
12.27912136075962
 20
-6.153244109766035
 30
0.0
  0
VERTEX
  5
16F
  8
LAYER_1
 10
12.2633625292851
 20
-6.122161526761169
 30
0.0
  0
VERTEX
  5
170
  8
LAYER_1
 10
12.23350973601284
 20
-6.092975782447171
 30
0.0
  0
VERTEX
  5
171
  8
LAYER_1
 10
12.13570056177308
 20
-6.040874659669136
 30
0.0
  0
VERTEX
  5
172
  8
LAYER_1
 10
11.99405043343629
 20
-5.998100440986637
 30
0.0
  0
VERTEX
  5
173
  8
LAYER_1
 10
11.81691594639843
 20
-5.96581282595438
 30
0.0
  0
VERTEX
  5
174
  8
LAYER_1
 10
11.61265369605547
 20
-5.945171514127075
 30
0.0
  0
VERTEX
  5
175
  8
LAYER_1
 10
11.38962027780335
 20
-5.937336205059431
 30
0.0
  0
VERTEX
  5
176
  8
LAYER_1
 10
11.15617228703804
 20
-5.943466598306154
 30
0.0
  0
VERTEX
  5
177
  8
LAYER_1
 10
10.9206663191555
 20
-5.964722393421951
 30
0.0
  0
VERTEX
  5
178
  8
LAYER_1
 10
10.69629919357133
 20
-5.998114599813432
 30
0.0
  0
VERTEX
  5
179
  8
LAYER_1
 10
10.62231745818305
 20
-6.016159807613054
 30
0.0
  0
VERTEX
  5
17A
  8
LAYER_1
 10
10.5693228191368
 20
-6.037533206555965
 30
0.0
  0
VERTEX
  5
17B
  8
LAYER_1
 10
10.53395468498722
 20
-6.064056387697692
 30
0.0
  0
VERTEX
  5
17C
  8
LAYER_1
 10
10.51285246428893
 20
-6.097550942093762
 30
0.0
  0
VERTEX
  5
17D
  8
LAYER_1
 10
10.50265556559657
 20
-6.139838460799702
 30
0.0
  0
VERTEX
  5
17E
  8
LAYER_1
 10
10.50000339746475
 20
-6.192740534871035
 30
0.0
  0
VERTEX
  5
17F
  8
LAYER_1
 10
10.48926408313764
 20
-6.280923570442112
 30
0.0
  0
VERTEX
  5
180
  8
LAYER_1
 10
10.4741542922494
 20
-6.313894286579607
 30
0.0
  0
VERTEX
  5
181
  8
LAYER_1
 10
10.45105272511863
 20
-6.340768599774195
 30
0.0
  0
VERTEX
  5
182
  8
LAYER_1
 10
10.41883561642577
 20
-6.362534608642719
 30
0.0
  0
VERTEX
  5
183
  8
LAYER_1
 10
10.37637920085124
 20
-6.380180411802019
 30
0.0
  0
VERTEX
  5
184
  8
LAYER_1
 10
10.256253387779
 20
-6.407063795460317
 30
0.0
  0
VERTEX
  5
185
  8
LAYER_1
 10
10.01250337809324
 20
-6.44592727690258
 30
0.0
  0
VERTEX
  5
186
  8
LAYER_1
 10
8.925003334879875
 20
-6.557406814763652
 30
0.0
  0
VERTEX
  5
187
  8
LAYER_1
 10
7.735627597792448
 20
-6.675829627934949
 30
0.0
  0
VERTEX
  5
188
  8
LAYER_1
 10
6.737609576859525
 20
-6.766462836291252
 30
0.0
  0
VERTEX
  5
189
  8
LAYER_1
 10
5.83016339507617
 20
-6.837877659903556
 30
0.0
  0
VERTEX
  5
18A
  8
LAYER_1
 10
4.91250317543745
 20
-6.898645318842853
 30
0.0
  0
VERTEX
  5
18B
  8
LAYER_1
 10
3.712503127753735
 20
-6.971798940478209
 30
0.0
  0
VERTEX
  5
18C
  8
LAYER_1
 10
-0.2624970301985741
 20
-7.153302957226373
 30
0.0
  0
VERTEX
  5
18D
  8
LAYER_1
 10
-6.862497292459011
 20
-7.155148208891319
 30
0.0
  0
VERTEX
  5
18E
  8
LAYER_1
 10
-11.21249746531248
 20
-6.966423494409639
 30
0.0
  0
VERTEX
  5
18F
  8
LAYER_1
 10
-12.59999752044678
 20
-6.851992575470163
 30
0.0
  0
VERTEX
  5
190
  8
LAYER_1
 10
-14.84999760985374
 20
-6.675682023930733
 30
0.0
  0
VERTEX
  5
191
  8
LAYER_1
 10
-15.64640389150009
 20
-6.608092428171586
 30
0.0
  0
VERTEX
  5
192
  8
LAYER_1
 10
-16.34999766945839
 20
-6.532484586273995
 30
0.0
  0
VERTEX
  5
193
  8
LAYER_1
 10
-16.8874869780532
 20
-6.469374302664956
 30
0.0
  0
VERTEX
  5
194
  8
LAYER_1
 10
-17.28453570569796
 20
-6.431832027897414
 30
0.0
  0
VERTEX
  5
195
  8
LAYER_1
 10
-17.43662515813029
 20
-6.414733113962152
 30
0.0
  0
VERTEX
  5
196
  8
LAYER_1
 10
-17.49103729663594
 20
-6.4006288639661
 30
0.0
  0
VERTEX
  5
197
  8
LAYER_1
 10
-17.53362724332958
 20
-6.38126238756622
 30
0.0
  0
VERTEX
  5
198
  8
LAYER_1
 10
-17.56634464820747
 20
-6.355464411473855
 30
0.0
  0
VERTEX
  5
199
  8
LAYER_1
 10
-17.59113916126585
 20
-6.322065662400341
 30
0.0
  0
VERTEX
  5
19A
  8
LAYER_1
 10
-17.62475811190915
 20
-6.227788752155234
 30
0.0
  0
VERTEX
  5
19B
  8
LAYER_1
 10
-17.6390320153721
 20
-6.185022300613052
 30
0.0
  0
VERTEX
  5
19C
  8
LAYER_1
 10
-17.6610523779976
 20
-6.145638594887553
 30
0.0
  0
VERTEX
  5
19D
  8
LAYER_1
 10
-17.690798396995
 20
-6.109642635264128
 30
0.0
  0
VERTEX
  5
19E
  8
LAYER_1
 10
-17.72824926957368
 20
-6.077039422028164
 30
0.0
  0
VERTEX
  5
19F
  8
LAYER_1
 10
-17.82618236431236
 20
-6.022031235860174
 30
0.0
  0
VERTEX
  5
1A0
  8
LAYER_1
 10
-17.95468523988855
 20
-5.980654038666687
 30
0.0
  0
VERTEX
  5
1A1
  8
LAYER_1
 10
-18.1135914739772
 20
-5.952947832730811
 30
0.0
  0
VERTEX
  5
1A2
  8
LAYER_1
 10
-18.30273464425325
 20
-5.93895262033565
 30
0.0
  0
VERTEX
  5
1A3
  8
LAYER_1
 10
-18.52194832839163
 20
-5.938708403764313
 30
0.0
  0
VERTEX
  5
1A4
  8
LAYER_1
 10
-18.77106610406728
 20
-5.952255185299904
 30
0.0
  0
VERTEX
  5
1A5
  8
LAYER_1
 10
-19.03805128283309
 20
-5.980472676253198
 30
0.0
  0
VERTEX
  5
1A6
  8
LAYER_1
 10
-19.13977875486549
 20
-5.999466296186762
 30
0.0
  0
VERTEX
  5
1A7
  8
LAYER_1
 10
-19.22604785505095
 20
-6.023668207828388
 30
0.0
  0
VERTEX
  5
1A8
  8
LAYER_1
 10
-19.30114736317953
 20
-6.05454219273066
 30
0.0
  0
VERTEX
  5
1A9
  8
LAYER_1
 10
-19.3693660590413
 20
-6.093552032446162
 30
0.0
  0
VERTEX
  5
1AA
  8
LAYER_1
 10
-19.50231613312454
 20
-6.201834402527211
 30
0.0
  0
VERTEX
  5
1AB
  8
LAYER_1
 10
-19.72499780356884
 20
-6.41201016123442
 30
0.0
  0
VERTEX
  5
1AC
  8
LAYER_1
 10
-19.72499780356884
 20
-17.33904065102551
 30
0.0
  0
VERTEX
  5
1AD
  8
LAYER_1
 10
-19.42499779164791
 20
-17.41749241647144
 30
0.0
  0
VERTEX
  5
1AE
  8
LAYER_1
 10
-19.42499779164791
 20
-19.8749978095293
 30
0.0
  0
VERTEX
  5
1AF
  8
LAYER_1
 10
-19.79763214549484
 20
-19.8749978095293
 30
0.0
  0
VERTEX
  5
1B0
  8
LAYER_1
 10
-24.93749801069498
 20
-21.31068345460283
 30
0.0
  0
VERTEX
  5
1B1
  8
LAYER_1
 10
-25.23749802261591
 20
-21.38333191460917
 30
0.0
  0
VERTEX
  5
1B2
  8
LAYER_1
 10
-26.04992156435155
 20
-21.61037333653663
 30
0.0
  0
VERTEX
  5
1B3
  8
LAYER_1
 10
-27.16975185015844
 20
-21.95024820962006
 30
0.0
  0
VERTEX
  5
1B4
  8
LAYER_1
 10
-27.33195682394144
 20
-22.00530003724092
 30
0.0
  0
VERTEX
  5
1B5
  8
LAYER_1
 10
-27.46066383672385
 20
-22.06063195225941
 30
0.0
  0
VERTEX
  5
1B6
  8
LAYER_1
 10
-27.56046901770648
 20
-22.12197168683514
 30
0.0
  0
VERTEX
  5
1B7
  8
LAYER_1
 10
-27.63596849609014
 20
-22.19504697312773
 30
0.0
  0
VERTEX
  5
1B8
  8
LAYER_1
 10
-27.69175840107562
 20
-22.2855855432968
 30
0.0
  0
VERTEX
  5
1B9
  8
LAYER_1
 10
-27.73243486186373
 20
-22.39931512950198
 30
0.0
  0
VERTEX
  5
1BA
  8
LAYER_1
 10
-27.76259400765529
 20
-22.54196346390287
 30
0.0
  0
VERTEX
  5
1BB
  8
LAYER_1
 10
-27.78683196765109
 20
-22.7192582786591
 30
0.0
  0
VERTEX
  5
1BC
  8
LAYER_1
 10
-27.80278765064447
 20
-22.92202461288583
 30
0.0
  0
VERTEX
  5
1BD
  8
LAYER_1
 10
-27.80209050660567
 20
-23.10801867743055
 30
0.0
  0
VERTEX
  5
1BE
  8
LAYER_1
 10
-27.78522385471242
 20
-23.27559554207377
 30
0.0
  0
VERTEX
  5
1BF
  8
LAYER_1
 10
-27.75267101414245
 20
-23.42311027659601
 30
0.0
  0
VERTEX
  5
1C0
  8
LAYER_1
 10
-27.70491530407348
 20
-23.54891795077778
 30
0.0
  0
VERTEX
  5
1C1
  8
LAYER_1
 10
-27.64244004368324
 20
-23.65137363439959
 30
0.0
  0
VERTEX
  5
1C2
  8
LAYER_1
 10
-27.56572855214946
 20
-23.72883239724198
 30
0.0
  0
VERTEX
  5
1C3
  8
LAYER_1
 10
-27.52218525694678
 20
-23.75767389267729
 30
0.0
  0
VERTEX
  5
1C4
  8
LAYER_1
 10
-27.47526414864986
 20
-23.77964930908544
 30
0.0
  0
VERTEX
  5
1C5
  8
LAYER_1
 10
-27.29023315500809
 20
-23.84999796748161
 30
0.0
  0
VERTEX
  5
1C6
  8
LAYER_1
 10
-25.79999804496765
 20
-23.84999796748161
 30
0.0
  0
VERTEX
  5
1C7
  8
LAYER_1
 10
-25.80084079804359
 20
-32.4374983087182
 30
0.0
  0
VERTEX
  5
1C8
  8
LAYER_1
 10
-27.63749811798334
 20
-33.48940212175417
 30
0.0
  0
VERTEX
  5
1C9
  8
LAYER_1
 10
-27.67893937897229
 20
-35.87605718601134
 30
0.0
  0
VERTEX
  5
1CA
  8
LAYER_1
 10
-27.60196874624264
 20
-35.95302781874182
 30
0.0
  0
VERTEX
  5
1CB
  8
LAYER_1
 10
-27.57208249275308
 20
-36.00806785656824
 30
0.0
  0
VERTEX
  5
1CC
  8
LAYER_1
 10
-27.54760823687733
 20
-36.10103013910313
 30
0.0
  0
VERTEX
  5
1CD
  8
LAYER_1
 10
-27.53107157750182
 20
-36.21892907793396
 30
0.0
  0
VERTEX
  5
1CE
  8
LAYER_1
 10
-27.52499811351299
 20
-36.34877908464816
 30
0.0
  0
VERTEX
  5
1CF
  8
LAYER_1
 10
-27.52223303021387
 20
-36.44984889248985
 30
0.0
  0
VERTEX
  5
1D0
  8
LAYER_1
 10
-27.51066291700879
 20
-36.53750947674745
 30
0.0
  0
VERTEX
  5
1D1
  8
LAYER_1
 10
-27.48537547893621
 20
-36.61967978342632
 30
0.0
  0
VERTEX
  5
1D2
  8
LAYER_1
 10
-27.44145842103458
 20
-36.70427875853186
 30
0.0
  0
VERTEX
  5
1D3
  8
LAYER_1
 10
-27.37399944834232
 20
-36.79922534806941
 30
0.0
  0
VERTEX
  5
1D4
  8
LAYER_1
 10
-27.27808626589789
 20
-36.91243849804438
 30
0.0
  0
VERTEX
  5
1D5
  8
LAYER_1
 10
-26.98124809190631
 20
-37.225340263328
 30
0.0
  0
VERTEX
  5
1D6
  8
LAYER_1
 10
-26.43749807029963
 20
-37.78312080883199
 30
0.0
  0
VERTEX
  5
1D7
  8
LAYER_1
 10
-24.69707938743541
 20
-37.89160360624682
 30
0.0
  0
VERTEX
  5
1D8
  8
LAYER_1
 10
-23.74569638409609
 20
-36.97499848902225
 30
0.0
  0
VERTEX
  5
1D9
  8
LAYER_1
 10
-23.6736764866782
 20
-36.97499848902225
 30
0.0
  0
VERTEX
  5
1DA
  8
LAYER_1
 10
-23.62882515563977
 20
-36.99037556032637
 30
0.0
  0
VERTEX
  5
1DB
  8
LAYER_1
 10
-23.55343751913701
 20
-37.03178479662314
 30
0.0
  0
VERTEX
  5
1DC
  8
LAYER_1
 10
-23.35142109040486
 20
-37.16436789850101
 30
0.0
  0
VERTEX
  5
1DD
  8
LAYER_1
 10
-23.1483627218146
 20
-37.31608406326875
 30
0.0
  0
VERTEX
  5
1DE
  8
LAYER_1
 10
-23.07167266048919
 20
-37.38140962817784
 30
0.0
  0
VERTEX
  5
1DF
  8
LAYER_1
 10
-23.02499793469906
 20
-37.43026955953923
 30
0.0
  0
VERTEX
  5
1E0
  8
LAYER_1
 10
-22.92140418058261
 20
-37.51902664441158
 30
0.0
  0
VERTEX
  5
1E1
  8
LAYER_1
 10
-22.72499792277813
 20
-37.66122491238889
 30
0.0
  0
VERTEX
  5
1E2
  8
LAYER_1
 10
-22.46249791234732
 20
-37.84147978045608
 30
0.0
  0
VERTEX
  5
1E3
  8
LAYER_1
 10
-20.66249784082174
 20
-39.17988375036268
 30
0.0
  0
VERTEX
  5
1E4
  8
LAYER_1
 10
-20.62499783933163
 20
-39.22161750833811
 30
0.0
  0
VERTEX
  5
1E5
  8
LAYER_1
 10
-20.46632595802657
 20
-39.3492000265427
 30
0.0
  0
VERTEX
  5
1E6
  8
LAYER_1
 10
-20.13749781996012
 20
-39.59733612294147
 30
0.0
  0
VERTEX
  5
1E7
  8
LAYER_1
 10
-19.61249779909849
 20
-39.98952917821142
 30
0.0
  0
VERTEX
  5
1E8
  8
LAYER_1
 10
-19.31249778717756
 20
-40.22351241445116
 30
0.0
  0
VERTEX
  5
1E9
  8
LAYER_1
 10
-19.08749777823687
 20
-40.39928745204889
 30
0.0
  0
VERTEX
  5
1EA
  8
LAYER_1
 10
-16.01249765604734
 20
-42.70982759067149
 30
0.0
  0
VERTEX
  5
1EB
  8
LAYER_1
 10
-15.93749765306711
 20
-42.78963100176924
 30
0.0
  0
VERTEX
  5
1EC
  8
LAYER_1
 10
-14.36249759048223
 20
-43.97577230880242
 30
0.0
  0
VERTEX
  5
1ED
  8
LAYER_1
 10
-10.38749743252993
 20
-46.97310437397223
 30
0.0
  0
VERTEX
  5
1EE
  8
LAYER_1
 10
-10.16249742358923
 20
-47.15018225431249
 30
0.0
  0
VERTEX
  5
1EF
  8
LAYER_1
 10
-9.8624974116683
 20
-47.38319784407701
 30
0.0
  0
VERTEX
  5
1F0
  8
LAYER_1
 10
-9.787497408688068
 20
-47.43913555350127
 30
0.0
  0
VERTEX
  5
1F1
  8
LAYER_1
 10
-8.614700497158992
 20
-48.31616415065936
 30
0.0
  0
VERTEX
  5
1F2
  8
LAYER_1
 10
-8.788598936532253
 20
-48.43769108537931
 30
0.0
  0
VERTEX
  5
1F3
  8
LAYER_1
 10
-9.057028325717207
 20
-48.63660633443664
 30
0.0
  0
VERTEX
  5
1F4
  8
LAYER_1
 10
-9.479452815736252
 20
-48.97972767891333
 30
0.0
  0
VERTEX
  5
1F5
  8
LAYER_1
 10
-10.19999742507935
 20
-49.53872920716925
 30
0.0
  0
VERTEX
  5
1F6
  8
LAYER_1
 10
-10.68749744445086
 20
-49.90550201492067
 30
0.0
  0
VERTEX
  5
1F7
  8
LAYER_1
 10
-10.76249744743109
 20
-49.98823990090149
 30
0.0
  0
VERTEX
  5
1F8
  8
LAYER_1
 10
-12.24643669613864
 20
-51.11249905079603
 30
0.0
  0
VERTEX
  5
1F9
  8
LAYER_1
 10
-12.4896417389977
 20
-51.29999905824661
 30
0.0
  0
VERTEX
  5
1FA
  8
LAYER_1
 10
-13.21017217275846
 20
-51.86060598340907
 30
0.0
  0
VERTEX
  5
1FB
  8
LAYER_1
 10
-13.76249756664038
 20
-52.29096099551181
 30
0.0
  0
VERTEX
  5
1FC
  8
LAYER_1
 10
-13.83749756962061
 20
-52.34820908990268
 30
0.0
  0
VERTEX
  5
1FD
  8
LAYER_1
 10
-14.88749761134386
 20
-53.17390503579558
 30
0.0
  0
VERTEX
  5
1FE
  8
LAYER_1
 10
-14.96249761432409
 20
-53.23379090009519
 30
0.0
  0
VERTEX
  5
1FF
  8
LAYER_1
 10
-15.48749763518572
 20
-53.62808796421983
 30
0.0
  0
VERTEX
  5
200
  8
LAYER_1
 10
-16.02287262744159
 20
-54.03749916702509
 30
0.0
  0
VERTEX
  5
201
  8
LAYER_1
 10
-16.50012227267656
 20
-54.41249918192625
 30
0.0
  0
VERTEX
  5
202
  8
LAYER_1
 10
-17.53974734300555
 20
-55.21639083957153
 30
0.0
  0
VERTEX
  5
203
  8
LAYER_1
 10
-18.18749774247408
 20
-55.72028248529589
 30
0.0
  0
VERTEX
  5
204
  8
LAYER_1
 10
-18.33749774843454
 20
-55.8414155123529
 30
0.0
  0
VERTEX
  5
205
  8
LAYER_1
 10
-19.68749780207872
 20
-56.88329210907614
 30
0.0
  0
VERTEX
  5
206
  8
LAYER_1
 10
-19.76249780505896
 20
-56.96249928325415
 30
0.0
  0
VERTEX
  5
207
  8
LAYER_1
 10
-21.20605484564335
 20
-58.04930491602067
 30
0.0
  0
VERTEX
  5
208
  8
LAYER_1
 10
-21.3933645771801
 20
-58.27499933540821
 30
0.0
  0
VERTEX
  5
209
  8
LAYER_1
 10
-18.89999777078629
 20
-58.27499933540821
 30
0.0
  0
VERTEX
  5
20A
  8
LAYER_1
 10
-18.89999777078629
 20
-58.33529540017399
 30
0.0
  0
VERTEX
  5
20B
  8
LAYER_1
 10
-20.10703362051969
 20
-61.45790506486895
 30
0.0
  0
VERTEX
  5
20C
  8
LAYER_1
 10
-20.23505523749164
 20
-61.57270226793887
 30
0.0
  0
VERTEX
  5
20D
  8
LAYER_1
 10
-20.45757296535121
 20
-61.75286276325107
 30
0.0
  0
VERTEX
  5
20E
  8
LAYER_1
 10
-20.8127873595636
 20
-62.02481000937162
 30
0.0
  0
VERTEX
  5
20F
  8
LAYER_1
 10
-21.29999786615372
 20
-62.40199376805015
 30
0.0
  0
VERTEX
  5
210
  8
LAYER_1
 10
-21.33749786764383
 20
-62.44186698836584
 30
0.0
  0
VERTEX
  5
211
  8
LAYER_1
 10
-22.11433064225665
 20
-63.03968326843032
 30
0.0
  0
VERTEX
  5
212
  8
LAYER_1
 10
-23.53933069888106
 20
-64.14729967848427
 30
0.0
  0
VERTEX
  5
213
  8
LAYER_1
 10
-24.18749798089266
 20
-64.65709980847373
 30
0.0
  0
VERTEX
  5
214
  8
LAYER_1
 10
-24.32447260991799
 20
-64.77021721802554
 30
0.0
  0
VERTEX
  5
215
  8
LAYER_1
 10
-24.38792333664581
 20
-64.83069454097637
 30
0.0
  0
VERTEX
  5
216
  8
LAYER_1
 10
-24.41577230657272
 20
-64.88237135013978
 30
0.0
  0
VERTEX
  5
217
  8
LAYER_1
 10
-24.41688318602538
 20
-64.90743641283157
 30
0.0
  0
VERTEX
  5
218
  8
LAYER_1
 10
-24.40973809022529
 20
-64.93333356801298
 30
0.0
  0
SEQEND
  5
E32
  8
LAYER_1
  0
POLYLINE
  5
71
  8
LAYER_1
 66
     1
 10
0.0
 20
0.0
 30
0.0
 70
     1
  0
VERTEX
  5
219
  8
LAYER_1
 10
-61.92978130516979
 20
-63.48749954253435
 30
0.0
  0
VERTEX
  5
21A
  8
LAYER_1
 10
-61.69633002609394
 20
-63.67499954998493
 30
0.0
  0
VERTEX
  5
21B
  8
LAYER_1
 10
-36.68571276324167
 20
-63.67499954998493
 30
0.0
  0
VERTEX
  5
21C
  8
LAYER_1
 10
-36.56785561570115
 20
-63.55714240244473
 30
0.0
  0
VERTEX
  5
21D
  8
LAYER_1
 10
-36.52208395942181
 20
-63.50144694822271
 30
0.0
  0
VERTEX
  5
21E
  8
LAYER_1
 10
-36.48458201686167
 20
-63.4369247637392
 30
0.0
  0
VERTEX
  5
21F
  8
LAYER_1
 10
-36.45922110735614
 20
-63.37157389618702
 30
0.0
  0
VERTEX
  5
220
  8
LAYER_1
 10
-36.44987255024065
 20
-63.31339239275897
 30
0.0
  0
VERTEX
  5
221
  8
LAYER_1
 10
-36.44974663232067
 20
-63.18749953061342
 30
0.0
  0
VERTEX
  5
222
  8
LAYER_1
 10
-36.33737196020945
 20
-61.16249945014715
 30
0.0
  0
VERTEX
  5
223
  8
LAYER_1
 10
-36.22507408073074
 20
-59.29171812580898
 30
0.0
  0
VERTEX
  5
224
  8
LAYER_1
 10
-36.11288403771469
 20
-57.63749931007624
 30
0.0
  0
VERTEX
  5
225
  8
LAYER_1
 10
-36.00077078733113
 20
-56.13749925047159
 30
0.0
  0
VERTEX
  5
226
  8
LAYER_1
 10
-35.9231479074914
 20
-54.93749920278788
 30
0.0
  0
VERTEX
  5
227
  8
LAYER_1
 10
-35.69956822939932
 20
-51.56249906867743
 30
0.0
  0
VERTEX
  5
228
  8
LAYER_1
 10
-35.62571138993471
 20
-51.0374990478158
 30
0.0
  0
VERTEX
  5
229
  8
LAYER_1
 10
-35.3289679909737
 20
-47.36249890178442
 30
0.0
  0
VERTEX
  5
22A
  8
LAYER_1
 10
-35.25223343977625
 20
-46.34999886155128
 30
0.0
  0
VERTEX
  5
22B
  8
LAYER_1
 10
-35.1768330389602
 20
-45.44765507569537
 30
0.0
  0
VERTEX
  5
22C
  8
LAYER_1
 10
-35.10330612591377
 20
-44.69999879598618
 30
0.0
  0
VERTEX
  5
22D
  8
LAYER_1
 10
-34.94981857666901
 20
-43.16249873489141
 30
0.0
  0
VERTEX
  5
22E
  8
LAYER_1
 10
-34.8685237900893
 20
-42.26249869912863
 30
0.0
  0
VERTEX
  5
22F
  8
LAYER_1
 10
-34.72438751240614
 20
-40.7999986410141
 30
0.0
  0
VERTEX
  5
230
  8
LAYER_1
 10
-34.4507857149095
 20
-38.15797851094975
 30
0.0
  0
VERTEX
  5
231
  8
LAYER_1
 10
-34.15862106360467
 20
-35.54999843239784
 30
0.0
  0
VERTEX
  5
232
  8
LAYER_1
 10
-34.03991285359704
 20
-34.53749839216471
 30
0.0
  0
VERTEX
  5
233
  8
LAYER_1
 10
-33.8243084452144
 20
-32.73749832063913
 30
0.0
  0
VERTEX
  5
234
  8
LAYER_1
 10
-33.59529233658444
 20
-30.89343574736267
 30
0.0
  0
VERTEX
  5
235
  8
LAYER_1
 10
-33.34744277654335
 20
-28.98749817162752
 30
0.0
  0
VERTEX
  5
236
  8
LAYER_1
 10
-33.08618151625494
 20
-27.03749809414148
 30
0.0
  0
VERTEX
  5
237
  8
LAYER_1
 10
-33.01652094466607
 20
-26.43749807029963
 30
0.0
  0
VERTEX
  5
238
  8
LAYER_1
 10
-32.62500239187973
 20
-23.73749796301126
 30
0.0
  0
VERTEX
  5
239
  8
LAYER_1
 10
-32.39988528850468
 20
-22.46249791234732
 30
0.0
  0
VERTEX
  5
23A
  8
LAYER_1
 10
-32.01745527856716
 20
-19.83749780803919
 30
0.0
  0
VERTEX
  5
23B
  8
LAYER_1
 10
-31.88541841931315
 20
-19.31249778717756
 30
0.0
  0
VERTEX
  5
23C
  8
LAYER_1
 10
-31.72515553495974
 20
-18.29999774694443
 30
0.0
  0
VERTEX
  5
23D
  8
LAYER_1
 10
-31.56515836289115
 20
-17.34432573779825
 30
0.0
  0
VERTEX
  5
23E
  8
LAYER_1
 10
-31.41385272057536
 20
-16.54982277125459
 30
0.0
  0
VERTEX
  5
23F
  8
LAYER_1
 10
-31.27539027016573
 20
-15.93665726498869
 30
0.0
  0
VERTEX
  5
240
  8
LAYER_1
 10
-31.21227263634866
 20
-15.70437868998343
 30
0.0
  0
VERTEX
  5
241
  8
LAYER_1
 10
-31.15392267381564
 20
-15.52499763667583
 30
0.0
  0
VERTEX
  5
242
  8
LAYER_1
 10
-31.04181829373009
 20
-15.19051388332666
 30
0.0
  0
VERTEX
  5
243
  8
LAYER_1
 10
-30.9544176955092
 20
-14.86098447426534
 30
0.0
  0
VERTEX
  5
244
  8
LAYER_1
 10
-30.88748062920192
 20
-14.51793096686871
 30
0.0
  0
VERTEX
  5
245
  8
LAYER_1
 10
-30.83676684485724
 20
-14.14287491851361
 30
0.0
  0
VERTEX
  5
246
  8
LAYER_1
 10
-30.80211551637253
 20
-13.88431969275174
 30
0.0
  0
VERTEX
  5
247
  8
LAYER_1
 10
-30.77903224381614
 20
-13.79750559358432
 30
0.0
  0
VERTEX
  5
248
  8
LAYER_1
 10
-30.7457221032821
 20
-13.72917653006783
 30
0.0
  0
VERTEX
  5
249
  8
LAYER_1
 10
-30.69739374794421
 20
-13.67196452208373
 30
0.0
  0
VERTEX
  5
24A
  8
LAYER_1
 10
-30.62925583097628
 20
-13.61850158951346
 30
0.0
  0
VERTEX
  5
24B
  8
LAYER_1
 10
-30.41438592484543
 20
-13.4933510301402
 30
0.0
  0
VERTEX
  5
24C
  8
LAYER_1
 10
-30.21793751679073
 20
-13.37243260297848
 30
0.0
  0
VERTEX
  5
24D
  8
LAYER_1
 10
-30.14040505509239
 20
-13.31089145089924
 30
0.0
  0
VERTEX
  5
24E
  8
LAYER_1
 10
-30.07237406072704
 20
-13.24389925189831
 30
0.0
  0
VERTEX
  5
24F
  8
LAYER_1
 10
-30.01062476302994
 20
-13.16790869003361
 30
0.0
  0
VERTEX
  5
250
  8
LAYER_1
 10
-29.95193739133632
 20
-13.07937244936307
 30
0.0
  0
VERTEX
  5
251
  8
LAYER_1
 10
-29.83086934330055
 20
-12.85047366783616
 30
0.0
  0
VERTEX
  5
252
  8
LAYER_1
 10
-29.71334344039831
 20
-12.58699777682624
 30
0.0
  0
VERTEX
  5
253
  8
LAYER_1
 10
-29.6780172289432
 20
-12.47557028194467
 30
0.0
  0
VERTEX
  5
254
  8
LAYER_1
 10
-29.65603053792548
 20
-12.36017179801865
 30
0.0
  0
VERTEX
  5
255
  8
LAYER_1
 10
-29.64566963767518
 20
-12.22766885795313
 30
0.0
  0
VERTEX
  5
256
  8
LAYER_1
 10
-29.6452207985223
 20
-12.06492799465307
 30
0.0
  0
VERTEX
  5
257
  8
LAYER_1
 10
-29.66720438482898
 20
-11.59619862996919
 30
0.0
  0
VERTEX
  5
258
  8
LAYER_1
 10
-29.69955357861516
 20
-11.17453301615965
 30
0.0
  0
VERTEX
  5
259
  8
LAYER_1
 10
-29.72146376126548
 20
-10.99271056563229
 30
0.0
  0
VERTEX
  5
25A
  8
LAYER_1
 10
-29.74842557828556
 20
-10.82807078813467
 30
0.0
  0
VERTEX
  5
25B
  8
LAYER_1
 10
-29.7813599625741
 20
-10.67899551025037
 30
0.0
  0
VERTEX
  5
25C
  8
LAYER_1
 10
-29.82118784702979
 20
-10.54386655856299
 30
0.0
  0
VERTEX
  5
25D
  8
LAYER_1
 10
-29.86883016455135
 20
-10.42106575965614
 30
0.0
  0
VERTEX
  5
25E
  8
LAYER_1
 10
-29.92520784803747
 20
-10.30897494011339
 30
0.0
  0
VERTEX
  5
25F
  8
LAYER_1
 10
-29.99124183038685
 20
-10.20597592651835
 30
0.0
  0
VERTEX
  5
260
  8
LAYER_1
 10
-30.0678530444982
 20
-10.11045054545461
 30
0.0
  0
VERTEX
  5
261
  8
LAYER_1
 10
-30.15596242327022
 20
-10.02078062350576
 30
0.0
  0
VERTEX
  5
262
  8
LAYER_1
 10
-30.25649089960162
 20
-9.935347987255412
 30
0.0
  0
VERTEX
  5
263
  8
LAYER_1
 10
-30.37035940639108
 20
-9.852534463287142
 30
0.0
  0
VERTEX
  5
264
  8
LAYER_1
 10
-30.49848887653732
 20
-9.77072187818455
 30
0.0
  0
VERTEX
  5
265
  8
LAYER_1
 10
-30.80121443849493
 20
-9.603626830910784
 30
0.0
  0
VERTEX
  5
266
  8
LAYER_1
 10
-30.97501104229092
 20
-9.518749807069007
 30
0.0
  0
VERTEX
  5
267
  8
LAYER_1
 10
-31.13175591820632
 20
-9.45383374567945
 30
0.0
  0
VERTEX
  5
268
  8
LAYER_1
 10
-31.27966660167208
 20
-9.407797503661085
 30
0.0
  0
VERTEX
  5
269
  8
LAYER_1
 10
-31.42696062811914
 20
-9.379559937932877
 30
0.0
  0
VERTEX
  5
26A
  8
LAYER_1
 10
-31.58185553297845
 20
-9.368039905413795
 30
0.0
  0
VERTEX
  5
26B
  8
LAYER_1
 10
-31.75256885168096
 20
-9.372156263022804
 30
0.0
  0
VERTEX
  5
26C
  8
LAYER_1
 10
-31.9473181196576
 20
-9.390827867678876
 30
0.0
  0
VERTEX
  5
26D
  8
LAYER_1
 10
-32.17432087233932
 20
-9.422973576300976
 30
0.0
  0
VERTEX
  5
26E
  8
LAYER_1
 10
-32.39868297298717
 20
-9.465357161937183
 30
0.0
  0
VERTEX
  5
26F
  8
LAYER_1
 10
-32.47750387656776
 20
-9.489714805553266
 30
0.0
  0
VERTEX
  5
270
  8
LAYER_1
 10
-32.53996673553112
 20
-9.519744212220818
 30
0.0
  0
VERTEX
  5
271
  8
LAYER_1
 10
-32.59048308978602
 20
-9.558116278829452
 30
0.0
  0
VERTEX
  5
272
  8
LAYER_1
 10
-32.6334644792412
 20
-9.607501902268776
 30
0.0
  0
VERTEX
  5
273
  8
LAYER_1
 10
-32.71446852338742
 20
-9.749997407197952
 30
0.0
  0
VERTEX
  5
274
  8
LAYER_1
 10
-32.7645789878773
 20
-9.865512949862516
 30
0.0
  0
VERTEX
  5
275
  8
LAYER_1
 10
-32.8061562937912
 20
-9.985986882575036
 30
0.0
  0
VERTEX
  5
276
  8
LAYER_1
 10
-32.83487157229409
 20
-10.09715392532188
 30
0.0
  0
VERTEX
  5
277
  8
LAYER_1
 10
-32.84639595455089
 20
-10.18474879808943
 30
0.0
  0
VERTEX
  5
278
  8
LAYER_1
 10
-32.85171588115199
 20
-10.28061109753873
 30
0.0
  0
VERTEX
  5
279
  8
LAYER_1
 10
-32.85943683955914
 20
-10.30587988967027
 30
0.0
  0
VERTEX
  5
27A
  8
LAYER_1
 10
-32.87325327330912
 20
-10.31659539424583
 30
0.0
  0
VERTEX
  5
27B
  8
LAYER_1
 10
-32.89520629135578
 20
-10.31317382439496
 30
0.0
  0
VERTEX
  5
27C
  8
LAYER_1
 10
-32.92733700265295
 20
-10.29603139324725
 30
0.0
  0
VERTEX
  5
27D
  8
LAYER_1
 10
-33.03029594081417
 20
-10.22224879957955
 30
0.0
  0
VERTEX
  5
27E
  8
LAYER_1
 10
-33.10626091886492
 20
-10.14848107823087
 30
0.0
  0
VERTEX
  5
27F
  8
LAYER_1
 10
-33.17211814991724
 20
-10.05173375488373
 30
0.0
  0
VERTEX
  5
280
  8
LAYER_1
 10
-33.2228543263064
 20
-9.940931106534158
 30
0.0
  0
VERTEX
  5
281
  8
LAYER_1
 10
-33.2534561403677
 20
-9.824997410178185
 30
0.0
  0
VERTEX
  5
282
  8
LAYER_1
 10
-33.28016713799676
 20
-9.699232027201857
 30
0.0
  0
VERTEX
  5
283
  8
LAYER_1
 10
-33.31848361795489
 20
-9.583923845862023
 30
0.0
  0
VERTEX
  5
284
  8
LAYER_1
 10
-33.37024758646861
 20
-9.476633502450177
 30
0.0
  0
VERTEX
  5
285
  8
LAYER_1
 10
-33.43730104976443
 20
-9.374921633257825
 30
0.0
  0
VERTEX
  5
286
  8
LAYER_1
 10
-33.52148601406887
 20
-9.276348874576463
 30
0.0
  0
VERTEX
  5
287
  8
LAYER_1
 10
-33.62464448560846
 20
-9.178475862697592
 30
0.0
  0
VERTEX
  5
288
  8
LAYER_1
 10
-33.7486184706097
 20
-9.07886323391271
 30
0.0
  0
VERTEX
  5
289
  8
LAYER_1
 10
-33.89524997529911
 20
-8.975071624513319
 30
0.0
  0
VERTEX
  5
28A
  8
LAYER_1
 10
-34.32400162398424
 20
-8.67509729986703
 30
0.0
  0
VERTEX
  5
28B
  8
LAYER_1
 10
-34.85899494897109
 20
-8.287497349083424
 30
0.0
  0
VERTEX
  5
28C
  8
LAYER_1
 10
-35.08093458273275
 20
-8.12278285656183
 30
0.0
  0
VERTEX
  5
28D
  8
LAYER_1
 10
-35.24554197594897
 20
-7.990538224444244
 30
0.0
  0
VERTEX
  5
28E
  8
LAYER_1
 10
-35.35953877602074
 20
-7.874629704364999
 30
0.0
  0
VERTEX
  5
28F
  8
LAYER_1
 10
-35.39965871844025
 20
-7.817759689975487
 30
0.0
  0
VERTEX
  5
290
  8
LAYER_1
 10
-35.42964663034901
 20
-7.758923547958437
 30
0.0
  0
VERTEX
  5
291
  8
LAYER_1
 10
-35.45034271767214
 20
-7.696104559768142
 30
0.0
  0
VERTEX
  5
292
  8
LAYER_1
 10
-35.46258718633476
 20
-7.627286006858894
 30
0.0
  0
VERTEX
  5
293
  8
LAYER_1
 10
-35.46508209137895
 20
-7.463583332700706
 30
0.0
  0
VERTEX
  5
294
  8
LAYER_1
 10
-35.40562153824655
 20
-6.975447591745748
 30
0.0
  0
VERTEX
  5
295
  8
LAYER_1
 10
-35.3880645762366
 20
-6.793253357989077
 30
0.0
  0
VERTEX
  5
296
  8
LAYER_1
 10
-35.38456028221341
 20
-6.608045836509241
 30
0.0
  0
VERTEX
  5
297
  8
LAYER_1
 10
-35.39474330511688
 20
-6.439193410067513
 30
0.0
  0
VERTEX
  5
298
  8
LAYER_1
 10
-35.41824829388689
 20
-6.306064461425166
 30
0.0
  0
VERTEX
  5
299
  8
LAYER_1
 10
-35.46622987742737
 20
-6.189694459992011
 30
0.0
  0
VERTEX
  5
29A
  8
LAYER_1
 10
-35.54942651969204
 20
-6.043731391601561
 30
0.0
  0
VERTEX
  5
29B
  8
LAYER_1
 10
-35.65701477440922
 20
-5.882077675370906
 30
0.0
  0
VERTEX
  5
29C
  8
LAYER_1
 10
-35.77817119530724
 20
-5.718635730417134
 30
0.0
  0
VERTEX
  5
29D
  8
LAYER_1
 10
-35.9020723361144
 20
-5.567307975857336
 30
0.0
  0
VERTEX
  5
29E
  8
LAYER_1
 10
-36.01789475055905
 20
-5.441996830808602
 30
0.0
  0
VERTEX
  5
29F
  8
LAYER_1
 10
-36.11481499236949
 20
-5.356604714388022
 30
0.0
  0
VERTEX
  5
2A0
  8
LAYER_1
 10
-36.15280447157699
 20
-5.333222797887379
 30
0.0
  0
VERTEX
  5
2A1
  8
LAYER_1
 10
-36.18200961527405
 20
-5.325034045712684
 30
0.0
  0
VERTEX
  5
2A2
  8
LAYER_1
 10
-36.23902244447227
 20
-5.304688111653512
 30
0.0
  0
VERTEX
  5
2A3
  8
LAYER_1
 10
-36.34287047424306
 20
-5.249317980812089
 30
0.0
  0
VERTEX
  5
2A4
  8
LAYER_1
 10
-36.63200963315545
 20
-5.067328925774405
 30
0.0
  0
VERTEX
  5
2A5
  8
LAYER_1
 10
-36.88322388418321
 20
-4.90777408978203
 30
0.0
  0
VERTEX
  5
2A6
  8
LAYER_1
 10
-36.98632821573521
 20
-4.857104492079413
 30
0.0
  0
VERTEX
  5
2A7
  8
LAYER_1
 10
-37.08732413320003
 20
-4.822390971871105
 30
0.0
  0
VERTEX
  5
2A8
  8
LAYER_1
 10
-37.19588172299318
 20
-4.801046677131051
 30
0.0
  0
VERTEX
  5
2A9
  8
LAYER_1
 10
-37.32167107153022
 20
-4.790484755833197
 30
0.0
  0
VERTEX
  5
2AA
  8
LAYER_1
 10
-37.6636253904981
 20
-4.791360625459873
 30
0.0
  0
VERTEX
  5
2AB
  8
LAYER_1
 10
-37.85412030597966
 20
-4.80703561736696
 30
0.0
  0
VERTEX
  5
2AC
  8
LAYER_1
 10
-37.93503008631504
 20
-4.825040815743362
 30
0.0
  0
VERTEX
  5
2AD
  8
LAYER_1
 10
-38.01146209681887
 20
-4.851974595395822
 30
0.0
  0
VERTEX
  5
2AE
  8
LAYER_1
 10
-38.08722684882025
 20
-4.889449541069952
 30
0.0
  0
VERTEX
  5
2AF
  8
LAYER_1
 10
-38.16613485364823
 20
-4.939078237511366
 30
0.0
  0
VERTEX
  5
2B0
  8
LAYER_1
 10
-38.34862266710029
 20
-5.081247221678495
 30
0.0
  0
VERTEX
  5
2B1
  8
LAYER_1
 10
-38.68249305563767
 20
-5.362497232854366
 30
0.0
  0
VERTEX
  5
2B2
  8
LAYER_1
 10
-38.65792722297497
 20
-5.903364812969642
 30
0.0
  0
VERTEX
  5
2B3
  8
LAYER_1
 10
-38.64212485762
 20
-6.125077781827678
 30
0.0
  0
VERTEX
  5
2B4
  8
LAYER_1
 10
-38.61725848146715
 20
-6.32892471980395
 30
0.0
  0
VERTEX
  5
2B5
  8
LAYER_1
 10
-38.58673895646442
 20
-6.492291304394349
 30
0.0
  0
VERTEX
  5
2B6
  8
LAYER_1
 10
-38.55397714455979
 20
-6.592563213094763
 30
0.0
  0
VERTEX
  5
2B7
  8
LAYER_1
 10
-38.52661863366093
 20
-6.657092893415602
 30
0.0
  0
VERTEX
  5
2B8
  8
LAYER_1
 10
-38.51717910356819
 20
-6.710832879358643
 30
0.0
  0
VERTEX
  5
2B9
  8
LAYER_1
 10
-38.52330047512078
 20
-6.751998118130571
 30
0.0
  0
VERTEX
  5
2BA
  8
LAYER_1
 10
-38.54262466915796
 20
-6.778803556938067
 30
0.0
  0
VERTEX
  5
2BB
  8
LAYER_1
 10
-38.57279360651896
 20
-6.789464142987814
 30
0.0
  0
VERTEX
  5
2BC
  8
LAYER_1
 10
-38.61144920804302
 20
-6.782194823486496
 30
0.0
  0
VERTEX
  5
2BD
  8
LAYER_1
 10
-38.65623339456939
 20
-6.755210545640795
 30
0.0
  0
VERTEX
  5
2BE
  8
LAYER_1
 10
-38.70478808693731
 20
-6.70672625665739
 30
0.0
  0
VERTEX
  5
2BF
  8
LAYER_1
 10
-38.77253540594183
 20
-6.637077962413663
 30
0.0
  0
VERTEX
  5
2C0
  8
LAYER_1
 10
-38.85498759294533
 20
-6.573359618175232
 30
0.0
  0
VERTEX
  5
2C1
  8
LAYER_1
 10
-38.95154783292855
 20
-6.515815996111412
 30
0.0
  0
VERTEX
  5
2C2
  8
LAYER_1
 10
-39.06161931087228
 20
-6.464691868391517
 30
0.0
  0
VERTEX
  5
2C3
  8
LAYER_1
 10
-39.18460521175724
 20
-6.420232007184865
 30
0.0
  0
VERTEX
  5
2C4
  8
LAYER_1
 10
-39.31990872056419
 20
-6.382681184660769
 30
0.0
  0
VERTEX
  5
2C5
  8
LAYER_1
 10
-39.46693302227389
 20
-6.352284172988546
 30
0.0
  0
VERTEX
  5
2C6
  8
LAYER_1
 10
-39.6250813018671
 20
-6.329285744337511
 30
0.0
  0
VERTEX
  5
2C7
  8
LAYER_1
 10
-39.8033203810906
 20
-6.312669025965056
 30
0.0
  0
VERTEX
  5
2C8
  8
LAYER_1
 10
-39.95994813885282
 20
-6.307309605004027
 30
0.0
  0
VERTEX
  5
2C9
  8
LAYER_1
 10
-40.09520194252034
 20
-6.313260192611725
 30
0.0
  0
VERTEX
  5
2CA
  8
LAYER_1
 10
-40.20931915945978
 20
-6.330573499945446
 30
0.0
  0
VERTEX
  5
2CB
  8
LAYER_1
 10
-40.30253715703775
 20
-6.359302238162485
 30
0.0
  0
VERTEX
  5
2CC
  8
LAYER_1
 10
-40.37509330262084
 20
-6.399499118420138
 30
0.0
  0
VERTEX
  5
2CD
  8
LAYER_1
 10
-40.42722496357567
 20
-6.451216851875704
 30
0.0
  0
VERTEX
  5
2CE
  8
LAYER_1
 10
-40.45916950726884
 20
-6.514508149686478
 30
0.0
  0
VERTEX
  5
2CF
  8
LAYER_1
 10
-40.49500077649061
 20
-6.580473072689262
 30
0.0
  0
VERTEX
  5
2D0
  8
LAYER_1
 10
-40.56821704920349
 20
-6.683025559751883
 30
0.0
  0
VERTEX
  5
2D1
  8
LAYER_1
 10
-40.78857997401108
 20
-6.953398082354608
 30
0.0
  0
VERTEX
  5
2D2
  8
LAYER_1
 10
-41.04380901950878
 20
-7.236635430090602
 30
0.0
  0
VERTEX
  5
2D3
  8
LAYER_1
 10
-41.16060794308429
 20
-7.355268948569808
 30
0.0
  0
VERTEX
  5
2D4
  8
LAYER_1
 10
-41.25745492351376
 20
-7.443747315555811
 30
0.0
  0
VERTEX
  5
2D5
  8
LAYER_1
 10
-41.51415590283901
 20
-7.685745467710134
 30
0.0
  0
VERTEX
  5
2D6
  8
LAYER_1
 10
-41.62585468695625
 20
-7.791087355945814
 30
0.0
  0
VERTEX
  5
2D7
  8
LAYER_1
 10
-41.7237169155349
 20
-7.870745418857249
 30
0.0
  0
VERTEX
  5
2D8
  8
LAYER_1
 10
-41.814673280648
 20
-7.926411886137881
 30
0.0
  0
VERTEX
  5
2D9
  8
LAYER_1
 10
-41.90565447436862
 20
-7.959778987481155
 30
0.0
  0
VERTEX
  5
2DA
  8
LAYER_1
 10
-42.00359118876979
 20
-7.972538952580516
 30
0.0
  0
VERTEX
  5
2DB
  8
LAYER_1
 10
-42.11541411592458
 20
-7.966384011129406
 30
0.0
  0
VERTEX
  5
2DC
  8
LAYER_1
 10
-42.24805394790604
 20
-7.943006392821273
 30
0.0
  0
VERTEX
  5
2DD
  8
LAYER_1
 10
-42.4084413767872
 20
-7.904098327349558
 30
0.0
  0
VERTEX
  5
2DE
  8
LAYER_1
 10
-42.62561532601986
 20
-7.854321341637506
 30
0.0
  0
VERTEX
  5
2DF
  8
LAYER_1
 10
-42.79704824994454
 20
-7.832697074718416
 30
0.0
  0
VERTEX
  5
2E0
  8
LAYER_1
 10
-42.93941436245296
 20
-7.838378371357056
 30
0.0
  0
VERTEX
  5
2E1
  8
LAYER_1
 10
-43.06938787743685
 20
-7.870518076318191
 30
0.0
  0
VERTEX
  5
2E2
  8
LAYER_1
 10
-43.17523158353426
 20
-7.901378382489311
 30
0.0
  0
VERTEX
  5
2E3
  8
LAYER_1
 10
-43.29487901745349
 20
-7.926650303237087
 30
0.0
  0
VERTEX
  5
2E4
  8
LAYER_1
 10
-43.41364766397668
 20
-7.943725925363963
 30
0.0
  0
VERTEX
  5
2E5
  8
LAYER_1
 10
-43.51685500788598
 20
-7.949997335672379
 30
0.0
  0
VERTEX
  5
2E6
  8
LAYER_1
 10
-43.57407421795645
 20
-7.955950629144359
 30
0.0
  0
VERTEX
  5
2E7
  8
LAYER_1
 10
-43.64466552141531
 20
-7.973054061708714
 30
0.0
  0
VERTEX
  5
2E8
  8
LAYER_1
 10
-43.81798390510369
 20
-8.03617265700502
 30
0.0
  0
VERTEX
  5
2E9
  8
LAYER_1
 10
-44.02084915216203
 20
-8.130275747342248
 30
0.0
  0
VERTEX
  5
2EA
  8
LAYER_1
 10
-44.23730025580127
 20
-8.24628595850135
 30
0.0
  0
VERTEX
  5
2EB
  8
LAYER_1
 10
-44.45137620923235
 20
-8.37512591626328
 30
0.0
  0
VERTEX
  5
2EC
  8
LAYER_1
 10
-44.64711600566621
 20
-8.507718246408986
 30
0.0
  0
VERTEX
  5
2ED
  8
LAYER_1
 10
-44.80855863831375
 20
-8.634985574719423
 30
0.0
  0
VERTEX
  5
2EE
  8
LAYER_1
 10
-44.91974310038593
 20
-8.74785052697554
 30
0.0
  0
VERTEX
  5
2EF
  8
LAYER_1
 10
-44.98002598172906
 20
-8.835775105388922
 30
0.0
  0
VERTEX
  5
2F0
  8
LAYER_1
 10
-45.02939244592754
 20
-8.929267179102613
 30
0.0
  0
VERTEX
  5
2F1
  8
LAYER_1
 10
-45.06274816498058
 20
-9.017156625195943
 30
0.0
  0
VERTEX
  5
2F2
  8
LAYER_1
 10
-45.07499881088734
 20
-9.088273320748243
 30
0.0
  0
VERTEX
  5
2F3
  8
LAYER_1
 10
-45.08280266935233
 20
-9.162624499985803
 30
0.0
  0
VERTEX
  5
2F4
  8
LAYER_1
 10
-45.09710174893106
 20
-9.179559465889577
 30
0.0
  0
VERTEX
  5
2F5
  8
LAYER_1
 10
-45.12237160118282
 20
-9.18246000608043
 30
0.0
  0
VERTEX
  5
2F6
  8
LAYER_1
 10
-45.21794164103207
 20
-9.144535779614618
 30
0.0
  0
VERTEX
  5
2F7
  8
LAYER_1
 10
-45.39374882355332
 20
-9.04560776117087
 30
0.0
  0
VERTEX
  5
2F8
  8
LAYER_1
 10
-45.51263032902739
 20
-8.979432308218499
 30
0.0
  0
VERTEX
  5
2F9
  8
LAYER_1
 10
-45.62064720357449
 20
-8.927570112074319
 30
0.0
  0
VERTEX
  5
2FA
  8
LAYER_1
 10
-45.72486125979749
 20
-8.88861684586126
 30
0.0
  0
VERTEX
  5
2FB
  8
LAYER_1
 10
-45.83233431029929
 20
-8.861168182702253
 30
0.0
  0
VERTEX
  5
2FC
  8
LAYER_1
 10
-45.95012816768275
 20
-8.843819795720227
 30
0.0
  0
VERTEX
  5
2FD
  8
LAYER_1
 10
-46.08530464455073
 20
-8.835167358038117
 30
0.0
  0
VERTEX
  5
2FE
  8
LAYER_1
 10
-46.43605270715183
 20
-8.83833302306536
 30
0.0
  0
VERTEX
  5
2FF
  8
LAYER_1
 10
-46.53802153077308
 20
-8.844398198068895
 30
0.0
  0
VERTEX
  5
300
  8
LAYER_1
 10
-46.62822137926405
 20
-8.85659126134532
 30
0.0
  0
VERTEX
  5
301
  8
LAYER_1
 10
-46.71100379021155
 20
-8.876882071633325
 30
0.0
  0
VERTEX
  5
302
  8
LAYER_1
 10
-46.7907203012024
 20
-8.907240487671599
 30
0.0
  0
VERTEX
  5
303
  8
LAYER_1
 10
-46.8717224498234
 20
-8.94963636819883
 30
0.0
  0
VERTEX
  5
304
  8
LAYER_1
 10
-46.95836177366137
 20
-9.006039571953705
 30
0.0
  0
VERTEX
  5
305
  8
LAYER_1
 10
-47.16595809733545
 20
-9.168747384101152
 30
0.0
  0
VERTEX
  5
306
  8
LAYER_1
 10
-47.33644579777408
 20
-9.322078047232498
 30
0.0
  0
VERTEX
  5
307
  8
LAYER_1
 10
-47.45658949701148
 20
-9.455667755617446
 30
0.0
  0
VERTEX
  5
308
  8
LAYER_1
 10
-47.49846441112859
 20
-9.515948274910457
 30
0.0
  0
VERTEX
  5
309
  8
LAYER_1
 10
-47.52857180288404
 20
-9.57235978327339
 30
0.0
  0
VERTEX
  5
30A
  8
LAYER_1
 10
-47.5471844982574
 20
-9.62525768995842
 30
0.0
  0
VERTEX
  5
30B
  8
LAYER_1
 10
-47.55457532322821
 20
-9.67499740421772
 30
0.0
  0
VERTEX
  5
30C
  8
LAYER_1
 10
-47.56031872388474
 20
-9.740590695388637
 30
0.0
  0
VERTEX
  5
30D
  8
LAYER_1
 10
-47.5705856592409
 20
-9.780580158415598
 30
0.0
  0
VERTEX
  5
30E
  8
LAYER_1
 10
-47.58392252290539
 20
-9.791811436790017
 30
0.0
  0
VERTEX
  5
30F
  8
LAYER_1
 10
-47.5988757084869
 20
-9.771130174003304
 30
0.0
  0
VERTEX
  5
310
  8
LAYER_1
 10
-47.65158838128248
 20
-9.695611912437558
 30
0.0
  0
VERTEX
  5
311
  8
LAYER_1
 10
-47.74929385007847
 20
-9.602329496655107
 30
0.0
  0
VERTEX
  5
312
  8
LAYER_1
 10
-47.87889670089288
 20
-9.499861669869283
 30
0.0
  0
VERTEX
  5
313
  8
LAYER_1
 10
-48.02730151974369
 20
-9.396787175293415
 30
0.0
  0
VERTEX
  5
314
  8
LAYER_1
 10
-48.18141289264892
 20
-9.301684756140832
 30
0.0
  0
VERTEX
  5
315
  8
LAYER_1
 10
-48.32813540562654
 20
-9.223133155624865
 30
0.0
  0
VERTEX
  5
316
  8
LAYER_1
 10
-48.45437364469458
 20
-9.16971111695884
 30
0.0
  0
VERTEX
  5
317
  8
LAYER_1
 10
-48.54703219587101
 20
-9.149997383356094
 30
0.0
  0
VERTEX
  5
318
  8
LAYER_1
 10
-48.73646889333894
 20
-9.149997383356094
 30
0.0
  0
VERTEX
  5
319
  8
LAYER_1
 10
-48.63340553542984
 20
-8.718747366219759
 30
0.0
  0
VERTEX
  5
31A
  8
LAYER_1
 10
-48.57164323026578
 20
-8.436838106784668
 30
0.0
  0
VERTEX
  5
31B
  8
LAYER_1
 10
-48.5344289258025
 20
-8.191957357082991
 30
0.0
  0
VERTEX
  5
31C
  8
LAYER_1
 10
-48.5244418482565
 20
-7.96721173024424
 30
0.0
  0
VERTEX
  5
31D
  8
LAYER_1
 10
-48.53049577777013
 20
-7.857110404501435
 30
0.0
  0
VERTEX
  5
31E
  8
LAYER_1
 10
-48.54436122384426
 20
-7.745707839397928
 30
0.0
  0
VERTEX
  5
31F
  8
LAYER_1
 10
-48.59686627878224
 20
-7.510552297673569
 30
0.0
  0
VERTEX
  5
320
  8
LAYER_1
 10
-48.68463623928695
 20
-7.244851718200673
 30
0.0
  0
VERTEX
  5
321
  8
LAYER_1
 10
-48.81035033157484
 20
-6.931712714108754
 30
0.0
  0
VERTEX
  5
322
  8
LAYER_1
 10
-48.97668778186241
 20
-6.554241898527323
 30
0.0
  0
VERTEX
  5
323
  8
LAYER_1
 10
-49.04383166069752
 20
-6.425936635549047
 30
0.0
  0
VERTEX
  5
324
  8
LAYER_1
 10
-49.12701884120268
 20
-6.301468123759448
 30
0.0
  0
VERTEX
  5
325
  8
LAYER_1
 10
-49.2246387358549
 20
-6.18233697730203
 30
0.0
  0
VERTEX
  5
326
  8
LAYER_1
 10
-49.33508075713115
 20
-6.0700438103203
 30
0.0
  0
VERTEX
  5
327
  8
LAYER_1
 10
-49.45673431750848
 20
-5.966089236957761
 30
0.0
  0
VERTEX
  5
328
  8
LAYER_1
 10
-49.58798882946387
 20
-5.871973871357921
 30
0.0
  0
VERTEX
  5
329
  8
LAYER_1
 10
-49.72723370547433
 20
-5.789198327664282
 30
0.0
  0
VERTEX
  5
32A
  8
LAYER_1
 10
-49.87285835801687
 20
-5.719263220020352
 30
0.0
  0
VERTEX
  5
32B
  8
LAYER_1
 10
-50.09280769624306
 20
-5.620405791138158
 30
0.0
  0
VERTEX
  5
32C
  8
LAYER_1
 10
-50.24999901652336
 20
-5.540658744717334
 30
0.0
  0
VERTEX
  5
32D
  8
LAYER_1
 10
-50.47828171546529
 20
-5.410510342444952
 30
0.0
  0
VERTEX
  5
32E
  8
LAYER_1
 10
-50.67583808644709
 20
-5.309197168612354
 30
0.0
  0
VERTEX
  5
32F
  8
LAYER_1
 10
-50.85418724253577
 20
-5.233931035988635
 30
0.0
  0
VERTEX
  5
330
  8
LAYER_1
 10
-51.02484829679831
 20
-5.181923757342894
 30
0.0
  0
VERTEX
  5
331
  8
LAYER_1
 10
-51.19934036230173
 20
-5.150387145444225
 30
0.0
  0
VERTEX
  5
332
  8
LAYER_1
 10
-51.389182552113
 20
-5.136533013061726
 30
0.0
  0
VERTEX
  5
333
  8
LAYER_1
 10
-51.60589397929913
 20
-5.137573172964493
 30
0.0
  0
VERTEX
  5
334
  8
LAYER_1
 10
-51.86099375692712
 20
-5.150719437921623
 30
0.0
  0
VERTEX
  5
335
  8
LAYER_1
 10
-52.2707490040402
 20
-5.18415395462709
 30
0.0
  0
VERTEX
  5
336
  8
LAYER_1
 10
-52.41915850541181
 20
-5.205568354505374
 30
0.0
  0
VERTEX
  5
337
  8
LAYER_1
 10
-52.54424392708329
 20
-5.23418147078398
 30
0.0
  0
VERTEX
  5
338
  8
LAYER_1
 10
-52.65674627037205
 20
-5.273043770000376
 30
0.0
  0
VERTEX
  5
339
  8
LAYER_1
 10
-52.76740653659545
 20
-5.325205718692027
 30
0.0
  0
VERTEX
  5
33A
  8
LAYER_1
 10
-53.02616484311574
 20
-5.481630430650966
 30
0.0
  0
VERTEX
  5
33B
  8
LAYER_1
 10
-53.20354776417975
 20
-5.605291047722591
 30
0.0
  0
VERTEX
  5
33C
  8
LAYER_1
 10
-53.36267116225998
 20
-5.73267645359743
 30
0.0
  0
VERTEX
  5
33D
  8
LAYER_1
 10
-53.4861324607357
 20
-5.848791047138441
 30
0.0
  0
VERTEX
  5
33E
  8
LAYER_1
 10
-53.55652908298616
 20
-5.938639227208583
 30
0.0
  0
VERTEX
  5
33F
  8
LAYER_1
 10
-53.60280159027067
 20
-6.013560856991178
 30
0.0
  0
VERTEX
  5
340
  8
LAYER_1
 10
-53.66057841730442
 20
-6.089033853214643
 30
0.0
  0
VERTEX
  5
341
  8
LAYER_1
 10
-53.72248879765056
 20
-6.156269695059517
 30
0.0
  0
VERTEX
  5
342
  8
LAYER_1
 10
-53.78116196487217
 20
-6.206479861706342
 30
0.0
  0
VERTEX
  5
343
  8
LAYER_1
 10
-53.83938387373268
 20
-6.263666080966832
 30
0.0
  0
VERTEX
  5
344
  8
LAYER_1
 10
-53.90006558032331
 20
-6.34989612547268
 30
0.0
  0
VERTEX
  5
345
  8
LAYER_1
 10
-53.95602397019894
 20
-6.453480541634385
 30
0.0
  0
VERTEX
  5
346
  8
LAYER_1
 10
-54.00007592891443
 20
-6.562729875862445
 30
0.0
  0
VERTEX
  5
347
  8
LAYER_1
 10
-54.03947044343434
 20
-6.664563395634243
 30
0.0
  0
VERTEX
  5
348
  8
LAYER_1
 10
-54.08274767337153
 20
-6.747956237781372
 30
0.0
  0
VERTEX
  5
349
  8
LAYER_1
 10
-54.12466126325326
 20
-6.804302752745651
 30
0.0
  0
VERTEX
  5
34A
  8
LAYER_1
 10
-54.14346720708811
 20
-6.819644372047288
 30
0.0
  0
VERTEX
  5
34B
  8
LAYER_1
 10
-54.15996485760682
 20
-6.824997290968895
 30
0.0
  0
VERTEX
  5
34C
  8
LAYER_1
 10
-54.17859156181468
 20
-6.833506568767553
 30
0.0
  0
VERTEX
  5
34D
  8
LAYER_1
 10
-54.20349943464377
 20
-6.857894403223993
 30
0.0
  0
VERTEX
  5
34E
  8
LAYER_1
 10
-54.26782411599014
 20
-6.947465748473023
 30
0.0
  0
VERTEX
  5
34F
  8
LAYER_1
 10
-54.34426976129498
 20
-7.080031339441589
 30
0.0
  0
VERTEX
  5
350
  8
LAYER_1
 10
-54.42416723020733
 20
-7.241911188855298
 30
0.0
  0
VERTEX
  5
351
  8
LAYER_1
 10
-54.49597545123144
 20
-7.415607142948692
 30
0.0
  0
VERTEX
  5
352
  8
LAYER_1
 10
-54.54444877674602
 20
-7.575846160275178
 30
0.0
  0
VERTEX
  5
353
  8
LAYER_1
 10
-54.56920558907964
 20
-7.727526046321164
 30
0.0
  0
VERTEX
  5
354
  8
LAYER_1
 10
-54.56986427056087
 20
-7.875544606573055
 30
0.0
  0
VERTEX
  5
355
  8
LAYER_1
 10
-54.54604320351832
 20
-8.024799646517256
 30
0.0
  0
VERTEX
  5
356
  8
LAYER_1
 10
-54.49736077028055
 20
-8.180188971640174
 30
0.0
  0
VERTEX
  5
357
  8
LAYER_1
 10
-54.42343535317615
 20
-8.346610387428216
 30
0.0
  0
VERTEX
  5
358
  8
LAYER_1
 10
-54.32388533453371
 20
-8.528961699367784
 30
0.0
  0
VERTEX
  5
359
  8
LAYER_1
 10
-54.23672879216413
 20
-8.68639385846333
 30
0.0
  0
VERTEX
  5
35A
  8
LAYER_1
 10
-54.19702959314121
 20
-8.784830944588156
 30
0.0
  0
VERTEX
  5
35B
  8
LAYER_1
 10
-54.19415704630769
 20
-8.815463637904482
 30
0.0
  0
VERTEX
  5
35C
  8
LAYER_1
 10
-54.20216549401839
 20
-8.835592326119643
 30
0.0
  0
VERTEX
  5
35D
  8
LAYER_1
 10
-54.22072715584247
 20
-8.846631930280815
 30
0.0
  0
VERTEX
  5
35E
  8
LAYER_1
 10
-54.2495142513491
 20
-8.849997371435165
 30
0.0
  0
VERTEX
  5
35F
  8
LAYER_1
 10
-54.28052398129683
 20
-8.857638577913471
 30
0.0
  0
VERTEX
  5
360
  8
LAYER_1
 10
-54.3252199618524
 20
-8.879538495045075
 30
0.0
  0
VERTEX
  5
361
  8
LAYER_1
 10
-54.44724808902554
 20
-8.959972247448299
 30
0.0
  0
VERTEX
  5
362
  8
LAYER_1
 10
-54.59875346134548
 20
-9.079014201005073
 30
0.0
  0
VERTEX
  5
363
  8
LAYER_1
 10
-54.76289090728919
 20
-9.224379928075635
 30
0.0
  0
VERTEX
  5
364
  8
LAYER_1
 10
-55.05906817561677
 20
-9.488968987067032
 30
0.0
  0
VERTEX
  5
365
  8
LAYER_1
 10
-55.1600258803857
 20
-9.56959907190159
 30
0.0
  0
VERTEX
  5
366
  8
LAYER_1
 10
-55.21000186131924
 20
-9.599379942976796
 30
0.0
  0
VERTEX
  5
367
  8
LAYER_1
 10
-55.23249374178251
 20
-9.612935120658683
 30
0.0
  0
VERTEX
  5
368
  8
LAYER_1
 10
-55.25861849972639
 20
-9.649386337343152
 30
0.0
  0
VERTEX
  5
369
  8
LAYER_1
 10
-55.30879946285454
 20
-9.76874740794301
 30
0.0
  0
VERTEX
  5
36A
  8
LAYER_1
 10
-55.33948872619247
 20
-9.850375931108703
 30
0.0
  0
VERTEX
  5
36B
  8
LAYER_1
 10
-55.35381956147873
 20
-9.865281285002064
 30
0.0
  0
VERTEX
  5
36C
  8
LAYER_1
 10
-55.36921816129369
 20
-9.861473314607556
 30
0.0
  0
VERTEX
  5
36D
  8
LAYER_1
 10
-55.4084495408612
 20
-9.793395243470286
 30
0.0
  0
VERTEX
  5
36E
  8
LAYER_1
 10
-55.46764463759804
 20
-9.637497402727604
 30
0.0
  0
VERTEX
  5
36F
  8
LAYER_1
 10
-55.52402246016011
 20
-9.504014945741925
 30
0.0
  0
VERTEX
  5
370
  8
LAYER_1
 10
-55.59802179377245
 20
-9.362342423157617
 30
0.0
  0
VERTEX
  5
371
  8
LAYER_1
 10
-55.68003483803791
 20
-9.229392092781621
 30
0.0
  0
VERTEX
  5
372
  8
LAYER_1
 10
-55.7604537925593
 20
-9.122076212420879
 30
0.0
  0
VERTEX
  5
373
  8
LAYER_1
 10
-55.85452038411466
 20
-9.005897649978284
 30
0.0
  0
VERTEX
  5
374
  8
LAYER_1
 10
-55.92544003427439
 20
-8.902391208525922
 30
0.0
  0
VERTEX
  5
375
  8
LAYER_1
 10
-55.973437275764
 20
-8.810321295649995
 30
0.0
  0
VERTEX
  5
376
  8
LAYER_1
 10
-55.99873664130904
 20
-8.728452318936707
 30
0.0
  0
VERTEX
  5
377
  8
LAYER_1
 10
-56.00156266363503
 20
-8.655548685972258
 30
0.0
  0
VERTEX
  5
378
  8
LAYER_1
 10
-55.9821398754675
 20
-8.59037480434285
 30
0.0
  0
VERTEX
  5
379
  8
LAYER_1
 10
-55.94069280953198
 20
-8.531695081634687
 30
0.0
  0
VERTEX
  5
37A
  8
LAYER_1
 10
-55.87744599855402
 20
-8.478273925433967
 30
0.0
  0
VERTEX
  5
37B
  8
LAYER_1
 10
-55.71586875496757
 20
-8.359745514600071
 30
0.0
  0
VERTEX
  5
37C
  8
LAYER_1
 10
-55.55810912056889
 20
-8.230875476841408
 30
0.0
  0
VERTEX
  5
37D
  8
LAYER_1
 10
-55.4070968447558
 20
-8.09472221369402
 30
0.0
  0
VERTEX
  5
37E
  8
LAYER_1
 10
-55.26576167692613
 20
-7.954344126693952
 30
0.0
  0
VERTEX
  5
37F
  8
LAYER_1
 10
-55.13703336647772
 20
-7.812799617377248
 30
0.0
  0
VERTEX
  5
380
  8
LAYER_1
 10
-55.02384166280841
 20
-7.673147087279952
 30
0.0
  0
VERTEX
  5
381
  8
LAYER_1
 10
-54.92911631531604
 20
-7.538444937938108
 30
0.0
  0
VERTEX
  5
382
  8
LAYER_1
 10
-54.85578707339842
 20
-7.411751570887759
 30
0.0
  0
VERTEX
  5
383
  8
LAYER_1
 10
-54.76507388941692
 20
-7.207052401875558
 30
0.0
  0
VERTEX
  5
384
  8
LAYER_1
 10
-54.73351686877852
 20
-7.107647948263073
 30
0.0
  0
VERTEX
  5
385
  8
LAYER_1
 10
-54.70986861948326
 20
-7.003194451068472
 30
0.0
  0
VERTEX
  5
386
  8
LAYER_1
 10
-54.69316093436232
 20
-6.888432562158355
 30
0.0
  0
VERTEX
  5
387
  8
LAYER_1
 10
-54.68242560624685
 20
-6.758102933399323
 30
0.0
  0
VERTEX
  5
388
  8
LAYER_1
 10
-54.67499919235706
 20
-6.429703063800929
 30
0.0
  0
VERTEX
  5
389
  8
LAYER_1
 10
-54.67972768502152
 20
-6.070852362271168
 30
0.0
  0
VERTEX
  5
38A
  8
LAYER_1
 10
-54.68957800695493
 20
-5.950765011089731
 30
0.0
  0
VERTEX
  5
38B
  8
LAYER_1
 10
-54.70792100693609
 20
-5.857964926864341
 30
0.0
  0
VERTEX
  5
38C
  8
LAYER_1
 10
-54.73738315570023
 20
-5.783248560020312
 30
0.0
  0
VERTEX
  5
38D
  8
LAYER_1
 10
-54.78059092398259
 20
-5.717412360982959
 30
0.0
  0
VERTEX
  5
38E
  8
LAYER_1
 10
-54.91874920204282
 20
-5.575566268029533
 30
0.0
  0
VERTEX
  5
38F
  8
LAYER_1
 10
-55.06037782149461
 20
-5.456676157085628
 30
0.0
  0
VERTEX
  5
390
  8
LAYER_1
 10
-55.23111026989951
 20
-5.335639037430953
 30
0.0
  0
VERTEX
  5
391
  8
LAYER_1
 10
-55.42026017459754
 20
-5.218002553295976
 30
0.0
  0
VERTEX
  5
392
  8
LAYER_1
 10
-55.61714116292876
 20
-5.109314348911163
 30
0.0
  0
VERTEX
  5
393
  8
LAYER_1
 10
-55.81106686223319
 20
-5.015122068506978
 30
0.0
  0
VERTEX
  5
394
  8
LAYER_1
 10
-55.99135089985086
 20
-4.940973356313888
 30
0.0
  0
VERTEX
  5
395
  8
LAYER_1
 10
-56.14730690312182
 20
-4.892415856562359
 30
0.0
  0
VERTEX
  5
396
  8
LAYER_1
 10
-56.2682484993861
 20
-4.874997213482857
 30
0.0
  0
VERTEX
  5
397
  8
LAYER_1
 10
-56.36450247374179
 20
-4.86849601374326
 30
0.0
  0
VERTEX
  5
398
  8
LAYER_1
 10
-56.46645347143432
 20
-4.850794727323565
 30
0.0
  0
VERTEX
  5
399
  8
LAYER_1
 10
-56.56194243336654
 20
-4.824596823422416
 30
0.0
  0
VERTEX
  5
39A
  8
LAYER_1
 10
-56.63881030044134
 20
-4.792605771238456
 30
0.0
  0
VERTEX
  5
39B
  8
LAYER_1
 10
-56.68407915937617
 20
-4.772585651643506
 30
0.0
  0
VERTEX
  5
39C
  8
LAYER_1
 10
-56.73364029021113
 20
-4.7594387910133
 30
0.0
  0
VERTEX
  5
39D
  8
LAYER_1
 10
-56.78937784598867
 20
-4.75329132558336
 30
0.0
  0
VERTEX
  5
39E
  8
LAYER_1
 10
-56.85317597975124
 20
-4.754269391589204
 30
0.0
  0
VERTEX
  5
39F
  8
LAYER_1
 10
-57.01249059340127
 20
-4.778106662850321
 30
0.0
  0
VERTEX
  5
3A0
  8
LAYER_1
 10
-57.22665735550079
 20
-4.831959694680805
 30
0.0
  0
VERTEX
  5
3A1
  8
LAYER_1
 10
-57.48108245002558
 20
-4.897048489124731
 30
0.0
  0
VERTEX
  5
3A2
  8
LAYER_1
 10
-57.57861592443605
 20
-4.911813356518488
 30
0.0
  0
VERTEX
  5
3A3
  8
LAYER_1
 10
-57.66929288633091
 20
-4.914150765438611
 30
0.0
  0
VERTEX
  5
3A4
  8
LAYER_1
 10
-57.76281048774941
 20
-4.90362988694398
 30
0.0
  0
VERTEX
  5
3A5
  8
LAYER_1
 10
-57.86886588073081
 20
-4.879819892093471
 30
0.0
  0
VERTEX
  5
3A6
  8
LAYER_1
 10
-58.15737864953938
 20
-4.790609237560332
 30
0.0
  0
VERTEX
  5
3A7
  8
LAYER_1
 10
-58.42181676007958
 20
-4.710450143500182
 30
0.0
  0
VERTEX
  5
3A8
  8
LAYER_1
 10
-58.52456115001733
 20
-4.686637418933698
 30
0.0
  0
VERTEX
  5
3A9
  8
LAYER_1
 10
-58.61398291617466
 20
-4.673017621857461
 30
0.0
  0
VERTEX
  5
3AA
  8
LAYER_1
 10
-58.69482742338241
 20
-4.669102036657366
 30
0.0
  0
VERTEX
  5
3AB
  8
LAYER_1
 10
-58.7718400364714
 20
-4.674401947719304
 30
0.0
  0
VERTEX
  5
3AC
  8
LAYER_1
 10
-58.93335103961655
 20
-4.710693396172843
 30
0.0
  0
VERTEX
  5
3AD
  8
LAYER_1
 10
-59.07549174309716
 20
-4.739677893241781
 30
0.0
  0
VERTEX
  5
3AE
  8
LAYER_1
 10
-59.25498488072124
 20
-4.756649225160849
 30
0.0
  0
VERTEX
  5
3AF
  8
LAYER_1
 10
-59.44959343775189
 20
-4.760377013534123
 30
0.0
  0
VERTEX
  5
3B0
  8
LAYER_1
 10
-59.63708039945217
 20
-4.749630879965679
 30
0.0
  0
VERTEX
  5
3B1
  8
LAYER_1
 10
-59.8169921618049
 20
-4.736230889701824
 30
0.0
  0
VERTEX
  5
3B2
  8
LAYER_1
 10
-59.99298675323276
 20
-4.732451267489045
 30
0.0
  0
VERTEX
  5
3B3
  8
LAYER_1
 10
-60.14487215094418
 20
-4.738172445382214
 30
0.0
  0
VERTEX
  5
3B4
  8
LAYER_1
 10
-60.25245633214759
 20
-4.753274855436203
 30
0.0
  0
VERTEX
  5
3B5
  8
LAYER_1
 10
-60.29986424847907
 20
-4.772890359478151
 30
0.0
  0
VERTEX
  5
3B6
  8
LAYER_1
 10
-60.35506427967324
 20
-4.808886210142768
 30
0.0
  0
VERTEX
  5
3B7
  8
LAYER_1
 10
-60.48331125207137
 20
-4.922576559700471
 30
0.0
  0
VERTEX
  5
3B8
  8
LAYER_1
 10
-60.62613838018543
 20
-5.079461120830237
 30
0.0
  0
VERTEX
  5
3B9
  8
LAYER_1
 10
-60.77248679485886
 20
-5.26465511025299
 30
0.0
  0
VERTEX
  5
3BA
  8
LAYER_1
 10
-60.91129762693512
 20
-5.463273744689656
 30
0.0
  0
VERTEX
  5
3BB
  8
LAYER_1
 10
-61.03151200725767
 20
-5.66043224086116
 30
0.0
  0
VERTEX
  5
3BC
  8
LAYER_1
 10
-61.12207106666995
 20
-5.841245815488428
 30
0.0
  0
VERTEX
  5
3BD
  8
LAYER_1
 10
-61.15277395442331
 20
-5.920871762448261
 30
0.0
  0
VERTEX
  5
3BE
  8
LAYER_1
 10
-61.1719159360154
 20
-5.990829685292383
 30
0.0
  0
VERTEX
  5
3BF
  8
LAYER_1
 10
-61.19527873515426
 20
-6.081752566676621
 30
0.0
  0
VERTEX
  5
3C0
  8
LAYER_1
 10
-61.22426945146556
 20
-6.156210539963109
 30
0.0
  0
VERTEX
  5
3C1
  8
LAYER_1
 10
-61.25519803979543
 20
-6.206519981372897
 30
0.0
  0
VERTEX
  5
3C2
  8
LAYER_1
 10
-61.28437445499003
 20
-6.224997267127037
 30
0.0
  0
VERTEX
  5
3C3
  8
LAYER_1
 10
-61.3098554130338
 20
-6.233874220604775
 30
0.0
  0
VERTEX
  5
3C4
  8
LAYER_1
 10
-61.33072211308172
 20
-6.258044143440202
 30
0.0
  0
VERTEX
  5
3C5
  8
LAYER_1
 10
-61.34482123473572
 20
-6.293815629236633
 30
0.0
  0
VERTEX
  5
3C6
  8
LAYER_1
 10
-61.34999945759773
 20
-6.337497271597385
 30
0.0
  0
VERTEX
  5
3C7
  8
LAYER_1
 10
-61.3557983873708
 20
-6.418207771043226
 30
0.0
  0
VERTEX
  5
3C8
  8
LAYER_1
 10
-61.37071385000281
 20
-6.435472652995666
 30
0.0
  0
VERTEX
  5
3C9
  8
LAYER_1
 10
-61.40045491150128
 20
-6.43586983289714
 30
0.0
  0
VERTEX
  5
3CA
  8
LAYER_1
 10
-61.52485863220608
 20
-6.381638715935248
 30
0.0
  0
VERTEX
  5
3CB
  8
LAYER_1
 10
-61.76989915170212
 20
-6.246669678933671
 30
0.0
  0
VERTEX
  5
3CC
  8
LAYER_1
 10
-61.92006146959463
 20
-6.171181450996515
 30
0.0
  0
VERTEX
  5
3CD
  8
LAYER_1
 10
-62.07377932723789
 20
-6.114380445374637
 30
0.0
  0
VERTEX
  5
3CE
  8
LAYER_1
 10
-62.24251248791066
 20
-6.075556062730756
 30
0.0
  0
VERTEX
  5
3CF
  8
LAYER_1
 10
-62.43772071489175
 20
-6.053997703727592
 30
0.0
  0
VERTEX
  5
3D0
  8
LAYER_1
 10
-62.67086377145994
 20
-6.048994769027862
 30
0.0
  0
VERTEX
  5
3D1
  8
LAYER_1
 10
-62.95340142089404
 20
-6.059836659294287
 30
0.0
  0
VERTEX
  5
3D2
  8
LAYER_1
 10
-63.29679342647281
 20
-6.085812775189584
 30
0.0
  0
VERTEX
  5
3D3
  8
LAYER_1
 10
-63.71249955147505
 20
-6.126212517376473
 30
0.0
  0
VERTEX
  5
3D4
  8
LAYER_1
 10
-63.94199585997417
 20
-6.154775421121812
 30
0.0
  0
VERTEX
  5
3D5
  8
LAYER_1
 10
-64.1453738836278
 20
-6.190164115452315
 30
0.0
  0
VERTEX
  5
3D6
  8
LAYER_1
 10
-64.3233627144148
 20
-6.232655559709593
 30
0.0
  0
VERTEX
  5
3D7
  8
LAYER_1
 10
-64.47669144431406
 20
-6.282526713235253
 30
0.0
  0
VERTEX
  5
3D8
  8
LAYER_1
 10
-64.60608916530444
 20
-6.340054535370905
 30
0.0
  0
VERTEX
  5
3D9
  8
LAYER_1
 10
-64.71228496936482
 20
-6.405515985458158
 30
0.0
  0
VERTEX
  5
3DA
  8
LAYER_1
 10
-64.79600794847404
 20
-6.47918802283862
 30
0.0
  0
VERTEX
  5
3DB
  8
LAYER_1
 10
-64.85798719461103
 20
-6.5613476068539
 30
0.0
  0
VERTEX
  5
3DC
  8
LAYER_1
 10
-64.90349222194133
 20
-6.612217731110906
 30
0.0
  0
VERTEX
  5
3DD
  8
LAYER_1
 10
-64.98709469829075
 20
-6.682847817087262
 30
0.0
  0
VERTEX
  5
3DE
  8
LAYER_1
 10
-65.09688481582481
 20
-6.763896917801991
 30
0.0
  0
VERTEX
  5
3DF
  8
LAYER_1
 10
-65.22095276670903
 20
-6.846024086274113
 30
0.0
  0
VERTEX
  5
3E0
  8
LAYER_1
 10
-65.32658981424262
 20
-6.918871047723643
 30
0.0
  0
VERTEX
  5
3E1
  8
LAYER_1
 10
-65.42596947271298
 20
-7.00125170376
 30
0.0
  0
VERTEX
  5
3E2
  8
LAYER_1
 10
-65.51896685228573
 20
-7.092858971407646
 30
0.0
  0
VERTEX
  5
3E3
  8
LAYER_1
 10
-65.60545706312644
 20
-7.193385767691046
 30
0.0
  0
VERTEX
  5
3E4
  8
LAYER_1
 10
-65.6853152154007
 20
-7.302525009634662
 30
0.0
  0
VERTEX
  5
3E5
  8
LAYER_1
 10
-65.75841641927413
 20
-7.419969614262961
 30
0.0
  0
VERTEX
  5
3E6
  8
LAYER_1
 10
-65.8246357849123
 20
-7.545412498600403
 30
0.0
  0
VERTEX
  5
3E7
  8
LAYER_1
 10
-65.88384842248084
 20
-7.678546579671453
 30
0.0
  0
VERTEX
  5
3E8
  8
LAYER_1
 10
-65.93592944214534
 20
-7.819064774500577
 30
0.0
  0
VERTEX
  5
3E9
  8
LAYER_1
 10
-65.98075395407136
 20
-7.966660000112236
 30
0.0
  0
VERTEX
  5
3EA
  8
LAYER_1
 10
-66.01819706842453
 20
-8.121025173530896
 30
0.0
  0
VERTEX
  5
3EB
  8
LAYER_1
 10
-66.04813389537043
 20
-8.28185321178102
 30
0.0
  0
VERTEX
  5
3EC
  8
LAYER_1
 10
-66.07043954507466
 20
-8.44883703188707
 30
0.0
  0
VERTEX
  5
3ED
  8
LAYER_1
 10
-66.08498912770284
 20
-8.621669550873513
 30
0.0
  0
VERTEX
  5
3EE
  8
LAYER_1
 10
-66.09165775342052
 20
-8.80004368576481
 30
0.0
  0
VERTEX
  5
3EF
  8
LAYER_1
 10
-66.09032053239332
 20
-8.983652353585427
 30
0.0
  0
VERTEX
  5
3F0
  8
LAYER_1
 10
-66.07886568689597
 20
-9.379807346166515
 30
0.0
  0
VERTEX
  5
3F1
  8
LAYER_1
 10
-66.62068268773085
 20
-9.361697581762357
 30
0.0
  0
VERTEX
  5
3F2
  8
LAYER_1
 10
-66.87466207260178
 20
-9.364495566886953
 30
0.0
  0
VERTEX
  5
3F3
  8
LAYER_1
 10
-67.1225185207278
 20
-9.389207451768169
 30
0.0
  0
VERTEX
  5
3F4
  8
LAYER_1
 10
-67.36079532131296
 20
-9.434651563948321
 30
0.0
  0
VERTEX
  5
3F5
  8
LAYER_1
 10
-67.5860357635614
 20
-9.499646230969734
 30
0.0
  0
VERTEX
  5
3F6
  8
LAYER_1
 10
-67.79478313667713
 20
-9.58300978037473
 30
0.0
  0
VERTEX
  5
3F7
  8
LAYER_1
 10
-67.98358072986429
 20
-9.68356053970563
 30
0.0
  0
VERTEX
  5
3F8
  8
LAYER_1
 10
-68.14897183232696
 20
-9.800116836504756
 30
0.0
  0
VERTEX
  5
3F9
  8
LAYER_1
 10
-68.22180972741288
 20
-9.864027788811878
 30
0.0
  0
VERTEX
  5
3FA
  8
LAYER_1
 10
-68.28749973326921
 20
-9.93149699831443
 30
0.0
  0
VERTEX
  5
3FB
  8
LAYER_1
 10
-68.35856349155799
 20
-10.02029004107181
 30
0.0
  0
VERTEX
  5
3FC
  8
LAYER_1
 10
-68.43324869719302
 20
-10.13091302713619
 30
0.0
  0
VERTEX
  5
3FD
  8
LAYER_1
 10
-68.58895420923821
 20
-10.4060049735998
 30
0.0
  0
VERTEX
  5
3FE
  8
LAYER_1
 10
-68.74555778687733
 20
-10.73348512653301
 30
0.0
  0
VERTEX
  5
3FF
  8
LAYER_1
 10
-68.89400094758298
 20
-11.09006577476359
 30
0.0
  0
VERTEX
  5
400
  8
LAYER_1
 10
-69.02522520882772
 20
-11.4524592071193
 30
0.0
  0
VERTEX
  5
401
  8
LAYER_1
 10
-69.1301720880841
 20
-11.7973777124279
 30
0.0
  0
VERTEX
  5
402
  8
LAYER_1
 10
-69.19978310282471
 20
-12.10153357951714
 30
0.0
  0
VERTEX
  5
403
  8
LAYER_1
 10
-69.21850688521178
 20
-12.23104811398818
 30
0.0
  0
VERTEX
  5
404
  8
LAYER_1
 10
-69.22499977052212
 20
-12.34163909721479
 30
0.0
  0
VERTEX
  5
405
  8
LAYER_1
 10
-69.23143342418147
 20
-12.52561105298183
 30
0.0
  0
VERTEX
  5
406
  8
LAYER_1
 10
-69.24519630761424
 20
-12.58692737493415
 30
0.0
  0
VERTEX
  5
407
  8
LAYER_1
 10
-69.27107506554559
 20
-12.63420821414404
 30
0.0
  0
VERTEX
  5
408
  8
LAYER_1
 10
-69.31288357554789
 20
-12.67226178652028
 30
0.0
  0
VERTEX
  5
409
  8
LAYER_1
 10
-69.3744357151935
 20
-12.70589630797167
 30
0.0
  0
VERTEX
  5
40A
  8
LAYER_1
 10
-69.57202639370422
 20
-12.779141061735
 30
0.0
  0
VERTEX
  5
40B
  8
LAYER_1
 10
-69.7067865370635
 20
-12.82853619387741
 30
0.0
  0
VERTEX
  5
40C
  8
LAYER_1
 10
-69.81829507328342
 20
-12.87976214426322
 30
0.0
  0
VERTEX
  5
40D
  8
LAYER_1
 10
-69.91250793410117
 20
-12.93904524922911
 30
0.0
  0
VERTEX
  5
40E
  8
LAYER_1
 10
-69.99538105125393
 20
-13.01261184511177
 30
0.0
  0
VERTEX
  5
40F
  8
LAYER_1
 10
-70.07287035647886
 20
-13.10668826824789
 30
0.0
  0
VERTEX
  5
410
  8
LAYER_1
 10
-70.15093178151311
 20
-13.22750085497415
 30
0.0
  0
VERTEX
  5
411
  8
LAYER_1
 10
-70.33259471795833
 20
-13.57423986454388
 30
0.0
  0
VERTEX
  5
412
  8
LAYER_1
 10
-70.41775968831892
 20
-13.76926502281537
 30
0.0
  0
VERTEX
  5
413
  8
LAYER_1
 10
-70.47919530457315
 20
-13.95699785265295
 30
0.0
  0
VERTEX
  5
414
  8
LAYER_1
 10
-70.51529620865688
 20
-14.13147669551405
 30
0.0
  0
VERTEX
  5
415
  8
LAYER_1
 10
-70.52445704250596
 20
-14.28673989285608
 30
0.0
  0
VERTEX
  5
416
  8
LAYER_1
 10
-70.49743854696794
 20
-14.8761074234976
 30
0.0
  0
VERTEX
  5
417
  8
LAYER_1
 10
-70.4605041266417
 20
-15.35360046364827
 30
0.0
  0
VERTEX
  5
418
  8
LAYER_1
 10
-70.41502333244217
 20
-15.70543745954764
 30
0.0
  0
VERTEX
  5
419
  8
LAYER_1
 10
-70.38950602980086
 20
-15.82992820535295
 30
0.0
  0
VERTEX
  5
41A
  8
LAYER_1
 10
-70.36236571528431
 20
-15.91783685743528
 30
0.0
  0
VERTEX
  5
41B
  8
LAYER_1
 10
-70.31347585765432
 20
-16.01167591373149
 30
0.0
  0
VERTEX
  5
41C
  8
LAYER_1
 10
-70.24108105682707
 20
-16.11521148473913
 30
0.0
  0
VERTEX
  5
41D
  8
LAYER_1
 10
-70.15103647924013
 20
-16.22273930867076
 30
0.0
  0
VERTEX
  5
41E
  8
LAYER_1
 10
-70.0491972913311
 20
-16.32855512373894
 30
0.0
  0
VERTEX
  5
41F
  8
LAYER_1
 10
-69.9414186595375
 20
-16.42695466815625
 30
0.0
  0
VERTEX
  5
420
  8
LAYER_1
 10
-69.83355575029694
 20
-16.51223368013524
 30
0.0
  0
VERTEX
  5
421
  8
LAYER_1
 10
-69.73146373004695
 20
-16.57868789788846
 30
0.0
  0
VERTEX
  5
422
  8
LAYER_1
 10
-69.64099776522514
 20
-16.62061305962851
 30
0.0
  0
VERTEX
  5
423
  8
LAYER_1
 10
-69.50797265472526
 20
-16.68490051931417
 30
0.0
  0
VERTEX
  5
424
  8
LAYER_1
 10
-69.444502589075
 20
-16.72746034826725
 30
0.0
  0
VERTEX
  5
425
  8
LAYER_1
 10
-69.39387257681737
 20
-16.77041060086474
 30
0.0
  0
VERTEX
  5
426
  8
LAYER_1
 10
-69.32352704903263
 20
-16.82269153338149
 30
0.0
  0
VERTEX
  5
427
  8
LAYER_1
 10
-69.22388892866455
 20
-16.8722804466897
 30
0.0
  0
VERTEX
  5
428
  8
LAYER_1
 10
-69.10322451389735
 20
-16.91712791071863
 30
0.0
  0
VERTEX
  5
429
  8
LAYER_1
 10
-68.96980010291529
 20
-16.95518449539752
 30
0.0
  0
VERTEX
  5
42A
  8
LAYER_1
 10
-68.83188199390261
 20
-16.98440077065566
 30
0.0
  0
VERTEX
  5
42B
  8
LAYER_1
 10
-68.69773648504359
 20
-17.0027273064223
 30
0.0
  0
VERTEX
  5
42C
  8
LAYER_1
 10
-68.57562987452246
 20
-17.0081146726267
 30
0.0
  0
VERTEX
  5
42D
  8
LAYER_1
 10
-68.47382846052348
 20
-16.99851343919813
 30
0.0
  0
VERTEX
  5
42E
  8
LAYER_1
 10
-68.27529229246933
 20
-16.95880620558731
 30
0.0
  0
VERTEX
  5
42F
  8
LAYER_1
 10
-67.9531567245257
 20
-18.86249776929617
 30
0.0
  0
VERTEX
  5
430
  8
LAYER_1
 10
-67.19738760612678
 20
-23.88749796897173
 30
0.0
  0
VERTEX
  5
431
  8
LAYER_1
 10
-67.05186692905653
 20
-24.9749980121851
 30
0.0
  0
VERTEX
  5
432
  8
LAYER_1
 10
-66.7911831558055
 20
-26.92499808967113
 30
0.0
  0
VERTEX
  5
433
  8
LAYER_1
 10
-66.6760200596247
 20
-27.78749812394381
 30
0.0
  0
VERTEX
  5
434
  8
LAYER_1
 10
-66.28992675731664
 20
-30.86249824613333
 30
0.0
  0
VERTEX
  5
435
  8
LAYER_1
 10
-66.18644187083399
 20
-31.83749828487635
 30
0.0
  0
VERTEX
  5
436
  8
LAYER_1
 10
-65.96517751894322
 20
-33.86249836534262
 30
0.0
  0
VERTEX
  5
437
  8
LAYER_1
 10
-65.84739805353509
 20
-34.91249840706587
 30
0.0
  0
VERTEX
  5
438
  8
LAYER_1
 10
-65.31710040632325
 20
-40.08749861270189
 30
0.0
  0
VERTEX
  5
439
  8
LAYER_1
 10
-65.18445402865427
 20
-41.58749867230654
 30
0.0
  0
VERTEX
  5
43A
  8
LAYER_1
 10
-64.87025011599471
 20
-45.41249882429838
 30
0.0
  0
VERTEX
  5
43B
  8
LAYER_1
 10
-64.80818751806476
 20
-46.01249884814024
 30
0.0
  0
VERTEX
  5
43C
  8
LAYER_1
 10
-64.50734337522348
 20
-49.91249900311232
 30
0.0
  0
VERTEX
  5
43D
  8
LAYER_1
 10
-64.46559228809434
 20
-50.58749902993441
 30
0.0
  0
VERTEX
  5
43E
  8
LAYER_1
 10
-64.36286273700792
 20
-52.14921317213698
 30
0.0
  0
VERTEX
  5
43F
  8
LAYER_1
 10
-64.24204193519573
 20
-53.69999915361404
 30
0.0
  0
VERTEX
  5
440
  8
LAYER_1
 10
-64.20473718245393
 20
-54.26671792613342
 30
0.0
  0
VERTEX
  5
441
  8
LAYER_1
 10
-64.1624937125766
 20
-55.04999920725822
 30
0.0
  0
VERTEX
  5
442
  8
LAYER_1
 10
-64.11673327746644
 20
-55.98749924451113
 30
0.0
  0
VERTEX
  5
443
  8
LAYER_1
 10
-64.0596535735314
 20
-56.58749926835299
 30
0.0
  0
VERTEX
  5
444
  8
LAYER_1
 10
-63.8766634558316
 20
-60.55305683129339
 30
0.0
  0
SEQEND
  5
E33
  8
LAYER_1
  0
POLYLINE
  5
72
  8
LAYER_1
 66
     1
 10
0.0
 20
0.0
 30
0.0
 70
     1
  0
VERTEX
  5
445
  8
LAYER_1
 10
44.24786733811696
 20
-62.47004106410554
 30
0.0
  0
VERTEX
  5
446
  8
LAYER_1
 10
44.812504760921
 20
-62.53004715266986
 30
0.0
  0
VERTEX
  5
447
  8
LAYER_1
 10
46.2000048160553
 20
-62.53993237824369
 30
0.0
  0
VERTEX
  5
448
  8
LAYER_1
 10
46.81841620977229
 20
-62.53543736899329
 30
0.0
  0
VERTEX
  5
449
  8
LAYER_1
 10
47.46727771144997
 20
-62.51572168316862
 30
0.0
  0
VERTEX
  5
44A
  8
LAYER_1
 10
48.07312778889963
 20
-62.48380813697156
 30
0.0
  0
VERTEX
  5
44B
  8
LAYER_1
 10
48.56250490993261
 20
-62.44271954660395
 30
0.0
  0
VERTEX
  5
44C
  8
LAYER_1
 10
49.53885019163771
 20
-62.35328491280587
 30
0.0
  0
VERTEX
  5
44D
  8
LAYER_1
 10
50.51708453792783
 20
-62.28865423529336
 30
0.0
  0
VERTEX
  5
44E
  8
LAYER_1
 10
51.00024650746137
 20
-62.25955532204316
 30
0.0
  0
VERTEX
  5
44F
  8
LAYER_1
 10
51.47908245540399
 20
-62.21877745675479
 30
0.0
  0
VERTEX
  5
450
  8
LAYER_1
 10
51.95373627503959
 20
-62.16628338530633
 30
0.0
  0
VERTEX
  5
451
  8
LAYER_1
 10
52.42435185965211
 20
-62.10203585357587
 30
0.0
  0
VERTEX
  5
452
  8
LAYER_1
 10
52.89107310252544
 20
-62.02599760744151
 30
0.0
  0
VERTEX
  5
453
  8
LAYER_1
 10
53.35404389694349
 20
-61.93813139278132
 30
0.0
  0
VERTEX
  5
454
  8
LAYER_1
 10
53.81340813619019
 20
-61.83839995547342
 30
0.0
  0
VERTEX
  5
455
  8
LAYER_1
 10
54.26930971354945
 20
-61.72676604139588
 30
0.0
  0
VERTEX
  5
456
  8
LAYER_1
 10
54.72189252230517
 20
-61.60319239642679
 30
0.0
  0
VERTEX
  5
457
  8
LAYER_1
 10
55.17130045574127
 20
-61.46764176644426
 30
0.0
  0
VERTEX
  5
458
  8
LAYER_1
 10
55.61767740714167
 20
-61.32007689732637
 30
0.0
  0
VERTEX
  5
459
  8
LAYER_1
 10
56.06116726979027
 20
-61.16046053495121
 30
0.0
  0
VERTEX
  5
45A
  8
LAYER_1
 10
56.50191393697099
 20
-60.98875542519687
 30
0.0
  0
VERTEX
  5
45B
  8
LAYER_1
 10
56.94006130196775
 20
-60.80492431394146
 30
0.0
  0
VERTEX
  5
45C
  8
LAYER_1
 10
57.37575325806444
 20
-60.60892994706305
 30
0.0
  0
VERTEX
  5
45D
  8
LAYER_1
 10
57.809133698545
 20
-60.40073507043973
 30
0.0
  0
VERTEX
  5
45E
  8
LAYER_1
 10
58.22239415359834
 20
-60.19064890268525
 30
0.0
  0
VERTEX
  5
45F
  8
LAYER_1
 10
58.62686237329556
 20
-59.97443360557169
 30
0.0
  0
VERTEX
  5
460
  8
LAYER_1
 10
59.02303214837433
 20
-59.75172514050207
 30
0.0
  0
VERTEX
  5
461
  8
LAYER_1
 10
59.41139726957237
 20
-59.52215946887947
 30
0.0
  0
VERTEX
  5
462
  8
LAYER_1
 10
59.79245152762735
 20
-59.28537255210689
 30
0.0
  0
VERTEX
  5
463
  8
LAYER_1
 10
60.16668871327698
 20
-59.0410003515874
 30
0.0
  0
VERTEX
  5
464
  8
LAYER_1
 10
60.53460261725894
 20
-58.78867882872404
 30
0.0
  0
VERTEX
  5
465
  8
LAYER_1
 10
60.89668703031093
 20
-58.52804394491984
 30
0.0
  0
VERTEX
  5
466
  8
LAYER_1
 10
61.25343574317063
 20
-58.25873166157785
 30
0.0
  0
VERTEX
  5
467
  8
LAYER_1
 10
61.60534254657576
 20
-57.98037794010112
 30
0.0
  0
VERTEX
  5
468
  8
LAYER_1
 10
61.95290123126398
 20
-57.69261874189269
 30
0.0
  0
VERTEX
  5
469
  8
LAYER_1
 10
62.296605587973
 20
-57.3950900283556
 30
0.0
  0
VERTEX
  5
46A
  8
LAYER_1
 10
62.63694940744053
 20
-57.08742776089289
 30
0.0
  0
VERTEX
  5
46B
  8
LAYER_1
 10
62.97442648040421
 20
-56.7692679009076
 30
0.0
  0
VERTEX
  5
46C
  8
LAYER_1
 10
63.30953059760179
 20
-56.44024640980278
 30
0.0
  0
VERTEX
  5
46D
  8
LAYER_1
 10
63.64275554977092
 20
-56.09999924898148
 30
0.0
  0
VERTEX
  5
46E
  8
LAYER_1
 10
64.32738960924252
 20
-55.38749922066927
 30
0.0
  0
VERTEX
  5
46F
  8
LAYER_1
 10
64.59216681064174
 20
-55.08749920874834
 30
0.0
  0
VERTEX
  5
470
  8
LAYER_1
 10
64.7961852051476
 20
-54.8448914847385
 30
0.0
  0
VERTEX
  5
471
  8
LAYER_1
 10
65.04591955149246
 20
-54.53009674869314
 30
0.0
  0
VERTEX
  5
472
  8
LAYER_1
 10
65.61636911587084
 20
-53.77396775010633
 30
0.0
  0
VERTEX
  5
473
  8
LAYER_1
 10
66.17118153612014
 20
-52.99915523220875
 30
0.0
  0
VERTEX
  5
474
  8
LAYER_1
 10
66.40136945230367
 20
-52.66100609702492
 30
0.0
  0
VERTEX
  5
475
  8
LAYER_1
 10
66.57802284458364
 20
-52.38570221422123
 30
0.0
  0
VERTEX
  5
476
  8
LAYER_1
 10
66.66854006695917
 20
-52.23749909549952
 30
0.0
  0
VERTEX
  5
477
  8
LAYER_1
 10
67.08275617290312
 20
-51.55528358141751
 30
0.0
  0
VERTEX
  5
478
  8
LAYER_1
 10
67.40692861480346
 20
-51.00304163332096
 30
0.0
  0
VERTEX
  5
479
  8
LAYER_1
 10
67.71766100814851
 20
-50.43628647891754
 30
0.0
  0
VERTEX
  5
47A
  8
LAYER_1
 10
68.01494378808539
 20
-49.85504642630276
 30
0.0
  0
VERTEX
  5
47B
  8
LAYER_1
 10
68.29876738976122
 20
-49.25934978357211
 30
0.0
  0
VERTEX
  5
47C
  8
LAYER_1
 10
68.56912224832314
 20
-48.64922485882109
 30
0.0
  0
VERTEX
  5
47D
  8
LAYER_1
 10
68.82599879891823
 20
-48.02469996014523
 30
0.0
  0
VERTEX
  5
47E
  8
LAYER_1
 10
69.06938747669366
 20
-47.38580339564002
 30
0.0
  0
VERTEX
  5
47F
  8
LAYER_1
 10
69.29927871679651
 20
-46.73256347340097
 30
0.0
  0
VERTEX
  5
480
  8
LAYER_1
 10
69.51566295437391
 20
-46.06500850152359
 30
0.0
  0
VERTEX
  5
481
  8
LAYER_1
 10
69.71853062457302
 20
-45.38316678810337
 30
0.0
  0
VERTEX
  5
482
  8
LAYER_1
 10
69.90787216254093
 20
-44.68706664123583
 30
0.0
  0
VERTEX
  5
483
  8
LAYER_1
 10
70.08367800342475
 20
-43.97673636901647
 30
0.0
  0
VERTEX
  5
484
  8
LAYER_1
 10
70.24593858237165
 20
-43.25220427954079
 30
0.0
  0
VERTEX
  5
485
  8
LAYER_1
 10
70.39464433452869
 20
-42.51349868090432
 30
0.0
  0
VERTEX
  5
486
  8
LAYER_1
 10
70.52978569504305
 20
-41.76064788120254
 30
0.0
  0
VERTEX
  5
487
  8
LAYER_1
 10
70.6513530990618
 20
-40.99368018853097
 30
0.0
  0
VERTEX
  5
488
  8
LAYER_1
 10
70.71716596669569
 20
-40.54986171071586
 30
0.0
  0
VERTEX
  5
489
  8
LAYER_1
 10
70.80671705160867
 20
-39.19368011700539
 30
0.0
  0
VERTEX
  5
48A
  8
LAYER_1
 10
70.8407107378414
 20
-38.51826471856718
 30
0.0
  0
VERTEX
  5
48B
  8
LAYER_1
 10
70.85905499458764
 20
-37.77896746927342
 30
0.0
  0
VERTEX
  5
48C
  8
LAYER_1
 10
70.86122546990447
 20
-37.0142311297718
 30
0.0
  0
VERTEX
  5
48D
  8
LAYER_1
 10
70.84669781184903
 20
-36.26249846071005
 30
0.0
  0
VERTEX
  5
48E
  8
LAYER_1
 10
70.79712748717643
 20
-34.68749839812517
 30
0.0
  0
VERTEX
  5
48F
  8
LAYER_1
 10
70.69168416219472
 20
-33.74999836087227
 30
0.0
  0
VERTEX
  5
490
  8
LAYER_1
 10
70.620474216192
 20
-33.1633632240315
 30
0.0
  0
VERTEX
  5
491
  8
LAYER_1
 10
70.5394097015251
 20
-32.58201714706797
 30
0.0
  0
VERTEX
  5
492
  8
LAYER_1
 10
70.44851500579504
 20
-32.00605204901466
 30
0.0
  0
VERTEX
  5
493
  8
LAYER_1
 10
70.34781451660285
 20
-31.43555984890459
 30
0.0
  0
VERTEX
  5
494
  8
LAYER_1
 10
70.23733262154954
 20
-30.87063246577073
 30
0.0
  0
VERTEX
  5
495
  8
LAYER_1
 10
70.11709370823611
 20
-30.31136181864608
 30
0.0
  0
VERTEX
  5
496
  8
LAYER_1
 10
69.9871221642636
 20
-29.75783982656365
 30
0.0
  0
VERTEX
  5
497
  8
LAYER_1
 10
69.847442377233
 20
-29.21015840855642
 30
0.0
  0
VERTEX
  5
498
  8
LAYER_1
 10
69.69807873474532
 20
-28.66840948365738
 30
0.0
  0
VERTEX
  5
499
  8
LAYER_1
 10
69.5390556244016
 20
-28.13268497089955
 30
0.0
  0
VERTEX
  5
49A
  8
LAYER_1
 10
69.37039743380284
 20
-27.6030767893159
 30
0.0
  0
VERTEX
  5
49B
  8
LAYER_1
 10
69.19212855055004
 20
-27.07967685793944
 30
0.0
  0
VERTEX
  5
49C
  8
LAYER_1
 10
69.00427336224422
 20
-26.56257709580316
 30
0.0
  0
VERTEX
  5
49D
  8
LAYER_1
 10
68.80685625648641
 20
-26.05186942194005
 30
0.0
  0
VERTEX
  5
49E
  8
LAYER_1
 10
68.59990162087762
 20
-25.5476457553831
 30
0.0
  0
VERTEX
  5
49F
  8
LAYER_1
 10
68.38343384301885
 20
-25.04999801516533
 30
0.0
  0
VERTEX
  5
4A0
  8
LAYER_1
 10
68.23239990328227
 20
-24.71249800175428
 30
0.0
  0
VERTEX
  5
4A1
  8
LAYER_1
 10
67.82707939354077
 20
-23.86593036620203
 30
0.0
  0
VERTEX
  5
4A2
  8
LAYER_1
 10
67.62146536718195
 20
-23.45607427932408
 30
0.0
  0
VERTEX
  5
4A3
  8
LAYER_1
 10
67.36125136034931
 20
-22.96593994465064
 30
0.0
  0
VERTEX
  5
4A4
  8
LAYER_1
 10
67.07979535060342
 20
-22.45705080212645
 30
0.0
  0
VERTEX
  5
4A5
  8
LAYER_1
 10
66.81045531550481
 20
-21.99093029169622
 30
0.0
  0
VERTEX
  5
4A6
  8
LAYER_1
 10
66.19915174721038
 20
-20.96249785274267
 30
0.0
  0
VERTEX
  5
4A7
  8
LAYER_1
 10
65.98273248986084
 20
-20.66249784082174
 30
0.0
  0
VERTEX
  5
4A8
  8
LAYER_1
 10
65.36025691364387
 20
-19.79999780654907
 30
0.0
  0
VERTEX
  5
4A9
  8
LAYER_1
 10
64.95420059477641
 20
-19.23749778419733
 30
0.0
  0
VERTEX
  5
4AA
  8
LAYER_1
 10
64.83419459972026
 20
-19.08749777823687
 30
0.0
  0
VERTEX
  5
4AB
  8
LAYER_1
 10
64.29496614534591
 20
-18.43914872038199
 30
0.0
  0
VERTEX
  5
4AC
  8
LAYER_1
 10
64.02174952813832
 20
-18.12307997746277
 30
0.0
  0
VERTEX
  5
4AD
  8
LAYER_1
 10
63.67645818895652
 20
-17.74177757379248
 30
0.0
  0
VERTEX
  5
4AE
  8
LAYER_1
 10
63.30333468417371
 20
-17.34326528790683
 30
0.0
  0
VERTEX
  5
4AF
  8
LAYER_1
 10
62.94662157016307
 20
-16.97556689834153
 30
0.0
  0
VERTEX
  5
4B0
  8
LAYER_1
 10
62.13750544935465
 20
-16.16033413415595
 30
0.0
  0
VERTEX
  5
4B1
  8
LAYER_1
 10
61.83750543743372
 20
-15.89724264005112
 30
0.0
  0
VERTEX
  5
4B2
  8
LAYER_1
 10
61.42668482137641
 20
-15.54913202190893
 30
0.0
  0
VERTEX
  5
4B3
  8
LAYER_1
 10
60.91623633131557
 20
-15.13191235406751
 30
0.0
  0
VERTEX
  5
4B4
  8
LAYER_1
 10
60.43517237717747
 20
-14.74961430952262
 30
0.0
  0
VERTEX
  5
4B5
  8
LAYER_1
 10
60.11250536888838
 20
-14.50626856127003
 30
0.0
  0
VERTEX
  5
4B6
  8
LAYER_1
 10
59.54691124762037
 20
-14.11876995591908
 30
0.0
  0
VERTEX
  5
4B7
  8
LAYER_1
 10
59.03257036830365
 20
-13.77850568332763
 30
0.0
  0
VERTEX
  5
4B8
  8
LAYER_1
 10
58.55434276734972
 20
-13.47676599261839
 30
0.0
  0
VERTEX
  5
4B9
  8
LAYER_1
 10
58.09708848117015
 20
-13.20484113291407
 30
0.0
  0
VERTEX
  5
4BA
  8
LAYER_1
 10
57.64566754617648
 20
-12.95402135333739
 30
0.0
  0
VERTEX
  5
4BB
  8
LAYER_1
 10
57.18493999878023
 20
-12.71559690301109
 30
0.0
  0
VERTEX
  5
4BC
  8
LAYER_1
 10
56.69976587539296
 20
-12.48085803105786
 30
0.0
  0
VERTEX
  5
4BD
  8
LAYER_1
 10
56.17500521242619
 20
-12.24109498660044
 30
0.0
  0
VERTEX
  5
4BE
  8
LAYER_1
 10
55.55339263410767
 20
-11.97674314674913
 30
0.0
  0
VERTEX
  5
4BF
  8
LAYER_1
 10
54.92325649823773
 20
-11.734351947573
 30
0.0
  0
VERTEX
  5
4C0
  8
LAYER_1
 10
54.28591930542072
 20
-11.51430201229373
 30
0.0
  0
VERTEX
  5
4C1
  8
LAYER_1
 10
53.64270355626091
 20
-11.31697396413303
 30
0.0
  0
VERTEX
  5
4C2
  8
LAYER_1
 10
52.99493175136266
 20
-11.1427484263126
 30
0.0
  0
VERTEX
  5
4C3
  8
LAYER_1
 10
52.34392639133026
 20
-10.99200602205413
 30
0.0
  0
VERTEX
  5
4C4
  8
LAYER_1
 10
51.69100997676802
 20
-10.86512737457932
 30
0.0
  0
VERTEX
  5
4C5
  8
LAYER_1
 10
51.03750500828028
 20
-10.76249310710986
 30
0.0
  0
VERTEX
  5
4C6
  8
LAYER_1
 10
50.28750497847795
 20
-10.65873856174544
 30
0.0
  0
VERTEX
  5
4C7
  8
LAYER_1
 10
47.58750487118959
 20
-10.50294022505513
 30
0.0
  0
VERTEX
  5
4C8
  8
LAYER_1
 10
46.16250481456518
 20
-10.33548034261109
 30
0.0
  0
VERTEX
  5
4C9
  8
LAYER_1
 10
44.70000475645065
 20
-10.37436574487482
 30
0.0
  0
VERTEX
  5
4CA
  8
LAYER_1
 10
43.95159285919848
 20
-10.40280892194925
 30
0.0
  0
VERTEX
  5
4CB
  8
LAYER_1
 10
43.30402643212272
 20
-10.44813779365951
 30
0.0
  0
VERTEX
  5
4CC
  8
LAYER_1
 10
42.69871737544383
 20
-10.51562811336616
 30
0.0
  0
VERTEX
  5
4CD
  8
LAYER_1
 10
42.0770775893823
 20
-10.61055563442974
 30
0.0
  0
VERTEX
  5
4CE
  8
LAYER_1
 10
40.91665048042846
 20
-10.80786012172095
 30
0.0
  0
VERTEX
  5
4CF
  8
LAYER_1
 10
40.57707752977765
 20
-10.91161901949422
 30
0.0
  0
VERTEX
  5
4D0
  8
LAYER_1
 10
39.67500455677509
 20
-11.17970375741636
 30
0.0
  0
VERTEX
  5
4D1
  8
LAYER_1
 10
39.31079663513864
 20
-11.29121065178138
 30
0.0
  0
VERTEX
  5
4D2
  8
LAYER_1
 10
38.94517149249917
 20
-11.41336180518731
 30
0.0
  0
VERTEX
  5
4D3
  8
LAYER_1
 10
38.5779656546327
 20
-11.54622309199792
 30
0.0
  0
VERTEX
  5
4D4
  8
LAYER_1
 10
38.20901564731524
 20
-11.68986038657697
 30
0.0
  0
VERTEX
  5
4D5
  8
LAYER_1
 10
37.83815799632282
 20
-11.84433956328823
 30
0.0
  0
VERTEX
  5
4D6
  8
LAYER_1
 10
37.46522922743145
 20
-12.00972649649545
 30
0.0
  0
VERTEX
  5
4D7
  8
LAYER_1
 10
37.09006586641713
 20
-12.18608706056242
 30
0.0
  0
VERTEX
  5
4D8
  8
LAYER_1
 10
36.71250443905592
 20
-12.37348712985289
 30
0.0
  0
VERTEX
  5
4D9
  8
LAYER_1
 10
36.13451583021548
 20
-12.67444284745056
 30
0.0
  0
VERTEX
  5
4DA
  8
LAYER_1
 10
35.60691670675541
 20
-12.9641602068744
 30
0.0
  0
VERTEX
  5
4DB
  8
LAYER_1
 10
35.11609998157074
 20
-13.25150295518901
 30
0.0
  0
VERTEX
  5
4DC
  8
LAYER_1
 10
34.64845856755647
 20
-13.54533483945899
 30
0.0
  0
VERTEX
  5
4DD
  8
LAYER_1
 10
34.19038537760761
 20
-13.85451960674893
 30
0.0
  0
VERTEX
  5
4DE
  8
LAYER_1
 10
33.72827332461918
 20
-14.18792100412344
 30
0.0
  0
VERTEX
  5
4DF
  8
LAYER_1
 10
33.24851532148617
 20
-14.55440277864712
 30
0.0
  0
VERTEX
  5
4E0
  8
LAYER_1
 10
32.73750428110361
 20
-14.96282867738457
 30
0.0
  0
VERTEX
  5
4E1
  8
LAYER_1
 10
32.21250426024199
 20
-15.39015646956324
 30
0.0
  0
VERTEX
  5
4E2
  8
LAYER_1
 10
31.0875042155385
 20
-16.53067195212046
 30
0.0
  0
VERTEX
  5
4E3
  8
LAYER_1
 10
30.59779627139459
 20
-17.04418552081827
 30
0.0
  0
VERTEX
  5
4E4
  8
LAYER_1
 10
30.09606984761338
 20
-17.59925972057537
 30
0.0
  0
VERTEX
  5
4E5
  8
LAYER_1
 10
29.6412335018501
 20
-18.12908270155187
 30
0.0
  0
VERTEX
  5
4E6
  8
LAYER_1
 10
29.29219579175999
 20
-18.56684261390786
 30
0.0
  0
VERTEX
  5
4E7
  8
LAYER_1
 10
28.62188741268496
 20
-19.46249779313803
 30
0.0
  0
VERTEX
  5
4E8
  8
LAYER_1
 10
28.42499974492411
 20
-19.72499780356884
 30
0.0
  0
VERTEX
  5
4E9
  8
LAYER_1
 10
28.20086011674957
 20
-20.05359156662598
 30
0.0
  0
VERTEX
  5
4EA
  8
LAYER_1
 10
27.93845177820688
 20
-20.47499783337116
 30
0.0
  0
VERTEX
  5
4EB
  8
LAYER_1
 10
27.53194612040264
 20
-21.14999786019325
 30
0.0
  0
VERTEX
  5
4EC
  8
LAYER_1
 10
27.33107633820165
 20
-21.4874978736043
 30
0.0
  0
VERTEX
  5
4ED
  8
LAYER_1
 10
27.24705191484858
 20
-21.63749787956476
 30
0.0
  0
VERTEX
  5
4EE
  8
LAYER_1
 10
26.86666568325124
 20
-22.34999790787697
 30
0.0
  0
VERTEX
  5
4EF
  8
LAYER_1
 10
26.50757826224869
 20
-23.06249793618917
 30
0.0
  0
VERTEX
  5
4F0
  8
LAYER_1
 10
26.32795855277912
 20
-23.44212685752427
 30
0.0
  0
VERTEX
  5
4F1
  8
LAYER_1
 10
26.17839980931538
 20
-23.77499796450138
 30
0.0
  0
VERTEX
  5
4F2
  8
LAYER_1
 10
25.87052016697685
 20
-24.48749799281359
 30
0.0
  0
VERTEX
  5
4F3
  8
LAYER_1
 10
25.79991900632915
 20
-24.63749799877405
 30
0.0
  0
VERTEX
  5
4F4
  8
LAYER_1
 10
25.68233292090211
 20
-24.91103360449195
 30
0.0
  0
VERTEX
  5
4F5
  8
LAYER_1
 10
25.54330228954229
 20
-25.27344099460975
 30
0.0
  0
VERTEX
  5
4F6
  8
LAYER_1
 10
25.38960432714422
 20
-25.70415419289765
 30
0.0
  0
VERTEX
  5
4F7
  8
LAYER_1
 10
25.22801624860245
 20
-26.18260722312582
 30
0.0
  0
VERTEX
  5
4F8
  8
LAYER_1
 10
24.90827860266594
 20
-27.20046887448373
 30
0.0
  0
VERTEX
  5
4F9
  8
LAYER_1
 10
24.76368346506026
 20
-27.69874554315384
 30
0.0
  0
VERTEX
  5
4FA
  8
LAYER_1
 10
24.63830707088903
 20
-28.16249813884497
 30
0.0
  0
VERTEX
  5
4FB
  8
LAYER_1
 10
24.51557168894001
 20
-28.65630197791079
 30
0.0
  0
VERTEX
  5
4FC
  8
LAYER_1
 10
24.40141801079812
 20
-29.15356731538617
 30
0.0
  0
VERTEX
  5
4FD
  8
LAYER_1
 10
24.29584187223915
 20
-29.65407240942105
 30
0.0
  0
VERTEX
  5
4FE
  8
LAYER_1
 10
24.19883910903889
 20
-30.15759551816542
 30
0.0
  0
VERTEX
  5
4FF
  8
LAYER_1
 10
24.11040555697312
 20
-30.6639148997692
 30
0.0
  0
VERTEX
  5
500
  8
LAYER_1
 10
24.03053705181765
 20
-31.17280881238238
 30
0.0
  0
VERTEX
  5
501
  8
LAYER_1
 10
23.95922942934826
 20
-31.6840555141549
 30
0.0
  0
VERTEX
  5
502
  8
LAYER_1
 10
23.89647852534074
 20
-32.19743326323673
 30
0.0
  0
VERTEX
  5
503
  8
LAYER_1
 10
23.84228017557089
 20
-32.71272031777783
 30
0.0
  0
VERTEX
  5
504
  8
LAYER_1
 10
23.79663021581449
 20
-33.22969493592815
 30
0.0
  0
VERTEX
  5
505
  8
LAYER_1
 10
23.75952448184734
 20
-33.74813537583766
 30
0.0
  0
VERTEX
  5
506
  8
LAYER_1
 10
23.73095880944522
 20
-34.26781989565632
 30
0.0
  0
VERTEX
  5
507
  8
LAYER_1
 10
23.71092903438394
 20
-34.78852675353408
 30
0.0
  0
VERTEX
  5
508
  8
LAYER_1
 10
23.69943099243928
 20
-35.3100342076209
 30
0.0
  0
VERTEX
  5
509
  8
LAYER_1
 10
23.69646051938702
 20
-35.83212051606674
 30
0.0
  0
VERTEX
  5
50A
  8
LAYER_1
 10
23.70201345100297
 20
-36.35456393702157
 30
0.0
  0
VERTEX
  5
50B
  8
LAYER_1
 10
23.71608562306291
 20
-36.87714272863533
 30
0.0
  0
VERTEX
  5
50C
  8
LAYER_1
 10
23.73867287134264
 20
-37.399635149058
 30
0.0
  0
VERTEX
  5
50D
  8
LAYER_1
 10
23.76977103161795
 20
-37.92181945643952
 30
0.0
  0
VERTEX
  5
50E
  8
LAYER_1
 10
23.80937593966462
 20
-38.44347390892987
 30
0.0
  0
VERTEX
  5
50F
  8
LAYER_1
 10
23.85748343125845
 20
-38.964376764679
 30
0.0
  0
VERTEX
  5
510
  8
LAYER_1
 10
23.91408934217523
 20
-39.48430628183685
 30
0.0
  0
VERTEX
  5
511
  8
LAYER_1
 10
23.97918950819075
 20
-40.00304071855341
 30
0.0
  0
VERTEX
  5
512
  8
LAYER_1
 10
24.05277976508081
 20
-40.52035833297862
 30
0.0
  0
VERTEX
  5
513
  8
LAYER_1
 10
24.13485594862118
 20
-41.03603738326245
 30
0.0
  0
VERTEX
  5
514
  8
LAYER_1
 10
24.22541389458767
 20
-41.54985612755485
 30
0.0
  0
VERTEX
  5
515
  8
LAYER_1
 10
24.32444943875607
 20
-42.06159282400578
 30
0.0
  0
VERTEX
  5
516
  8
LAYER_1
 10
24.43195841690216
 20
-42.5710257307652
 30
0.0
  0
VERTEX
  5
517
  8
LAYER_1
 10
24.54793666480174
 20
-43.07793310598308
 30
0.0
  0
VERTEX
  5
518
  8
LAYER_1
 10
24.67238001823061
 20
-43.58209320780936
 30
0.0
  0
VERTEX
  5
519
  8
LAYER_1
 10
24.80528431296453
 20
-44.08328429439403
 30
0.0
  0
VERTEX
  5
51A
  8
LAYER_1
 10
24.94664538477933
 20
-44.58128462388702
 30
0.0
  0
VERTEX
  5
51B
  8
LAYER_1
 10
25.06299580344492
 20
-44.96175167056968
 30
0.0
  0
VERTEX
  5
51C
  8
LAYER_1
 10
25.19735757428174
 20
-45.37343958817714
 30
0.0
  0
VERTEX
  5
51D
  8
LAYER_1
 10
25.50072556595623
 20
-46.23754387190452
 30
0.0
  0
VERTEX
  5
51E
  8
LAYER_1
 10
25.8179701467772
 20
-47.06772914654523
 30
0.0
  0
VERTEX
  5
51F
  8
LAYER_1
 10
25.96967765404711
 20
-47.43701830279436
 30
0.0
  0
VERTEX
  5
520
  8
LAYER_1
 10
26.11031210371904
 20
-47.75812708357535
 30
0.0
  0
VERTEX
  5
521
  8
LAYER_1
 10
26.26193827403743
 20
-48.10728113820346
 30
0.0
  0
VERTEX
  5
522
  8
LAYER_1
 10
26.30806349177809
 20
-48.22654843341191
 30
0.0
  0
VERTEX
  5
523
  8
LAYER_1
 10
26.32500402629375
 20
-48.28585449943925
 30
0.0
  0
VERTEX
  5
524
  8
LAYER_1
 10
26.32500402629375
 20
-48.34295373053202
 30
0.0
  0
VERTEX
  5
525
  8
LAYER_1
 10
26.83609907860624
 20
-49.35272637576286
 30
0.0
  0
VERTEX
  5
526
  8
LAYER_1
 10
27.09901493344221
 20
-49.85776216868606
 30
0.0
  0
VERTEX
  5
527
  8
LAYER_1
 10
27.38373850915957
 20
-50.37887097121902
 30
0.0
  0
VERTEX
  5
528
  8
LAYER_1
 10
27.68184539601331
 20
-50.90211425014854
 30
0.0
  0
VERTEX
  5
529
  8
LAYER_1
 10
27.98491118425841
 20
-51.41355347226139
 30
0.0
  0
VERTEX
  5
52A
  8
LAYER_1
 10
28.28451146414984
 20
-51.89925010434438
 30
0.0
  0
VERTEX
  5
52B
  8
LAYER_1
 10
28.5722218259426
 20
-52.3452656131843
 30
0.0
  0
VERTEX
  5
52C
  8
LAYER_1
 10
28.83961785989165
 20
-52.73766146556792
 30
0.0
  0
VERTEX
  5
52D
  8
LAYER_1
 10
29.07827515625199
 20
-53.06249912828207
 30
0.0
  0
VERTEX
  5
52E
  8
LAYER_1
 10
29.30738476193712
 20
-53.36256651265901
 30
0.0
  0
VERTEX
  5
52F
  8
LAYER_1
 10
29.69187883330291
 20
-53.87069162020133
 30
0.0
  0
VERTEX
  5
530
  8
LAYER_1
 10
30.09460065005561
 20
-54.37308061440002
 30
0.0
  0
VERTEX
  5
531
  8
LAYER_1
 10
30.51402273610647
 20
-54.86837042410117
 30
0.0
  0
VERTEX
  5
532
  8
LAYER_1
 10
30.94861761536671
 20
-55.3551979781509
 30
0.0
  0
VERTEX
  5
533
  8
LAYER_1
 10
31.39685781174761
 20
-55.8322002053953
 30
0.0
  0
VERTEX
  5
534
  8
LAYER_1
 10
31.85721584916039
 20
-56.29801403468046
 30
0.0
  0
VERTEX
  5
535
  8
LAYER_1
 10
32.32816425151631
 20
-56.75127639485248
 30
0.0
  0
VERTEX
  5
536
  8
LAYER_1
 10
32.80817554272662
 20
-57.19062421475749
 30
0.0
  0
VERTEX
  5
537
  8
LAYER_1
 10
33.29572224670255
 20
-57.61469442324157
 30
0.0
  0
VERTEX
  5
538
  8
LAYER_1
 10
33.78927688735536
 20
-58.02212394915082
 30
0.0
  0
VERTEX
  5
539
  8
LAYER_1
 10
34.28731198859629
 20
-58.41154972133135
 30
0.0
  0
VERTEX
  5
53A
  8
LAYER_1
 10
34.7883000743366
 20
-58.78160866862924
 30
0.0
  0
VERTEX
  5
53B
  8
LAYER_1
 10
35.29071366848753
 20
-59.13093771989061
 30
0.0
  0
VERTEX
  5
53C
  8
LAYER_1
 10
35.79302529496032
 20
-59.45817380396156
 30
0.0
  0
VERTEX
  5
53D
  8
LAYER_1
 10
36.29370747766622
 20
-59.7619538496882
 30
0.0
  0
VERTEX
  5
53E
  8
LAYER_1
 10
36.79123274051649
 20
-60.04091478591661
 30
0.0
  0
VERTEX
  5
53F
  8
LAYER_1
 10
37.41372239963412
 20
-60.37035091028092
 30
0.0
  0
VERTEX
  5
540
  8
LAYER_1
 10
37.96519555372677
 20
-60.64969855609638
 30
0.0
  0
VERTEX
  5
541
  8
LAYER_1
 10
38.47142253760676
 20
-60.88957968499704
 30
0.0
  0
VERTEX
  5
542
  8
LAYER_1
 10
38.9581736860864
 20
-61.10061625861698
 30
0.0
  0
VERTEX
  5
543
  8
LAYER_1
 10
39.451219333978
 20
-61.29343023859027
 30
0.0
  0
VERTEX
  5
544
  8
LAYER_1
 10
39.97632981609389
 20
-61.47864358655096
 30
0.0
  0
VERTEX
  5
545
  8
LAYER_1
 10
40.55927546724639
 20
-61.66687826413313
 30
0.0
  0
VERTEX
  5
546
  8
LAYER_1
 10
41.22582662224781
 20
-61.86875623297085
 30
0.0
  0
VERTEX
  5
547
  8
LAYER_1
 10
41.52475102369235
 20
-61.95028757524661
 30
0.0
  0
VERTEX
  5
548
  8
LAYER_1
 10
41.88818025897268
 20
-62.03835167394998
 30
0.0
  0
VERTEX
  5
549
  8
LAYER_1
 10
42.72458967082008
 20
-62.2173722058507
 30
0.0
  0
VERTEX
  5
54A
  8
LAYER_1
 10
43.56712773734864
 20
-62.37240595909517
 30
0.0
  0
VERTEX
  5
54B
  8
LAYER_1
 10
43.93821779098042
 20
-62.43048658447823
 30
0.0
  0
SEQEND
  5
E34
  8
LAYER_1
  0
POLYLINE
  5
73
  8
LAYER_1
 66
     1
 10
0.0
 20
0.0
 30
0.0
 70
     1
  0
VERTEX
  5
54C
  8
LAYER_1
 10
-17.88749773055315
 20
-59.76163646406336
 30
0.0
  0
VERTEX
  5
54D
  8
LAYER_1
 10
-17.28383518255335
 20
-59.29956791091166
 30
0.0
  0
VERTEX
  5
54E
  8
LAYER_1
 10
-15.70883511996847
 20
-58.0905169407574
 30
0.0
  0
VERTEX
  5
54F
  8
LAYER_1
 10
-14.7374976053834
 20
-57.34353452375485
 30
0.0
  0
VERTEX
  5
550
  8
LAYER_1
 10
-14.69999760389328
 20
-57.29905219413659
 30
0.0
  0
VERTEX
  5
551
  8
LAYER_1
 10
-14.52578846865631
 20
-57.1564989695396
 30
0.0
  0
VERTEX
  5
552
  8
LAYER_1
 10
-13.98756494803713
 20
-56.75737989223771
 30
0.0
  0
VERTEX
  5
553
  8
LAYER_1
 10
-13.68749756366014
 20
-56.52297140959749
 30
0.0
  0
VERTEX
  5
554
  8
LAYER_1
 10
-13.46249755471945
 20
-56.34368231201324
 30
0.0
  0
VERTEX
  5
555
  8
LAYER_1
 10
-12.48749751597643
 20
-55.58276466486836
 30
0.0
  0
VERTEX
  5
556
  8
LAYER_1
 10
-10.95565168715653
 20
-54.39217309088417
 30
0.0
  0
VERTEX
  5
557
  8
LAYER_1
 10
-9.632307727663616
 20
-53.362499140203
 30
0.0
  0
VERTEX
  5
558
  8
LAYER_1
 10
-7.789153422373062
 20
-51.94035059310113
 30
0.0
  0
VERTEX
  5
559
  8
LAYER_1
 10
-6.712497286498547
 20
-51.11820206984112
 30
0.0
  0
VERTEX
  5
55A
  8
LAYER_1
 10
-6.67499728500843
 20
-51.07537579268964
 30
0.0
  0
VERTEX
  5
55B
  8
LAYER_1
 10
-6.532848841859959
 20
-50.961363133766
 30
0.0
  0
VERTEX
  5
55C
  8
LAYER_1
 10
-6.243747267872095
 20
-50.74738661958784
 30
0.0
  0
VERTEX
  5
55D
  8
LAYER_1
 10
-5.965661319321953
 20
-50.53893649386681
 30
0.0
  0
VERTEX
  5
55E
  8
LAYER_1
 10
-5.849997252225876
 20
-50.43821068378696
 30
0.0
  0
VERTEX
  5
55F
  8
LAYER_1
 10
-5.849997252225876
 20
-50.41419764393642
 30
0.0
  0
VERTEX
  5
560
  8
LAYER_1
 10
-6.880844409374163
 20
-49.6499989926815
 30
0.0
  0
VERTEX
  5
561
  8
LAYER_1
 10
-7.016468422225103
 20
-49.6499989926815
 30
0.0
  0
VERTEX
  5
562
  8
LAYER_1
 10
-7.539482881183915
 20
-50.06852178922342
 30
0.0
  0
VERTEX
  5
563
  8
LAYER_1
 10
-7.952924344574464
 20
-50.38766373987086
 30
0.0
  0
VERTEX
  5
564
  8
LAYER_1
 10
-8.112986046636637
 20
-50.50308343793778
 30
0.0
  0
VERTEX
  5
565
  8
LAYER_1
 10
-8.212497346103191
 20
-50.56724960904944
 30
0.0
  0
VERTEX
  5
566
  8
LAYER_1
 10
-8.329450475750491
 20
-50.63859311863839
 30
0.0
  0
VERTEX
  5
567
  8
LAYER_1
 10
-8.399997353553772
 20
-50.69749280048521
 30
0.0
  0
VERTEX
  5
568
  8
LAYER_1
 10
-8.558237599406267
 20
-50.83049944556033
 30
0.0
  0
VERTEX
  5
569
  8
LAYER_1
 10
-8.886027975639962
 20
-51.08001501567692
 30
0.0
  0
VERTEX
  5
56A
  8
LAYER_1
 10
-9.448527997991704
 20
-51.50135322268945
 30
0.0
  0
VERTEX
  5
56B
  8
LAYER_1
 10
-9.899997413158417
 20
-51.84288490194729
 30
0.0
  0
VERTEX
  5
56C
  8
LAYER_1
 10
-10.7999974489212
 20
-52.52929594451788
 30
0.0
  0
VERTEX
  5
56D
  8
LAYER_1
 10
-12.13427018819158
 20
-53.53776431890422
 30
0.0
  0
VERTEX
  5
56E
  8
LAYER_1
 10
-12.81859346130743
 20
-54.05382706187159
 30
0.0
  0
VERTEX
  5
56F
  8
LAYER_1
 10
-13.38011538780661
 20
-54.48749918490648
 30
0.0
  0
VERTEX
  5
570
  8
LAYER_1
 10
-13.76421175954534
 20
-54.78538982174359
 30
0.0
  0
VERTEX
  5
571
  8
LAYER_1
 10
-14.02195869887542
 20
-54.97499920427799
 30
0.0
  0
VERTEX
  5
572
  8
LAYER_1
 10
-14.29800966095364
 20
-55.17512292231057
 30
0.0
  0
VERTEX
  5
573
  8
LAYER_1
 10
-14.72611357674641
 20
-55.49829270619649
 30
0.0
  0
VERTEX
  5
574
  8
LAYER_1
 10
-15.26249762624502
 20
-55.90908620364466
 30
0.0
  0
VERTEX
  5
575
  8
LAYER_1
 10
-15.43609130924045
 20
-56.06249924749136
 30
0.0
  0
VERTEX
  5
576
  8
LAYER_1
 10
-17.38628982968982
 20
-57.48749930411577
 30
0.0
  0
VERTEX
  5
577
  8
LAYER_1
 10
-17.47981164314183
 20
-57.69981233012089
 30
0.0
  0
VERTEX
  5
578
  8
LAYER_1
 10
-17.8702912343289
 20
-59.43749938160181
 30
0.0
  0
SEQEND
  5
E35
  8
LAYER_1
  0
POLYLINE
  5
74
  8
LAYER_1
 66
     1
 10
0.0
 20
0.0
 30
0.0
 70
     1
  0
VERTEX
  5
579
  8
LAYER_1
 10
10.65000340342522
 20
-59.63376645107065
 30
0.0
  0
VERTEX
  5
57A
  8
LAYER_1
 10
10.65286789236529
 20
-59.43749938160181
 30
0.0
  0
VERTEX
  5
57B
  8
LAYER_1
 10
10.25013927421429
 20
-57.59134396869318
 30
0.0
  0
VERTEX
  5
57C
  8
LAYER_1
 10
9.884822198071362
 20
-57.31442162746377
 30
0.0
  0
VERTEX
  5
57D
  8
LAYER_1
 10
9.16600422616898
 20
-56.77053010794233
 30
0.0
  0
VERTEX
  5
57E
  8
LAYER_1
 10
8.812503330409527
 20
-56.50356092965028
 30
0.0
  0
VERTEX
  5
57F
  8
LAYER_1
 10
7.162503264844418
 20
-55.24491140451337
 30
0.0
  0
VERTEX
  5
580
  8
LAYER_1
 10
7.012503258883953
 20
-55.12279750860333
 30
0.0
  0
VERTEX
  5
581
  8
LAYER_1
 10
5.269611038489145
 20
-53.81249915808439
 30
0.0
  0
VERTEX
  5
582
  8
LAYER_1
 10
4.837503172457218
 20
-53.48551910956537
 30
0.0
  0
VERTEX
  5
583
  8
LAYER_1
 10
3.112503103911877
 20
-52.17591350155369
 30
0.0
  0
VERTEX
  5
584
  8
LAYER_1
 10
-0.2273940523841276
 20
-49.6499989926815
 30
0.0
  0
VERTEX
  5
585
  8
LAYER_1
 10
-0.3001887531979719
 20
-49.6499989926815
 30
0.0
  0
VERTEX
  5
586
  8
LAYER_1
 10
-0.3685841199975347
 20
-49.67679334427267
 30
0.0
  0
VERTEX
  5
587
  8
LAYER_1
 10
-0.4906489390896052
 20
-49.74803370970843
 30
0.0
  0
VERTEX
  5
588
  8
LAYER_1
 10
-0.8187053053370956
 20
-49.96899634608734
 30
0.0
  0
VERTEX
  5
589
  8
LAYER_1
 10
-1.130194594312096
 20
-50.20317462976545
 30
0.0
  0
VERTEX
  5
58A
  8
LAYER_1
 10
-1.231550566813554
 20
-50.2909345543252
 30
0.0
  0
VERTEX
  5
58B
  8
LAYER_1
 10
-1.27095354838626
 20
-50.34085628868996
 30
0.0
  0
VERTEX
  5
58C
  8
LAYER_1
 10
-1.274997070431709
 20
-50.39421355936643
 30
0.0
  0
VERTEX
  5
58D
  8
LAYER_1
 10
1.212278306322958
 20
-52.31249909847975
 30
0.0
  0
VERTEX
  5
58E
  8
LAYER_1
 10
2.012390699156938
 20
-52.93318815534404
 30
0.0
  0
VERTEX
  5
58F
  8
LAYER_1
 10
3.37500311434269
 20
-53.97938648184935
 30
0.0
  0
VERTEX
  5
590
  8
LAYER_1
 10
3.937503136694431
 20
-54.40489575149037
 30
0.0
  0
VERTEX
  5
591
  8
LAYER_1
 10
3.975003138184547
 20
-54.44803980471386
 30
0.0
  0
VERTEX
  5
592
  8
LAYER_1
 10
4.218253131819274
 20
-54.64674150882068
 30
0.0
  0
VERTEX
  5
593
  8
LAYER_1
 10
4.91250317543745
 20
-55.1809289043575
 30
0.0
  0
VERTEX
  5
594
  8
LAYER_1
 10
4.987503178417683
 20
-55.23820900452159
 30
0.0
  0
VERTEX
  5
595
  8
LAYER_1
 10
6.712503246963024
 20
-56.60226107365716
 30
0.0
  0
VERTEX
  5
596
  8
LAYER_1
 10
7.405808988890527
 20
-57.11249928921461
 30
0.0
  0
VERTEX
  5
597
  8
LAYER_1
 10
9.637503363192081
 20
-58.82770937355975
 30
0.0
  0
VERTEX
  5
598
  8
LAYER_1
 10
9.675003364682198
 20
-58.87360286124579
 30
0.0
  0
VERTEX
  5
599
  8
LAYER_1
 10
9.839183058706112
 20
-59.01092355817569
 30
0.0
  0
VERTEX
  5
59A
  8
LAYER_1
 10
10.18125338479877
 20
-59.27663140000124
 30
0.0
  0
SEQEND
  5
E36
  8
LAYER_1
  0
POLYLINE
  5
75
  8
LAYER_1
 66
     1
 10
0.0
 20
0.0
 30
0.0
 70
     1
  0
VERTEX
  5
59B
  8
LAYER_1
 10
50.40741457365932
 20
-57.42897861167451
 30
0.0
  0
VERTEX
  5
59C
  8
LAYER_1
 10
50.5974526064217
 20
-57.31306298602587
 30
0.0
  0
VERTEX
  5
59D
  8
LAYER_1
 10
50.80447199225711
 20
-57.17596053688996
 30
0.0
  0
VERTEX
  5
59E
  8
LAYER_1
 10
51.00346880127709
 20
-57.03480724812575
 30
0.0
  0
VERTEX
  5
59F
  8
LAYER_1
 10
51.16943910359321
 20
-56.90673910359219
 30
0.0
  0
VERTEX
  5
5A0
  8
LAYER_1
 10
51.30581103773108
 20
-56.78683874335687
 30
0.0
  0
VERTEX
  5
5A1
  8
LAYER_1
 10
51.44318982153233
 20
-56.65063996594096
 30
0.0
  0
VERTEX
  5
5A2
  8
LAYER_1
 10
51.58070778571711
 20
-56.49960254970414
 30
0.0
  0
VERTEX
  5
5A3
  8
LAYER_1
 10
51.71749726100562
 20
-56.33518627300607
 30
0.0
  0
VERTEX
  5
5A4
  8
LAYER_1
 10
51.85269057811801
 20
-56.15885091420644
 30
0.0
  0
VERTEX
  5
5A5
  8
LAYER_1
 10
51.98542006777448
 20
-55.97205625166491
 30
0.0
  0
VERTEX
  5
5A6
  8
LAYER_1
 10
52.11481806069518
 20
-55.77626206374119
 30
0.0
  0
VERTEX
  5
5A7
  8
LAYER_1
 10
52.24001688760028
 20
-55.57292812879491
 30
0.0
  0
VERTEX
  5
5A8
  8
LAYER_1
 10
52.47434636624442
 20
-55.14948013127346
 30
0.0
  0
VERTEX
  5
5A9
  8
LAYER_1
 10
52.58174167942379
 20
-54.93228562541763
 30
0.0
  0
VERTEX
  5
5AA
  8
LAYER_1
 10
52.68146714946826
 20
-54.71339048597797
 30
0.0
  0
VERTEX
  5
5AB
  8
LAYER_1
 10
52.77265510709801
 20
-54.49425449131415
 30
0.0
  0
VERTEX
  5
5AC
  8
LAYER_1
 10
52.8544378830332
 20
-54.27633741978585
 30
0.0
  0
VERTEX
  5
5AD
  8
LAYER_1
 10
52.92594780799401
 20
-54.06109904975274
 30
0.0
  0
VERTEX
  5
5AE
  8
LAYER_1
 10
52.98631721270063
 20
-53.84999915957451
 30
0.0
  0
VERTEX
  5
5AF
  8
LAYER_1
 10
53.04397017751606
 20
-53.56766527424291
 30
0.0
  0
VERTEX
  5
5B0
  8
LAYER_1
 10
53.09120965507704
 20
-53.21427198885017
 30
0.0
  0
VERTEX
  5
5B1
  8
LAYER_1
 10
53.12714263733637
 20
-52.81218231234963
 30
0.0
  0
VERTEX
  5
5B2
  8
LAYER_1
 10
53.15087611624688
 20
-52.38375925369468
 30
0.0
  0
VERTEX
  5
5B3
  8
LAYER_1
 10
53.16151708376141
 20
-51.95136582183867
 30
0.0
  0
VERTEX
  5
5B4
  8
LAYER_1
 10
53.15817253183275
 20
-51.53736502573496
 30
0.0
  0
VERTEX
  5
5B5
  8
LAYER_1
 10
53.13994945241375
 20
-51.16411987433693
 30
0.0
  0
VERTEX
  5
5B6
  8
LAYER_1
 10
53.1059548374572
 20
-50.85399337659794
 30
0.0
  0
VERTEX
  5
5B7
  8
LAYER_1
 10
53.02767106076068
 20
-50.45271393050265
 30
0.0
  0
VERTEX
  5
5B8
  8
LAYER_1
 10
52.9169705942554
 20
-50.03550946437203
 30
0.0
  0
VERTEX
  5
5B9
  8
LAYER_1
 10
52.7780761229404
 20
-49.61244473697596
 30
0.0
  0
VERTEX
  5
5BA
  8
LAYER_1
 10
52.61521033181475
 20
-49.19358450708434
 30
0.0
  0
VERTEX
  5
5BB
  8
LAYER_1
 10
52.43259590587748
 20
-48.78899353346706
 30
0.0
  0
VERTEX
  5
5BC
  8
LAYER_1
 10
52.23445553012765
 20
-48.40873657489404
 30
0.0
  0
VERTEX
  5
5BD
  8
LAYER_1
 10
52.02501188956433
 20
-48.06287839013514
 30
0.0
  0
VERTEX
  5
5BE
  8
LAYER_1
 10
51.9173709340398
 20
-47.90599407505158
 30
0.0
  0
VERTEX
  5
5BF
  8
LAYER_1
 10
51.80848766918655
 20
-47.76148373796028
 30
0.0
  0
VERTEX
  5
5C0
  8
LAYER_1
 10
51.58768573881121
 20
-47.49399373378508
 30
0.0
  0
VERTEX
  5
5C1
  8
LAYER_1
 10
51.36914716402452
 20
-47.25255805666082
 30
0.0
  0
VERTEX
  5
5C2
  8
LAYER_1
 10
51.14888232839186
 20
-47.0338726470097
 30
0.0
  0
VERTEX
  5
5C3
  8
LAYER_1
 10
50.92290161547862
 20
-46.83463344525389
 30
0.0
  0
VERTEX
  5
5C4
  8
LAYER_1
 10
50.68721540885017
 20
-46.65153639181558
 30
0.0
  0
VERTEX
  5
5C5
  8
LAYER_1
 10
50.43783409207189
 20
-46.48127742711696
 30
0.0
  0
VERTEX
  5
5C6
  8
LAYER_1
 10
50.17076804870916
 20
-46.32055249158019
 30
0.0
  0
VERTEX
  5
5C7
  8
LAYER_1
 10
49.88202766232737
 20
-46.16605752562748
 30
0.0
  0
VERTEX
  5
5C8
  8
LAYER_1
 10
49.48402296688417
 20
-45.96437328329169
 30
0.0
  0
VERTEX
  5
5C9
  8
LAYER_1
 10
49.09674210863712
 20
-46.22151330529741
 30
0.0
  0
VERTEX
  5
5CA
  8
LAYER_1
 10
48.9224264513923
 20
-46.34221187435514
 30
0.0
  0
VERTEX
  5
5CB
  8
LAYER_1
 10
48.75470034320509
 20
-46.4685605671644
 30
0.0
  0
VERTEX
  5
5CC
  8
LAYER_1
 10
48.59331515811034
 20
-46.60088401534473
 30
0.0
  0
VERTEX
  5
5CD
  8
LAYER_1
 10
48.43802227014294
 20
-46.73950685051568
 30
0.0
  0
VERTEX
  5
5CE
  8
LAYER_1
 10
48.28857305333774
 20
-46.8847537042968
 30
0.0
  0
VERTEX
  5
5CF
  8
LAYER_1
 10
48.14471888172962
 20
-47.03694920830763
 30
0.0
  0
VERTEX
  5
5D0
  8
LAYER_1
 10
48.00621112935343
 20
-47.1964179941677
 30
0.0
  0
VERTEX
  5
5D1
  8
LAYER_1
 10
47.87280117024405
 20
-47.36348469349657
 30
0.0
  0
VERTEX
  5
5D2
  8
LAYER_1
 10
47.74424037843634
 20
-47.53847393791377
 30
0.0
  0
VERTEX
  5
5D3
  8
LAYER_1
 10
47.62028012796517
 20
-47.72171035903887
 30
0.0
  0
VERTEX
  5
5D4
  8
LAYER_1
 10
47.5006717928654
 20
-47.9135185884914
 30
0.0
  0
VERTEX
  5
5D5
  8
LAYER_1
 10
47.38516674717192
 20
-48.11422325789091
 30
0.0
  0
VERTEX
  5
5D6
  8
LAYER_1
 10
47.27351636491957
 20
-48.32414899885693
 30
0.0
  0
VERTEX
  5
5D7
  8
LAYER_1
 10
47.16547202014324
 20
-48.543620443009
 30
0.0
  0
VERTEX
  5
5D8
  8
LAYER_1
 10
46.95920693915804
 20
-49.01249896734953
 30
0.0
  0
VERTEX
  5
5D9
  8
LAYER_1
 10
46.84864687013712
 20
-49.30743503794397
 30
0.0
  0
VERTEX
  5
5DA
  8
LAYER_1
 10
46.75278115273952
 20
-49.61471152207565
 30
0.0
  0
VERTEX
  5
5DB
  8
LAYER_1
 10
46.67161116570273
 20
-49.93281253561568
 30
0.0
  0
VERTEX
  5
5DC
  8
LAYER_1
 10
46.60513828776421
 20
-50.26022219443517
 30
0.0
  0
VERTEX
  5
5DD
  8
LAYER_1
 10
46.55336389766144
 20
-50.59542461440521
 30
0.0
  0
VERTEX
  5
5DE
  8
LAYER_1
 10
46.51628937413189
 20
-50.9369039113969
 30
0.0
  0
VERTEX
  5
5DF
  8
LAYER_1
 10
46.49391609591304
 20
-51.28314420128136
 30
0.0
  0
VERTEX
  5
5E0
  8
LAYER_1
 10
46.48624544174234
 20
-51.63262959992968
 30
0.0
  0
VERTEX
  5
5E1
  8
LAYER_1
 10
46.49327879035729
 20
-51.98384422321296
 30
0.0
  0
VERTEX
  5
5E2
  8
LAYER_1
 10
46.51501752049534
 20
-52.33527218700232
 30
0.0
  0
VERTEX
  5
5E3
  8
LAYER_1
 10
46.55146301089398
 20
-52.68539760716884
 30
0.0
  0
VERTEX
  5
5E4
  8
LAYER_1
 10
46.60261664029068
 20
-53.03270459958363
 30
0.0
  0
VERTEX
  5
5E5
  8
LAYER_1
 10
46.6684797874229
 20
-53.37567728011781
 30
0.0
  0
VERTEX
  5
5E6
  8
LAYER_1
 10
46.74905383102813
 20
-53.71279976464245
 30
0.0
  0
VERTEX
  5
5E7
  8
LAYER_1
 10
46.84434014984382
 20
-54.04255616902869
 30
0.0
  0
VERTEX
  5
5E8
  8
LAYER_1
 10
46.95434012260746
 20
-54.36343060914761
 30
0.0
  0
VERTEX
  5
5E9
  8
LAYER_1
 10
47.10490056705115
 20
-54.72021480262063
 30
0.0
  0
VERTEX
  5
5EA
  8
LAYER_1
 10
47.3085840017999
 20
-55.15057014849522
 30
0.0
  0
VERTEX
  5
5EB
  8
LAYER_1
 10
47.50291835616303
 20
-55.52774788092918
 30
0.0
  0
VERTEX
  5
5EC
  8
LAYER_1
 10
47.57705710610914
 20
-55.65678615278023
 30
0.0
  0
VERTEX
  5
5ED
  8
LAYER_1
 10
47.62543155944982
 20
-55.72499923408031
 30
0.0
  0
VERTEX
  5
5EE
  8
LAYER_1
 10
47.88323506802251
 20
-56.06249924749136
 30
0.0
  0
VERTEX
  5
5EF
  8
LAYER_1
 10
48.10728369586244
 20
-56.34207345517114
 30
0.0
  0
VERTEX
  5
5F0
  8
LAYER_1
 10
48.36715621795526
 20
-56.62368342258917
 30
0.0
  0
VERTEX
  5
5F1
  8
LAYER_1
 10
48.64797954035105
 20
-56.89512619331258
 30
0.0
  0
VERTEX
  5
5F2
  8
LAYER_1
 10
48.93488056909992
 20
-57.14419881090851
 30
0.0
  0
VERTEX
  5
5F3
  8
LAYER_1
 10
49.21298621025193
 20
-57.35869831894411
 30
0.0
  0
VERTEX
  5
5F4
  8
LAYER_1
 10
49.4674233698572
 20
-57.52642176098651
 30
0.0
  0
VERTEX
  5
5F5
  8
LAYER_1
 10
49.58111842722046
 20
-57.588929033375
 30
0.0
  0
VERTEX
  5
5F6
  8
LAYER_1
 10
49.68331895396581
 20
-57.63516618060285
 30
0.0
  0
VERTEX
  5
5F7
  8
LAYER_1
 10
49.77216581334953
 20
-57.66360783311598
 30
0.0
  0
VERTEX
  5
5F8
  8
LAYER_1
 10
49.84579986862786
 20
-57.67272862136026
 30
0.0
  0
VERTEX
  5
5F9
  8
LAYER_1
 10
49.93395479361859
 20
-57.65279272737599
 30
0.0
  0
VERTEX
  5
5FA
  8
LAYER_1
 10
50.06922754112664
 20
-57.60019039630507
 30
0.0
  0
VERTEX
  5
5FB
  8
LAYER_1
 10
50.23319012864317
 20
-57.5229196753403
 30
0.0
  0
SEQEND
  5
E37
  8
LAYER_1
  0
POLYLINE
  5
76
  8
LAYER_1
 66
     1
 10
0.0
 20
0.0
 30
0.0
 70
     1
  0
VERTEX
  5
5FC
  8
LAYER_1
 10
35.94111100450283
 20
-50.50891283240061
 30
0.0
  0
VERTEX
  5
5FD
  8
LAYER_1
 10
36.11685643264053
 20
-50.40146456099203
 30
0.0
  0
VERTEX
  5
5FE
  8
LAYER_1
 10
36.3339736525169
 20
-50.24500159599637
 30
0.0
  0
VERTEX
  5
5FF
  8
LAYER_1
 10
36.56487224738796
 20
-50.06052049292509
 30
0.0
  0
VERTEX
  5
600
  8
LAYER_1
 10
36.78196180050973
 20
-49.86901780728963
 30
0.0
  0
VERTEX
  5
601
  8
LAYER_1
 10
36.97114887277081
 20
-49.68323880916915
 30
0.0
  0
VERTEX
  5
602
  8
LAYER_1
 10
37.15072185210357
 20
-49.48909635553962
 30
0.0
  0
VERTEX
  5
603
  8
LAYER_1
 10
37.32062639653793
 20
-49.28701715099656
 30
0.0
  0
VERTEX
  5
604
  8
LAYER_1
 10
37.48080816410383
 20
-49.0774279001355
 30
0.0
  0
VERTEX
  5
605
  8
LAYER_1
 10
37.63121281283118
 20
-48.86075530755197
 30
0.0
  0
VERTEX
  5
606
  8
LAYER_1
 10
37.77178600074993
 20
-48.63742607784151
 30
0.0
  0
VERTEX
  5
607
  8
LAYER_1
 10
37.90247338588996
 20
-48.40786691559964
 30
0.0
  0
VERTEX
  5
608
  8
LAYER_1
 10
38.02322062628124
 20
-48.17250452542189
 30
0.0
  0
VERTEX
  5
609
  8
LAYER_1
 10
38.13397337995367
 20
-47.93176561190378
 30
0.0
  0
VERTEX
  5
60A
  8
LAYER_1
 10
38.23467730493719
 20
-47.68607687964085
 30
0.0
  0
VERTEX
  5
60B
  8
LAYER_1
 10
38.32527805926171
 20
-47.43586503322863
 30
0.0
  0
VERTEX
  5
60C
  8
LAYER_1
 10
38.40572130095715
 20
-47.18155677726264
 30
0.0
  0
VERTEX
  5
60D
  8
LAYER_1
 10
38.47595268805346
 20
-46.92357881633842
 30
0.0
  0
VERTEX
  5
60E
  8
LAYER_1
 10
38.53591787858053
 20
-46.6623578550515
 30
0.0
  0
VERTEX
  5
60F
  8
LAYER_1
 10
38.58556253056832
 20
-46.3983205979974
 30
0.0
  0
VERTEX
  5
610
  8
LAYER_1
 10
38.62483230204674
 20
-46.13189374977165
 30
0.0
  0
VERTEX
  5
611
  8
LAYER_1
 10
38.65367285104571
 20
-45.86350401496978
 30
0.0
  0
VERTEX
  5
612
  8
LAYER_1
 10
38.67202983559515
 20
-45.59357809818734
 30
0.0
  0
VERTEX
  5
613
  8
LAYER_1
 10
38.679848913725
 20
-45.32254270401982
 30
0.0
  0
VERTEX
  5
614
  8
LAYER_1
 10
38.67707574346517
 20
-45.05082453706279
 30
0.0
  0
VERTEX
  5
615
  8
LAYER_1
 10
38.6636559828456
 20
-44.77885030191175
 30
0.0
  0
VERTEX
  5
616
  8
LAYER_1
 10
38.6395352898962
 20
-44.50704670316225
 30
0.0
  0
VERTEX
  5
617
  8
LAYER_1
 10
38.60465932264691
 20
-44.23584044540979
 30
0.0
  0
VERTEX
  5
618
  8
LAYER_1
 10
38.55897373912764
 20
-43.96565823324993
 30
0.0
  0
VERTEX
  5
619
  8
LAYER_1
 10
38.50242419736831
 20
-43.69692677127819
 30
0.0
  0
VERTEX
  5
61A
  8
LAYER_1
 10
38.43495635539887
 20
-43.4300727640901
 30
0.0
  0
VERTEX
  5
61B
  8
LAYER_1
 10
38.35651587124923
 20
-43.16552291628118
 30
0.0
  0
VERTEX
  5
61C
  8
LAYER_1
 10
38.26704840294931
 20
-42.90370393244696
 30
0.0
  0
VERTEX
  5
61D
  8
LAYER_1
 10
38.16649960852905
 20
-42.64504251718299
 30
0.0
  0
VERTEX
  5
61E
  8
LAYER_1
 10
38.05481514601835
 20
-42.38996537508477
 30
0.0
  0
VERTEX
  5
61F
  8
LAYER_1
 10
37.93194067344715
 20
-42.13889921074784
 30
0.0
  0
VERTEX
  5
620
  8
LAYER_1
 10
37.79782184884537
 20
-41.89227072876774
 30
0.0
  0
VERTEX
  5
621
  8
LAYER_1
 10
37.68015384782181
 20
-41.70013897795919
 30
0.0
  0
VERTEX
  5
622
  8
LAYER_1
 10
37.54758292820611
 20
-41.50764246378816
 30
0.0
  0
VERTEX
  5
623
  8
LAYER_1
 10
37.40239395436045
 20
-41.31672176315442
 30
0.0
  0
VERTEX
  5
624
  8
LAYER_1
 10
37.24687179064703
 20
-41.12931745295776
 30
0.0
  0
VERTEX
  5
625
  8
LAYER_1
 10
37.08330130142805
 20
-40.94737011009796
 30
0.0
  0
VERTEX
  5
626
  8
LAYER_1
 10
36.91396735106571
 20
-40.77282031147484
 30
0.0
  0
VERTEX
  5
627
  8
LAYER_1
 10
36.74115480392219
 20
-40.60760863398816
 30
0.0
  0
VERTEX
  5
628
  8
LAYER_1
 10
36.56714852435969
 20
-40.45367565453772
 30
0.0
  0
VERTEX
  5
629
  8
LAYER_1
 10
36.39423337674042
 20
-40.31296195002331
 30
0.0
  0
VERTEX
  5
62A
  8
LAYER_1
 10
36.22469422542656
 20
-40.1874080973447
 30
0.0
  0
VERTEX
  5
62B
  8
LAYER_1
 10
36.06081593478031
 20
-40.07895467340169
 30
0.0
  0
VERTEX
  5
62C
  8
LAYER_1
 10
35.90488336916387
 20
-39.98954225509408
 30
0.0
  0
VERTEX
  5
62D
  8
LAYER_1
 10
35.75918139293942
 20
-39.92111141932165
 30
0.0
  0
VERTEX
  5
62E
  8
LAYER_1
 10
35.62599487046919
 20
-39.87560274298417
 30
0.0
  0
VERTEX
  5
62F
  8
LAYER_1
 10
35.50760866611533
 20
-39.85495680298145
 30
0.0
  0
VERTEX
  5
630
  8
LAYER_1
 10
35.40630764424007
 20
-39.86111417621327
 30
0.0
  0
VERTEX
  5
631
  8
LAYER_1
 10
35.19086958427211
 20
-39.90843231175614
 30
0.0
  0
VERTEX
  5
632
  8
LAYER_1
 10
34.59940634773812
 20
-40.45791325658331
 30
0.0
  0
VERTEX
  5
633
  8
LAYER_1
 10
34.3826821389141
 20
-40.66730388654406
 30
0.0
  0
VERTEX
  5
634
  8
LAYER_1
 10
34.17938549148138
 20
-40.88049528930839
 30
0.0
  0
VERTEX
  5
635
  8
LAYER_1
 10
33.9892809263069
 20
-41.09797032000527
 30
0.0
  0
VERTEX
  5
636
  8
LAYER_1
 10
33.81213296425759
 20
-41.32021183376376
 30
0.0
  0
VERTEX
  5
637
  8
LAYER_1
 10
33.64770612620037
 20
-41.54770268571286
 30
0.0
  0
VERTEX
  5
638
  8
LAYER_1
 10
33.49576493300217
 20
-41.78092573098159
 30
0.0
  0
VERTEX
  5
639
  8
LAYER_1
 10
33.35607390552991
 20
-42.02036382469895
 30
0.0
  0
VERTEX
  5
63A
  8
LAYER_1
 10
33.22839756465053
 20
-42.26649982199397
 30
0.0
  0
VERTEX
  5
63B
  8
LAYER_1
 10
33.11250043123094
 20
-42.51981657799565
 30
0.0
  0
VERTEX
  5
63C
  8
LAYER_1
 10
33.00814702613809
 20
-42.78079694783302
 30
0.0
  0
VERTEX
  5
63D
  8
LAYER_1
 10
32.91510187023889
 20
-43.04992378663509
 30
0.0
  0
VERTEX
  5
63E
  8
LAYER_1
 10
32.83312948440025
 20
-43.32767994953088
 30
0.0
  0
VERTEX
  5
63F
  8
LAYER_1
 10
32.76199438948914
 20
-43.61454829164939
 30
0.0
  0
VERTEX
  5
640
  8
LAYER_1
 10
32.70146110637246
 20
-43.91101166811966
 30
0.0
  0
VERTEX
  5
641
  8
LAYER_1
 10
32.65129415591714
 20
-44.21755293407067
 30
0.0
  0
VERTEX
  5
642
  8
LAYER_1
 10
32.6112580589901
 20
-44.53465494463146
 30
0.0
  0
VERTEX
  5
643
  8
LAYER_1
 10
32.58904487199428
 20
-44.79136041971882
 30
0.0
  0
VERTEX
  5
644
  8
LAYER_1
 10
32.57747492526241
 20
-45.05252465314183
 30
0.0
  0
VERTEX
  5
645
  8
LAYER_1
 10
32.57631975548382
 20
-45.31699703788823
 30
0.0
  0
VERTEX
  5
646
  8
LAYER_1
 10
32.58535089934786
 20
-45.58362696694571
 30
0.0
  0
VERTEX
  5
647
  8
LAYER_1
 10
32.60433989354385
 20
-45.851263833302
 30
0.0
  0
VERTEX
  5
648
  8
LAYER_1
 10
32.63305827476113
 20
-46.11875702994483
 30
0.0
  0
VERTEX
  5
649
  8
LAYER_1
 10
32.67127757968902
 20
-46.3849559498619
 30
0.0
  0
VERTEX
  5
64A
  8
LAYER_1
 10
32.71876934501687
 20
-46.64870998604093
 30
0.0
  0
VERTEX
  5
64B
  8
LAYER_1
 10
32.77530510743401
 20
-46.90886853146964
 30
0.0
  0
VERTEX
  5
64C
  8
LAYER_1
 10
32.84065640362977
 20
-47.16428097913575
 30
0.0
  0
VERTEX
  5
64D
  8
LAYER_1
 10
32.91459477029348
 20
-47.41379672202696
 30
0.0
  0
VERTEX
  5
64E
  8
LAYER_1
 10
32.99689174411448
 20
-47.656265153131
 30
0.0
  0
VERTEX
  5
64F
  8
LAYER_1
 10
33.08731886178211
 20
-47.89053566543559
 30
0.0
  0
VERTEX
  5
650
  8
LAYER_1
 10
33.18564765998568
 20
-48.11545765192844
 30
0.0
  0
VERTEX
  5
651
  8
LAYER_1
 10
33.29164967541455
 20
-48.32988050559726
 30
0.0
  0
VERTEX
  5
652
  8
LAYER_1
 10
33.40509644475804
 20
-48.53265361942979
 30
0.0
  0
VERTEX
  5
653
  8
LAYER_1
 10
33.59571888048696
 20
-48.87074780265112
 30
0.0
  0
VERTEX
  5
654
  8
LAYER_1
 10
33.65370690020538
 20
-48.98767968351387
 30
0.0
  0
VERTEX
  5
655
  8
LAYER_1
 10
33.67500431835651
 20
-49.04735011870154
 30
0.0
  0
VERTEX
  5
656
  8
LAYER_1
 10
33.68388127183425
 20
-49.07467485687625
 30
0.0
  0
VERTEX
  5
657
  8
LAYER_1
 10
33.70805119466968
 20
-49.10353677062447
 30
0.0
  0
VERTEX
  5
658
  8
LAYER_1
 10
33.74382268046611
 20
-49.13049806695044
 30
0.0
  0
VERTEX
  5
659
  8
LAYER_1
 10
33.78750432282686
 20
-49.15212095285838
 30
0.0
  0
VERTEX
  5
65A
  8
LAYER_1
 10
33.83118596518761
 20
-49.17704502452905
 30
0.0
  0
VERTEX
  5
65B
  8
LAYER_1
 10
33.86695745098405
 20
-49.21299469793173
 30
0.0
  0
VERTEX
  5
65C
  8
LAYER_1
 10
33.89112737381947
 20
-49.2551594097535
 30
0.0
  0
VERTEX
  5
65D
  8
LAYER_1
 10
33.90000432729721
 20
-49.2987285966814
 30
0.0
  0
VERTEX
  5
65E
  8
LAYER_1
 10
33.90000432729721
 20
-49.40216593820055
 30
0.0
  0
VERTEX
  5
65F
  8
LAYER_1
 10
34.33855780384856
 20
-49.82047510359031
 30
0.0
  0
VERTEX
  5
660
  8
LAYER_1
 10
34.49822985445225
 20
-49.96562914504051
 30
0.0
  0
VERTEX
  5
661
  8
LAYER_1
 10
34.67673603066261
 20
-50.11607663557382
 30
0.0
  0
VERTEX
  5
662
  8
LAYER_1
 10
35.04758277546418
 20
-50.40189360111764
 30
0.0
  0
VERTEX
  5
663
  8
LAYER_1
 10
35.21858935183582
 20
-50.52178389474207
 30
0.0
  0
VERTEX
  5
664
  8
LAYER_1
 10
35.36576206937499
 20
-50.61600927467751
 30
0.0
  0
VERTEX
  5
665
  8
LAYER_1
 10
35.47843393197191
 20
-50.6768301502309
 30
0.0
  0
VERTEX
  5
666
  8
LAYER_1
 10
35.54593794351678
 20
-50.69650693070922
 30
0.0
  0
VERTEX
  5
667
  8
LAYER_1
 10
35.67916619115114
 20
-50.63996067155666
 30
0.0
  0
SEQEND
  5
E38
  8
LAYER_1
  0
POLYLINE
  5
77
  8
LAYER_1
 66
     1
 10
0.0
 20
0.0
 30
0.0
 70
     1
  0
VERTEX
  5
668
  8
LAYER_1
 10
-3.48749715834856
 20
-48.59557813015928
 30
0.0
  0
VERTEX
  5
669
  8
LAYER_1
 10
-2.527210298379558
 20
-47.89983194589621
 30
0.0
  0
VERTEX
  5
66A
  8
LAYER_1
 10
-2.707353716443123
 20
-47.76244177579673
 30
0.0
  0
VERTEX
  5
66B
  8
LAYER_1
 10
-3.320261112746579
 20
-47.30132868646334
 30
0.0
  0
VERTEX
  5
66C
  8
LAYER_1
 10
-3.602890340113888
 20
-47.09015846518179
 30
0.0
  0
VERTEX
  5
66D
  8
LAYER_1
 10
-4.574997201561928
 20
-47.80392916571755
 30
0.0
  0
VERTEX
  5
66E
  8
LAYER_1
 10
-4.574997201561928
 20
-47.84497046986651
 30
0.0
  0
VERTEX
  5
66F
  8
LAYER_1
 10
-3.577627472375269
 20
-48.59999895095825
 30
0.0
  0
SEQEND
  5
E39
  8
LAYER_1
  0
POLYLINE
  5
78
  8
LAYER_1
 66
     1
 10
0.0
 20
0.0
 30
0.0
 70
     1
  0
VERTEX
  5
670
  8
LAYER_1
 10
-6.262497268617153
 20
-46.49330331665482
 30
0.0
  0
VERTEX
  5
671
  8
LAYER_1
 10
-5.38484090724819
 20
-45.78990461630653
 30
0.0
  0
VERTEX
  5
672
  8
LAYER_1
 10
-5.636169080482091
 20
-45.57616645870251
 30
0.0
  0
VERTEX
  5
673
  8
LAYER_1
 10
-5.978903984394359
 20
-45.30099824038944
 30
0.0
  0
VERTEX
  5
674
  8
LAYER_1
 10
-6.449997276067734
 20
-44.93956653257004
 30
0.0
  0
VERTEX
  5
675
  8
LAYER_1
 10
-7.012497298419476
 20
-44.51670476404159
 30
0.0
  0
VERTEX
  5
676
  8
LAYER_1
 10
-7.087497301399708
 20
-44.43679799735974
 30
0.0
  0
VERTEX
  5
677
  8
LAYER_1
 10
-8.885987828792807
 20
-43.08749873191118
 30
0.0
  0
VERTEX
  5
678
  8
LAYER_1
 10
-9.212944308194366
 20
-42.86249872297049
 30
0.0
  0
VERTEX
  5
679
  8
LAYER_1
 10
-10.51272089867435
 20
-41.86946961799916
 30
0.0
  0
VERTEX
  5
67A
  8
LAYER_1
 10
-13.02213016544509
 20
-39.95696954200324
 30
0.0
  0
VERTEX
  5
67B
  8
LAYER_1
 10
-14.23176284173584
 20
-39.03749857097864
 30
0.0
  0
VERTEX
  5
67C
  8
LAYER_1
 10
-14.66249760240316
 20
-38.71240966140849
 30
0.0
  0
VERTEX
  5
67D
  8
LAYER_1
 10
-16.07974760684564
 20
-37.64538955822168
 30
0.0
  0
VERTEX
  5
67E
  8
LAYER_1
 10
-16.23362263889707
 20
-37.61484775469357
 30
0.0
  0
VERTEX
  5
67F
  8
LAYER_1
 10
-16.68749768286943
 20
-37.54655978605004
 30
0.0
  0
VERTEX
  5
680
  8
LAYER_1
 10
-17.03156019654125
 20
-37.49451284624716
 30
0.0
  0
VERTEX
  5
681
  8
LAYER_1
 10
-17.43749771267176
 20
-37.42238396752147
 30
0.0
  0
VERTEX
  5
682
  8
LAYER_1
 10
-18.00604576625324
 20
-37.32422640827081
 30
0.0
  0
VERTEX
  5
683
  8
LAYER_1
 10
-18.12459380195334
 20
-37.3124985024333
 30
0.0
  0
VERTEX
  5
684
  8
LAYER_1
 10
-17.4606318587596
 20
-37.83749852329493
 30
0.0
  0
VERTEX
  5
685
  8
LAYER_1
 10
-16.29208378133625
 20
-38.75649157404577
 30
0.0
  0
VERTEX
  5
686
  8
LAYER_1
 10
-15.49621165937616
 20
-39.39399159937774
 30
0.0
  0
VERTEX
  5
687
  8
LAYER_1
 10
-15.2548843096224
 20
-39.58641417882959
 30
0.0
  0
VERTEX
  5
688
  8
LAYER_1
 10
-15.08371164298488
 20
-39.70710119540058
 30
0.0
  0
VERTEX
  5
689
  8
LAYER_1
 10
-14.96249761432409
 20
-39.77670379598067
 30
0.0
  0
VERTEX
  5
68A
  8
LAYER_1
 10
-14.24026215251639
 20
-40.34460122073256
 30
0.0
  0
VERTEX
  5
68B
  8
LAYER_1
 10
-12.78617883938693
 20
-41.47499866783619
 30
0.0
  0
VERTEX
  5
68C
  8
LAYER_1
 10
-11.63681037618366
 20
-42.36961762374296
 30
0.0
  0
VERTEX
  5
68D
  8
LAYER_1
 10
-11.21928976430214
 20
-42.70173655729799
 30
0.0
  0
VERTEX
  5
68E
  8
LAYER_1
 10
-9.18749738484621
 20
-44.25045619604784
 30
0.0
  0
VERTEX
  5
68F
  8
LAYER_1
 10
-8.967746358021131
 20
-44.41897749378184
 30
0.0
  0
VERTEX
  5
690
  8
LAYER_1
 10
-8.13120312485728
 20
-45.07499881088734
 30
0.0
  0
VERTEX
  5
691
  8
LAYER_1
 10
-6.907455206064725
 20
-46.0312488488853
 30
0.0
  0
VERTEX
  5
692
  8
LAYER_1
 10
-6.300499493610914
 20
-46.49999886751175
 30
0.0
  0
SEQEND
  5
E3A
  8
LAYER_1
  0
POLYLINE
  5
79
  8
LAYER_1
 66
     1
 10
0.0
 20
0.0
 30
0.0
 70
     1
  0
VERTEX
  5
693
  8
LAYER_1
 10
-0.7124970480799675
 20
-46.49115284085421
 30
0.0
  0
VERTEX
  5
694
  8
LAYER_1
 10
0.4356931853220658
 20
-45.56249883025885
 30
0.0
  0
VERTEX
  5
695
  8
LAYER_1
 10
2.482190527930143
 20
-43.98749876767397
 30
0.0
  0
VERTEX
  5
696
  8
LAYER_1
 10
2.765291531567257
 20
-43.76249875873327
 30
0.0
  0
VERTEX
  5
697
  8
LAYER_1
 10
3.257023548582424
 20
-43.38749874383211
 30
0.0
  0
VERTEX
  5
698
  8
LAYER_1
 10
3.58388941123002
 20
-43.13835810893215
 30
0.0
  0
VERTEX
  5
699
  8
LAYER_1
 10
4.076787189873201
 20
-42.74999871850014
 30
0.0
  0
VERTEX
  5
69A
  8
LAYER_1
 10
4.640091311399864
 20
-42.30656120087951
 30
0.0
  0
VERTEX
  5
69B
  8
LAYER_1
 10
5.136231998426879
 20
-41.92499868571758
 30
0.0
  0
VERTEX
  5
69C
  8
LAYER_1
 10
6.159445644601149
 20
-41.13749865442514
 30
0.0
  0
VERTEX
  5
69D
  8
LAYER_1
 10
7.464678468989561
 20
-40.12499861419201
 30
0.0
  0
VERTEX
  5
69E
  8
LAYER_1
 10
8.195009827844643
 20
-39.56249859184027
 30
0.0
  0
VERTEX
  5
69F
  8
LAYER_1
 10
8.476241036481852
 20
-39.33749858289957
 30
0.0
  0
VERTEX
  5
6A0
  8
LAYER_1
 10
8.96502710931911
 20
-38.96249856799841
 30
0.0
  0
VERTEX
  5
6A1
  8
LAYER_1
 10
9.776264016703184
 20
-38.33815561145587
 30
0.0
  0
VERTEX
  5
6A2
  8
LAYER_1
 10
10.98750341683626
 20
-37.38552516106828
 30
0.0
  0
VERTEX
  5
6A3
  8
LAYER_1
 10
11.06739512787835
 20
-37.31900812246101
 30
0.0
  0
VERTEX
  5
6A4
  8
LAYER_1
 10
11.08464786163269
 20
-37.29920742924596
 30
0.0
  0
VERTEX
  5
6A5
  8
LAYER_1
 10
11.08572261757985
 20
-37.28715533854764
 30
0.0
  0
VERTEX
  5
6A6
  8
LAYER_1
 10
11.0361905061645
 20
-37.28262712007424
 30
0.0
  0
VERTEX
  5
6A7
  8
LAYER_1
 10
10.91250341385603
 20
-37.29808377778689
 30
0.0
  0
VERTEX
  5
6A8
  8
LAYER_1
 10
10.68750340491533
 20
-37.32986244274802
 30
0.0
  0
VERTEX
  5
6A9
  8
LAYER_1
 10
9.112503342330456
 20
-37.59398163326571
 30
0.0
  0
VERTEX
  5
6AA
  8
LAYER_1
 10
8.898727226867038
 20
-37.67170651787587
 30
0.0
  0
VERTEX
  5
6AB
  8
LAYER_1
 10
8.793693820530462
 20
-37.72015507881697
 30
0.0
  0
VERTEX
  5
6AC
  8
LAYER_1
 10
8.665742062889185
 20
-37.79461270318921
 30
0.0
  0
VERTEX
  5
6AD
  8
LAYER_1
 10
8.531046703109869
 20
-37.88493184802108
 30
0.0
  0
VERTEX
  5
6AE
  8
LAYER_1
 10
8.405782490359172
 20
-37.98096497034106
 30
0.0
  0
VERTEX
  5
6AF
  8
LAYER_1
 10
8.147389718055416
 20
-38.18854805438956
 30
0.0
  0
VERTEX
  5
6B0
  8
LAYER_1
 10
7.918171541855628
 20
-38.36249854415655
 30
0.0
  0
VERTEX
  5
6B1
  8
LAYER_1
 10
7.70972921439656
 20
-38.51249855011702
 30
0.0
  0
VERTEX
  5
6B2
  8
LAYER_1
 10
5.962503217160702
 20
-39.82748354025841
 30
0.0
  0
VERTEX
  5
6B3
  8
LAYER_1
 10
5.734484382413399
 20
-40.01249860972166
 30
0.0
  0
VERTEX
  5
6B4
  8
LAYER_1
 10
4.23750314861536
 20
-41.12596879331311
 30
0.0
  0
VERTEX
  5
6B5
  8
LAYER_1
 10
4.162503145635128
 20
-41.21323955221431
 30
0.0
  0
VERTEX
  5
6B6
  8
LAYER_1
 10
3.417836555697974
 20
-41.77536912716158
 30
0.0
  0
VERTEX
  5
6B7
  8
LAYER_1
 10
1.992836499073562
 20
-42.84509413895522
 30
0.0
  0
VERTEX
  5
6B8
  8
LAYER_1
 10
1.312503032386303
 20
-43.35268957580158
 30
0.0
  0
VERTEX
  5
6B9
  8
LAYER_1
 10
0.9800882821186434
 20
-43.61249875277281
 30
0.0
  0
VERTEX
  5
6BA
  8
LAYER_1
 10
-1.777971133825929
 20
-45.70525811521788
 30
0.0
  0
VERTEX
  5
6BB
  8
LAYER_1
 10
-1.470234099893631
 20
-45.95894409178956
 30
0.0
  0
VERTEX
  5
6BC
  8
LAYER_1
 10
-0.9931766010664802
 20
-46.3563144679365
 30
0.0
  0
VERTEX
  5
6BD
  8
LAYER_1
 10
-0.8572381566710234
 20
-46.4564923149712
 30
0.0
  0
VERTEX
  5
6BE
  8
LAYER_1
 10
-0.803156358020443
 20
-46.48595563017305
 30
0.0
  0
VERTEX
  5
6BF
  8
LAYER_1
 10
-0.7681765921257835
 20
-46.49557585418297
 30
0.0
  0
SEQEND
  5
E3B
  8
LAYER_1
  0
POLYLINE
  5
7A
  8
LAYER_1
 66
     1
 10
0.0
 20
0.0
 30
0.0
 70
     1
  0
VERTEX
  5
6C0
  8
LAYER_1
 10
-3.55296293212794
 20
-44.39793824321922
 30
0.0
  0
VERTEX
  5
6C1
  8
LAYER_1
 10
-2.199101423207921
 20
-43.31249874085188
 30
0.0
  0
VERTEX
  5
6C2
  8
LAYER_1
 10
-1.99078371535046
 20
-43.16249873489141
 30
0.0
  0
VERTEX
  5
6C3
  8
LAYER_1
 10
-1.502327665238994
 20
-42.78749871999025
 30
0.0
  0
VERTEX
  5
6C4
  8
LAYER_1
 10
-0.849614587509981
 20
-42.27056877209561
 30
0.0
  0
VERTEX
  5
6C5
  8
LAYER_1
 10
-0.483562776111043
 20
-41.99999868869781
 30
0.0
  0
VERTEX
  5
6C6
  8
LAYER_1
 10
-0.3163771063927072
 20
-41.88749868422747
 30
0.0
  0
VERTEX
  5
6C7
  8
LAYER_1
 10
0.8625030145049095
 20
-40.99707435245741
 30
0.0
  0
VERTEX
  5
6C8
  8
LAYER_1
 10
1.034679222198548
 20
-40.83749864250422
 30
0.0
  0
VERTEX
  5
6C9
  8
LAYER_1
 10
1.75559318140337
 20
-40.27499862015247
 30
0.0
  0
VERTEX
  5
6CA
  8
LAYER_1
 10
2.914114132643576
 20
-39.37499858438969
 30
0.0
  0
VERTEX
  5
6CB
  8
LAYER_1
 10
3.884108307299627
 20
-38.62499855458736
 30
0.0
  0
VERTEX
  5
6CC
  8
LAYER_1
 10
4.41649548992028
 20
-38.21249853819609
 30
0.0
  0
VERTEX
  5
6CD
  8
LAYER_1
 10
4.012503139674664
 20
-38.24753793864979
 30
0.0
  0
VERTEX
  5
6CE
  8
LAYER_1
 10
3.075003102421761
 20
-38.32847224069132
 30
0.0
  0
VERTEX
  5
6CF
  8
LAYER_1
 10
2.071409312542528
 20
-38.40544336176214
 30
0.0
  0
VERTEX
  5
6D0
  8
LAYER_1
 10
0.9750030189752579
 20
-38.47684916487409
 30
0.0
  0
VERTEX
  5
6D1
  8
LAYER_1
 10
-0.1874970272183418
 20
-38.54429178701533
 30
0.0
  0
VERTEX
  5
6D2
  8
LAYER_1
 10
-7.012497298419476
 20
-38.54429178701533
 30
0.0
  0
VERTEX
  5
6D3
  8
LAYER_1
 10
-8.174997344613075
 20
-38.47632156986398
 30
0.0
  0
VERTEX
  5
6D4
  8
LAYER_1
 10
-9.271403638180345
 20
-38.40422993699096
 30
0.0
  0
VERTEX
  5
6D5
  8
LAYER_1
 10
-10.27499742805958
 20
-38.32635078416835
 30
0.0
  0
VERTEX
  5
6D6
  8
LAYER_1
 10
-11.21249746531248
 20
-38.24435021562405
 30
0.0
  0
VERTEX
  5
6D7
  8
LAYER_1
 10
-11.48893550678331
 20
-38.21249853819609
 30
0.0
  0
VERTEX
  5
6D8
  8
LAYER_1
 10
-9.356088327262029
 20
-39.8624986037612
 30
0.0
  0
VERTEX
  5
6D9
  8
LAYER_1
 10
-9.27179285605412
 20
-39.93857728144739
 30
0.0
  0
VERTEX
  5
6DA
  8
LAYER_1
 10
-8.849997371435165
 20
-40.2741393779201
 30
0.0
  0
VERTEX
  5
6DB
  8
LAYER_1
 10
-8.474997356534004
 20
-40.5739295399886
 30
0.0
  0
VERTEX
  5
6DC
  8
LAYER_1
 10
-8.437497355043888
 20
-40.61423628327059
 30
0.0
  0
VERTEX
  5
6DD
  8
LAYER_1
 10
-6.937497295439243
 20
-41.73554080271186
 30
0.0
  0
VERTEX
  5
6DE
  8
LAYER_1
 10
-6.824997290968895
 20
-41.82399059282643
 30
0.0
  0
VERTEX
  5
6DF
  8
LAYER_1
 10
-6.299997270107269
 20
-42.24069057939561
 30
0.0
  0
VERTEX
  5
6E0
  8
LAYER_1
 10
-5.87648162827827
 20
-42.56997076252786
 30
0.0
  0
VERTEX
  5
6E1
  8
LAYER_1
 10
-5.437497235834599
 20
-42.90069730993082
 30
0.0
  0
VERTEX
  5
6E2
  8
LAYER_1
 10
-4.943434716202319
 20
-43.27688705046538
 30
0.0
  0
VERTEX
  5
6E3
  8
LAYER_1
 10
-4.387497194111347
 20
-43.71547235750977
 30
0.0
  0
VERTEX
  5
6E4
  8
LAYER_1
 10
-3.787497170269489
 20
-44.19849087100812
 30
0.0
  0
SEQEND
  5
E3C
  8
LAYER_1
  0
POLYLINE
  5
7B
  8
LAYER_1
 66
     1
 10
0.0
 20
0.0
 30
0.0
 70
     1
  0
VERTEX
  5
6E5
  8
LAYER_1
 10
59.7000053524971
 20
-43.24788960012152
 30
0.0
  0
VERTEX
  5
6E6
  8
LAYER_1
 10
60.03750536590815
 20
-43.06866062148629
 30
0.0
  0
VERTEX
  5
6E7
  8
LAYER_1
 10
60.37500537931919
 20
-42.86984131349409
 30
0.0
  0
VERTEX
  5
6E8
  8
LAYER_1
 10
60.57072806240495
 20
-42.73598772158128
 30
0.0
  0
VERTEX
  5
6E9
  8
LAYER_1
 10
60.7638161533949
 20
-42.58331378030508
 30
0.0
  0
VERTEX
  5
6EA
  8
LAYER_1
 10
60.95355029866452
 20
-42.41294373989416
 30
0.0
  0
VERTEX
  5
6EB
  8
LAYER_1
 10
61.13921114458928
 20
-42.22600185057722
 30
0.0
  0
VERTEX
  5
6EC
  8
LAYER_1
 10
61.32007933754463
 20
-42.02361236258292
 30
0.0
  0
VERTEX
  5
6ED
  8
LAYER_1
 10
61.49543552390605
 20
-41.80689952613996
 30
0.0
  0
VERTEX
  5
6EE
  8
LAYER_1
 10
61.66456035004902
 20
-41.57698759147699
 30
0.0
  0
VERTEX
  5
6EF
  8
LAYER_1
 10
61.82673446234899
 20
-41.33500080882273
 30
0.0
  0
VERTEX
  5
6F0
  8
LAYER_1
 10
61.98123850718143
 20
-41.08206342840582
 30
0.0
  0
VERTEX
  5
6F1
  8
LAYER_1
 10
62.1273531309218
 20
-40.81929970045495
 30
0.0
  0
VERTEX
  5
6F2
  8
LAYER_1
 10
62.26435897994559
 20
-40.54783387519881
 30
0.0
  0
VERTEX
  5
6F3
  8
LAYER_1
 10
62.39153670062825
 20
-40.26879020286609
 30
0.0
  0
VERTEX
  5
6F4
  8
LAYER_1
 10
62.50816693934526
 20
-39.98329293368543
 30
0.0
  0
VERTEX
  5
6F5
  8
LAYER_1
 10
62.61353034247207
 20
-39.69246631788555
 30
0.0
  0
VERTEX
  5
6F6
  8
LAYER_1
 10
62.70690755638417
 20
-39.39743460569511
 30
0.0
  0
VERTEX
  5
6F7
  8
LAYER_1
 10
62.787579227457
 20
-39.0993220473428
 30
0.0
  0
VERTEX
  5
6F8
  8
LAYER_1
 10
62.8315207666689
 20
-38.9030723958289
 30
0.0
  0
VERTEX
  5
6F9
  8
LAYER_1
 10
62.8692535749347
 20
-38.69559311276376
 30
0.0
  0
VERTEX
  5
6FA
  8
LAYER_1
 10
62.92615468820036
 20
-38.25353961823109
 30
0.0
  0
VERTEX
  5
6FB
  8
LAYER_1
 10
62.95840594639854
 20
-37.7863494962476
 30
0.0
  0
VERTEX
  5
6FC
  8
LAYER_1
 10
62.96613072867387
 20
-37.3072106793161
 30
0.0
  0
VERTEX
  5
6FD
  8
LAYER_1
 10
62.94945241417093
 20
-36.8293110999394
 30
0.0
  0
VERTEX
  5
6FE
  8
LAYER_1
 10
62.90849438203431
 20
-36.36583869062033
 30
0.0
  0
VERTEX
  5
6FF
  8
LAYER_1
 10
62.84338001140861
 20
-35.92998138386167
 30
0.0
  0
VERTEX
  5
700
  8
LAYER_1
 10
62.80180275514505
 20
-35.72652962284964
 30
0.0
  0
VERTEX
  5
701
  8
LAYER_1
 10
62.75423268143842
 20
-35.53492711216627
 30
0.0
  0
VERTEX
  5
702
  8
LAYER_1
 10
62.65591786713246
 20
-35.20783604793984
 30
0.0
  0
VERTEX
  5
703
  8
LAYER_1
 10
62.53512242583957
 20
-34.85508607911195
 30
0.0
  0
VERTEX
  5
704
  8
LAYER_1
 10
62.40716542303221
 20
-34.51909249763673
 30
0.0
  0
VERTEX
  5
705
  8
LAYER_1
 10
62.28736592418281
 20
-34.24227059546836
 30
0.0
  0
VERTEX
  5
706
  8
LAYER_1
 10
62.163473287042
 20
-33.9970097494237
 30
0.0
  0
VERTEX
  5
707
  8
LAYER_1
 10
62.02683159136265
 20
-33.75565548257914
 30
0.0
  0
VERTEX
  5
708
  8
LAYER_1
 10
61.87859358764192
 20
-33.51934190761932
 30
0.0
  0
VERTEX
  5
709
  8
LAYER_1
 10
61.71991202637703
 20
-33.28920313722884
 30
0.0
  0
VERTEX
  5
70A
  8
LAYER_1
 10
61.55193965806515
 20
-33.06637328409234
 30
0.0
  0
VERTEX
  5
70B
  8
LAYER_1
 10
61.37582923320346
 20
-32.85198646089444
 30
0.0
  0
VERTEX
  5
70C
  8
LAYER_1
 10
61.19273350228917
 20
-32.64717678031975
 30
0.0
  0
VERTEX
  5
70D
  8
LAYER_1
 10
61.00380521581945
 20
-32.45307835505291
 30
0.0
  0
VERTEX
  5
70E
  8
LAYER_1
 10
60.81019712429151
 20
-32.27082529777854
 30
0.0
  0
VERTEX
  5
70F
  8
LAYER_1
 10
60.61306197820251
 20
-32.10155172118125
 30
0.0
  0
VERTEX
  5
710
  8
LAYER_1
 10
60.41355252804965
 20
-31.94639173794568
 30
0.0
  0
VERTEX
  5
711
  8
LAYER_1
 10
60.21282152433012
 20
-31.80647946075644
 30
0.0
  0
VERTEX
  5
712
  8
LAYER_1
 10
60.01202171754112
 20
-31.68294900229816
 30
0.0
  0
VERTEX
  5
713
  8
LAYER_1
 10
59.81230585817981
 20
-31.57693447525546
 30
0.0
  0
VERTEX
  5
714
  8
LAYER_1
 10
59.61482669674341
 20
-31.48956999231297
 30
0.0
  0
VERTEX
  5
715
  8
LAYER_1
 10
59.42073698372909
 20
-31.42198966615531
 30
0.0
  0
VERTEX
  5
716
  8
LAYER_1
 10
59.23783735134253
 20
-31.37447765474433
 30
0.0
  0
VERTEX
  5
717
  8
LAYER_1
 10
59.16809031824764
 20
-31.36687602592081
 30
0.0
  0
VERTEX
  5
718
  8
LAYER_1
 10
59.10466414726334
 20
-31.37149441296198
 30
0.0
  0
VERTEX
  5
719
  8
LAYER_1
 10
59.04144809342343
 20
-31.38942063932537
 30
0.0
  0
VERTEX
  5
71A
  8
LAYER_1
 10
58.97233141176165
 20
-31.42174252846851
 30
0.0
  0
VERTEX
  5
71B
  8
LAYER_1
 10
58.79195318510759
 20
-31.53392458892417
 30
0.0
  0
VERTEX
  5
71C
  8
LAYER_1
 10
58.53057074964764
 20
-31.7195930391057
 30
0.0
  0
VERTEX
  5
71D
  8
LAYER_1
 10
58.27801210408957
 20
-31.92439345050056
 30
0.0
  0
VERTEX
  5
71E
  8
LAYER_1
 10
58.03488665723172
 20
-32.14729822189765
 30
0.0
  0
VERTEX
  5
71F
  8
LAYER_1
 10
57.80180381787245
 20
-32.38727975208589
 30
0.0
  0
VERTEX
  5
720
  8
LAYER_1
 10
57.5793729948101
 20
-32.64331043985419
 30
0.0
  0
VERTEX
  5
721
  8
LAYER_1
 10
57.36820359684301
 20
-32.91436268399148
 30
0.0
  0
VERTEX
  5
722
  8
LAYER_1
 10
57.16890503276953
 20
-33.19940888328667
 30
0.0
  0
VERTEX
  5
723
  8
LAYER_1
 10
56.98208671138799
 20
-33.49742143652867
 30
0.0
  0
VERTEX
  5
724
  8
LAYER_1
 10
56.80835804149676
 20
-33.8073727425064
 30
0.0
  0
VERTEX
  5
725
  8
LAYER_1
 10
56.64832843189417
 20
-34.12823520000877
 30
0.0
  0
VERTEX
  5
726
  8
LAYER_1
 10
56.50260729137857
 20
-34.45898120782472
 30
0.0
  0
VERTEX
  5
727
  8
LAYER_1
 10
56.3718040287483
 20
-34.79858316474314
 30
0.0
  0
VERTEX
  5
728
  8
LAYER_1
 10
56.25652805280171
 20
-35.14601346955295
 30
0.0
  0
VERTEX
  5
729
  8
LAYER_1
 10
56.15738877233714
 20
-35.50024452104307
 30
0.0
  0
VERTEX
  5
72A
  8
LAYER_1
 10
56.07499559615295
 20
-35.86024871800244
 30
0.0
  0
VERTEX
  5
72B
  8
LAYER_1
 10
56.00995793304747
 20
-36.22499845921993
 30
0.0
  0
VERTEX
  5
72C
  8
LAYER_1
 10
55.97904385295244
 20
-36.52442475196794
 30
0.0
  0
VERTEX
  5
72D
  8
LAYER_1
 10
55.96357186575422
 20
-36.89628484594679
 30
0.0
  0
VERTEX
  5
72E
  8
LAYER_1
 10
55.96247051585109
 20
-37.31496817139756
 30
0.0
  0
VERTEX
  5
72F
  8
LAYER_1
 10
55.97466834764136
 20
-37.75486415856135
 30
0.0
  0
VERTEX
  5
730
  8
LAYER_1
 10
55.99909390552335
 20
-38.19036223767924
 30
0.0
  0
VERTEX
  5
731
  8
LAYER_1
 10
56.03467573389533
 20
-38.59585183899232
 30
0.0
  0
VERTEX
  5
732
  8
LAYER_1
 10
56.08034237715565
 20
-38.94572239274169
 30
0.0
  0
VERTEX
  5
733
  8
LAYER_1
 10
56.13502237970258
 20
-39.21436332916843
 30
0.0
  0
VERTEX
  5
734
  8
LAYER_1
 10
56.22736275892947
 20
-39.53903802501453
 30
0.0
  0
VERTEX
  5
735
  8
LAYER_1
 10
56.32698640610973
 20
-39.85089485697877
 30
0.0
  0
VERTEX
  5
736
  8
LAYER_1
 10
56.43410592282374
 20
-40.15026443543979
 30
0.0
  0
VERTEX
  5
737
  8
LAYER_1
 10
56.5489339106519
 20
-40.43747737077626
 30
0.0
  0
VERTEX
  5
738
  8
LAYER_1
 10
56.67168297117463
 20
-40.71286427336686
 30
0.0
  0
VERTEX
  5
739
  8
LAYER_1
 10
56.80256570597231
 20
-40.97675575359024
 30
0.0
  0
VERTEX
  5
73A
  8
LAYER_1
 10
56.94179471662532
 20
-41.22948242182507
 30
0.0
  0
VERTEX
  5
73B
  8
LAYER_1
 10
57.08958260471408
 20
-41.47137488845001
 30
0.0
  0
VERTEX
  5
73C
  8
LAYER_1
 10
57.24614197181899
 20
-41.70276376384374
 30
0.0
  0
VERTEX
  5
73D
  8
LAYER_1
 10
57.41168541952042
 20
-41.92397965838491
 30
0.0
  0
VERTEX
  5
73E
  8
LAYER_1
 10
57.58642554939879
 20
-42.13535318245219
 30
0.0
  0
VERTEX
  5
73F
  8
LAYER_1
 10
57.77057496303448
 20
-42.33721494642425
 30
0.0
  0
VERTEX
  5
740
  8
LAYER_1
 10
57.96434626200791
 20
-42.52989556067975
 30
0.0
  0
VERTEX
  5
741
  8
LAYER_1
 10
58.16795204789945
 20
-42.71372563559737
 30
0.0
  0
VERTEX
  5
742
  8
LAYER_1
 10
58.38160492228951
 20
-42.88903578155575
 30
0.0
  0
VERTEX
  5
743
  8
LAYER_1
 10
58.60551748675849
 20
-43.05615660893358
 30
0.0
  0
VERTEX
  5
744
  8
LAYER_1
 10
59.12352968509487
 20
-43.42499874532223
 30
0.0
  0
VERTEX
  5
745
  8
LAYER_1
 10
59.24301751209046
 20
-43.41908331749572
 30
0.0
  0
VERTEX
  5
746
  8
LAYER_1
 10
59.31604325534931
 20
-43.40374497775034
 30
0.0
  0
VERTEX
  5
747
  8
LAYER_1
 10
59.4265464188456
 20
-43.36635504903861
 30
0.0
  0
SEQEND
  5
E3D
  8
LAYER_1
  0
POLYLINE
  5
7C
  8
LAYER_1
 66
     1
 10
0.0
 20
0.0
 30
0.0
 70
     1
  0
VERTEX
  5
748
  8
LAYER_1
 10
35.96675466312773
 20
-32.46976013138644
 30
0.0
  0
VERTEX
  5
749
  8
LAYER_1
 10
36.12349296541534
 20
-32.38034450327643
 30
0.0
  0
VERTEX
  5
74A
  8
LAYER_1
 10
36.32534393233779
 20
-32.24611627024566
 30
0.0
  0
VERTEX
  5
74B
  8
LAYER_1
 10
36.54627135790594
 20
-32.0852484999478
 30
0.0
  0
VERTEX
  5
74C
  8
LAYER_1
 10
36.76023903613061
 20
-31.91591426003649
 30
0.0
  0
VERTEX
  5
74D
  8
LAYER_1
 10
36.98051562149516
 20
-31.71712060472264
 30
0.0
  0
VERTEX
  5
74E
  8
LAYER_1
 10
37.19938185634719
 20
-31.48883824022754
 30
0.0
  0
VERTEX
  5
74F
  8
LAYER_1
 10
37.4135600329676
 20
-31.23566398852679
 30
0.0
  0
VERTEX
  5
750
  8
LAYER_1
 10
37.61977244363728
 20
-30.96219467159599
 30
0.0
  0
VERTEX
  5
751
  8
LAYER_1
 10
37.81474138063717
 20
-30.67302711141073
 30
0.0
  0
VERTEX
  5
752
  8
LAYER_1
 10
37.99518913624817
 20
-30.37275812994663
 30
0.0
  0
VERTEX
  5
753
  8
LAYER_1
 10
38.15783800275119
 20
-30.06598454917927
 30
0.0
  0
VERTEX
  5
754
  8
LAYER_1
 10
38.29941027242712
 20
-29.75730319108426
 30
0.0
  0
VERTEX
  5
755
  8
LAYER_1
 10
38.40044643446096
 20
-29.49672473114786
 30
0.0
  0
VERTEX
  5
756
  8
LAYER_1
 10
38.48966093295009
 20
-29.22322807319962
 30
0.0
  0
VERTEX
  5
757
  8
LAYER_1
 10
38.56699287679706
 20
-28.9385723077629
 30
0.0
  0
VERTEX
  5
758
  8
LAYER_1
 10
38.63238137490438
 20
-28.64451652536106
 30
0.0
  0
VERTEX
  5
759
  8
LAYER_1
 10
38.68576553617457
 20
-28.34281981651744
 30
0.0
  0
VERTEX
  5
75A
  8
LAYER_1
 10
38.72708446951017
 20
-28.03524127175541
 30
0.0
  0
VERTEX
  5
75B
  8
LAYER_1
 10
38.75627728381371
 20
-27.72353998159833
 30
0.0
  0
VERTEX
  5
75C
  8
LAYER_1
 10
38.77328308798769
 20
-27.40947503656955
 30
0.0
  0
VERTEX
  5
75D
  8
LAYER_1
 10
38.77804099093465
 20
-27.09480552719243
 30
0.0
  0
VERTEX
  5
75E
  8
LAYER_1
 10
38.77049010155711
 20
-26.78129054399032
 30
0.0
  0
VERTEX
  5
75F
  8
LAYER_1
 10
38.75056952875759
 20
-26.4706891774866
 30
0.0
  0
VERTEX
  5
760
  8
LAYER_1
 10
38.71821838143863
 20
-26.16476051820461
 30
0.0
  0
VERTEX
  5
761
  8
LAYER_1
 10
38.67337576850274
 20
-25.86526365666771
 30
0.0
  0
VERTEX
  5
762
  8
LAYER_1
 10
38.61598079885244
 20
-25.57395768339925
 30
0.0
  0
VERTEX
  5
763
  8
LAYER_1
 10
38.54597258139027
 20
-25.2926016889226
 30
0.0
  0
VERTEX
  5
764
  8
LAYER_1
 10
38.46329022501874
 20
-25.02295476376112
 30
0.0
  0
VERTEX
  5
765
  8
LAYER_1
 10
38.37219257374296
 20
-24.76798896792281
 30
0.0
  0
VERTEX
  5
766
  8
LAYER_1
 10
38.27460195376392
 20
-24.52263482110348
 30
0.0
  0
VERTEX
  5
767
  8
LAYER_1
 10
38.17037449459919
 20
-24.286704113257
 30
0.0
  0
VERTEX
  5
768
  8
LAYER_1
 10
38.05936632576633
 20
-24.06000863433722
 30
0.0
  0
VERTEX
  5
769
  8
LAYER_1
 10
37.94143357678288
 20
-23.84236017429803
 30
0.0
  0
VERTEX
  5
76A
  8
LAYER_1
 10
37.81643237716641
 20
-23.63357052309329
 30
0.0
  0
VERTEX
  5
76B
  8
LAYER_1
 10
37.68421885643447
 20
-23.43345147067687
 30
0.0
  0
VERTEX
  5
76C
  8
LAYER_1
 10
37.54464914410463
 20
-23.24181480700263
 30
0.0
  0
VERTEX
  5
76D
  8
LAYER_1
 10
37.39757936969444
 20
-23.05847232202446
 30
0.0
  0
VERTEX
  5
76E
  8
LAYER_1
 10
37.24286566272146
 20
-22.88323580569621
 30
0.0
  0
VERTEX
  5
76F
  8
LAYER_1
 10
37.08036415270324
 20
-22.71591704797175
 30
0.0
  0
VERTEX
  5
770
  8
LAYER_1
 10
36.90993096915734
 20
-22.55632783880496
 30
0.0
  0
VERTEX
  5
771
  8
LAYER_1
 10
36.73142224160133
 20
-22.4042799681497
 30
0.0
  0
VERTEX
  5
772
  8
LAYER_1
 10
36.54469409955276
 20
-22.25958522595984
 30
0.0
  0
VERTEX
  5
773
  8
LAYER_1
 10
36.34960267252919
 20
-22.12205540218925
 30
0.0
  0
VERTEX
  5
774
  8
LAYER_1
 10
36.14600409004818
 20
-21.99150228679181
 30
0.0
  0
VERTEX
  5
775
  8
LAYER_1
 10
35.62105844108675
 20
-21.67050666719677
 30
0.0
  0
VERTEX
  5
776
  8
LAYER_1
 10
35.30428140579866
 20
-21.89019444178454
 30
0.0
  0
VERTEX
  5
777
  8
LAYER_1
 10
35.07524043092938
 20
-22.0569942714642
 30
0.0
  0
VERTEX
  5
778
  8
LAYER_1
 10
34.8566909074528
 20
-22.23244487991723
 30
0.0
  0
VERTEX
  5
779
  8
LAYER_1
 10
34.64861325091917
 20
-22.41657644462857
 30
0.0
  0
VERTEX
  5
77A
  8
LAYER_1
 10
34.45098787687876
 20
-22.60941914308316
 30
0.0
  0
VERTEX
  5
77B
  8
LAYER_1
 10
34.26379520088183
 20
-22.81100315276593
 30
0.0
  0
VERTEX
  5
77C
  8
LAYER_1
 10
34.08701563847863
 20
-23.02135865116183
 30
0.0
  0
VERTEX
  5
77D
  8
LAYER_1
 10
33.92062960521945
 20
-23.24051581575577
 30
0.0
  0
VERTEX
  5
77E
  8
LAYER_1
 10
33.76461751665452
 20
-23.46850482403272
 30
0.0
  0
VERTEX
  5
77F
  8
LAYER_1
 10
33.61895978833413
 20
-23.7053558534776
 30
0.0
  0
VERTEX
  5
780
  8
LAYER_1
 10
33.48363683580852
 20
-23.95109908157534
 30
0.0
  0
VERTEX
  5
781
  8
LAYER_1
 10
33.35862907462796
 20
-24.2057646858109
 30
0.0
  0
VERTEX
  5
782
  8
LAYER_1
 10
33.24391692034271
 20
-24.4693828436692
 30
0.0
  0
VERTEX
  5
783
  8
LAYER_1
 10
33.13948078850304
 20
-24.74198373263518
 30
0.0
  0
VERTEX
  5
784
  8
LAYER_1
 10
33.04530109465921
 20
-25.02359753019378
 30
0.0
  0
VERTEX
  5
785
  8
LAYER_1
 10
32.96135825436147
 20
-25.31425441382993
 30
0.0
  0
VERTEX
  5
786
  8
LAYER_1
 10
32.88763268316009
 20
-25.61398456102857
 30
0.0
  0
VERTEX
  5
787
  8
LAYER_1
 10
32.78310779893754
 20
-26.11250601009216
 30
0.0
  0
VERTEX
  5
788
  8
LAYER_1
 10
32.74945918230082
 20
-26.31626765715691
 30
0.0
  0
VERTEX
  5
789
  8
LAYER_1
 10
32.72665257412292
 20
-26.50619368556837
 30
0.0
  0
VERTEX
  5
78A
  8
LAYER_1
 10
32.71351256801066
 20
-26.6946569200701
 30
0.0
  0
VERTEX
  5
78B
  8
LAYER_1
 10
32.70886375757085
 20
-26.89403018540566
 30
0.0
  0
VERTEX
  5
78C
  8
LAYER_1
 10
32.72033809813593
 20
-27.37499810755253
 30
0.0
  0
VERTEX
  5
78D
  8
LAYER_1
 10
32.73771398311976
 20
-27.68972763347941
 30
0.0
  0
VERTEX
  5
78E
  8
LAYER_1
 10
32.7637619660075
 20
-27.99199514495793
 30
0.0
  0
VERTEX
  5
78F
  8
LAYER_1
 10
32.79886545110266
 20
-28.28282996994001
 30
0.0
  0
VERTEX
  5
790
  8
LAYER_1
 10
32.84340784270874
 20
-28.56326143637752
 30
0.0
  0
VERTEX
  5
791
  8
LAYER_1
 10
32.89777254512927
 20
-28.83431887222238
 30
0.0
  0
VERTEX
  5
792
  8
LAYER_1
 10
32.96234296266776
 20
-29.09703160542648
 30
0.0
  0
VERTEX
  5
793
  8
LAYER_1
 10
33.03750249962771
 20
-29.35242896394171
 30
0.0
  0
VERTEX
  5
794
  8
LAYER_1
 10
33.12363456031265
 20
-29.60154027571997
 30
0.0
  0
VERTEX
  5
795
  8
LAYER_1
 10
33.22112254902608
 20
-29.84539486871317
 30
0.0
  0
VERTEX
  5
796
  8
LAYER_1
 10
33.33034987007152
 20
-30.08502207087319
 30
0.0
  0
VERTEX
  5
797
  8
LAYER_1
 10
33.45169992775247
 20
-30.32145121015195
 30
0.0
  0
VERTEX
  5
798
  8
LAYER_1
 10
33.58555612637247
 20
-30.55571161450132
 30
0.0
  0
VERTEX
  5
799
  8
LAYER_1
 10
33.732301870235
 20
-30.78883261187322
 30
0.0
  0
VERTEX
  5
79A
  8
LAYER_1
 10
33.89232056364359
 20
-31.02184353021953
 30
0.0
  0
VERTEX
  5
79B
  8
LAYER_1
 10
34.06599561090176
 20
-31.25577369749217
 30
0.0
  0
VERTEX
  5
79C
  8
LAYER_1
 10
34.25371041631301
 20
-31.49165244164301
 30
0.0
  0
VERTEX
  5
79D
  8
LAYER_1
 10
34.45110683345001
 20
-31.72523441924402
 30
0.0
  0
VERTEX
  5
79E
  8
LAYER_1
 10
34.61879667137346
 20
-31.89525140207093
 30
0.0
  0
VERTEX
  5
79F
  8
LAYER_1
 10
34.82395382893442
 20
-32.06245946872496
 30
0.0
  0
VERTEX
  5
7A0
  8
LAYER_1
 10
35.13375220498398
 20
-32.28761469780734
 30
0.0
  0
VERTEX
  5
7A1
  8
LAYER_1
 10
35.60655297662919
 20
-32.62499831616879
 30
0.0
  0
VERTEX
  5
7A2
  8
LAYER_1
 10
35.63452868698093
 20
-32.62125999521001
 30
0.0
  0
SEQEND
  5
E3E
  8
LAYER_1
  0
POLYLINE
  5
7D
  8
LAYER_1
 66
     1
 10
0.0
 20
0.0
 30
0.0
 70
     1
  0
VERTEX
  5
7A3
  8
LAYER_1
 10
-2.512497119605541
 20
-31.63002193111545
 30
0.0
  0
VERTEX
  5
7A4
  8
LAYER_1
 10
-1.237497068941593
 20
-31.57108112617895
 30
0.0
  0
VERTEX
  5
7A5
  8
LAYER_1
 10
2.512503080070019
 20
-31.4154767973792
 30
0.0
  0
VERTEX
  5
7A6
  8
LAYER_1
 10
3.412503115832806
 20
-31.35423504249774
 30
0.0
  0
VERTEX
  5
7A7
  8
LAYER_1
 10
4.413846536365294
 20
-31.27992384696018
 30
0.0
  0
VERTEX
  5
7A8
  8
LAYER_1
 10
5.380177976929433
 20
-31.19605124548988
 30
0.0
  0
VERTEX
  5
7A9
  8
LAYER_1
 10
6.287691294800606
 20
-31.10484155997571
 30
0.0
  0
VERTEX
  5
7AA
  8
LAYER_1
 10
7.112580347254195
 20
-31.00851911230652
 30
0.0
  0
VERTEX
  5
7AB
  8
LAYER_1
 10
8.037657468406977
 20
-30.89147451382745
 30
0.0
  0
VERTEX
  5
7AC
  8
LAYER_1
 10
8.223712865994713
 20
-30.82073637774522
 30
0.0
  0
VERTEX
  5
7AD
  8
LAYER_1
 10
8.321851030254454
 20
-30.79327008584454
 30
0.0
  0
VERTEX
  5
7AE
  8
LAYER_1
 10
8.451520674304312
 20
-30.77077756913714
 30
0.0
  0
VERTEX
  5
7AF
  8
LAYER_1
 10
8.595848079565041
 20
-30.75557992271322
 30
0.0
  0
VERTEX
  5
7B0
  8
LAYER_1
 10
8.737959527457392
 20
-30.74999824166298
 30
0.0
  0
VERTEX
  5
7B1
  8
LAYER_1
 10
8.869047547611023
 20
-30.74408027267782
 30
0.0
  0
VERTEX
  5
7B2
  8
LAYER_1
 10
8.983360669424762
 20
-30.72796699078754
 30
0.0
  0
VERTEX
  5
7B3
  8
LAYER_1
 10
9.068609173973082
 20
-30.70411933358992
 30
0.0
  0
VERTEX
  5
7B4
  8
LAYER_1
 10
9.096493657608484
 20
-30.69006415725016
 30
0.0
  0
VERTEX
  5
7B5
  8
LAYER_1
 10
9.112503342330456
 20
-30.67499823868275
 30
0.0
  0
VERTEX
  5
7B6
  8
LAYER_1
 10
9.154599517665892
 20
-30.64587714377558
 30
0.0
  0
VERTEX
  5
7B7
  8
LAYER_1
 10
9.234952496659426
 20
-30.62202948657796
 30
0.0
  0
VERTEX
  5
7B8
  8
LAYER_1
 10
9.342020240652088
 20
-30.60591620468767
 30
0.0
  0
VERTEX
  5
7B9
  8
LAYER_1
 10
9.464260710984902
 20
-30.59999823570251
 30
0.0
  0
VERTEX
  5
7BA
  8
LAYER_1
 10
9.769665528641198
 20
-30.59999823570251
 30
0.0
  0
VERTEX
  5
7BB
  8
LAYER_1
 10
9.699847171239895
 20
-29.03015436775222
 30
0.0
  0
VERTEX
  5
7BC
  8
LAYER_1
 10
9.777425271537197
 20
-28.9525762674547
 30
0.0
  0
VERTEX
  5
7BD
  8
LAYER_1
 10
9.832994659929456
 20
-28.92245414569854
 30
0.0
  0
VERTEX
  5
7BE
  8
LAYER_1
 10
9.926949183636617
 20
-28.89778673411957
 30
0.0
  0
VERTEX
  5
7BF
  8
LAYER_1
 10
10.04616127957218
 20
-28.88111956413378
 30
0.0
  0
VERTEX
  5
7C0
  8
LAYER_1
 10
10.17750338464964
 20
-28.87499816715717
 30
0.0
  0
VERTEX
  5
7C1
  8
LAYER_1
 10
10.50000339746475
 20
-28.87499816715717
 30
0.0
  0
VERTEX
  5
7C2
  8
LAYER_1
 10
10.4973532649402
 20
-21.18749786168337
 30
0.0
  0
VERTEX
  5
7C3
  8
LAYER_1
 10
9.743342161559141
 20
-20.83087336973883
 30
0.0
  0
VERTEX
  5
7C4
  8
LAYER_1
 10
9.787503369152546
 20
-19.91249781101942
 30
0.0
  0
VERTEX
  5
7C5
  8
LAYER_1
 10
10.50000339746475
 20
-19.86677913056907
 30
0.0
  0
VERTEX
  5
7C6
  8
LAYER_1
 10
10.50000339746475
 20
-17.52771789429278
 30
0.0
  0
VERTEX
  5
7C7
  8
LAYER_1
 10
9.187503345310688
 20
-17.62863542449239
 30
0.0
  0
VERTEX
  5
7C8
  8
LAYER_1
 10
4.91250317543745
 20
-17.70794667493413
 30
0.0
  0
VERTEX
  5
7C9
  8
LAYER_1
 10
4.612503163516521
 20
-17.77691356366304
 30
0.0
  0
VERTEX
  5
7CA
  8
LAYER_1
 10
-6.862497292459011
 20
-17.8665144510555
 30
0.0
  0
VERTEX
  5
7CB
  8
LAYER_1
 10
-16.38749767094851
 20
-17.6223915984471
 30
0.0
  0
VERTEX
  5
7CC
  8
LAYER_1
 10
-17.62499772012234
 20
-17.52786862072031
 30
0.0
  0
VERTEX
  5
7CD
  8
LAYER_1
 10
-17.62499772012234
 20
-19.8749978095293
 30
0.0
  0
VERTEX
  5
7CE
  8
LAYER_1
 10
-16.96857221400715
 20
-19.8749978095293
 30
0.0
  0
VERTEX
  5
7CF
  8
LAYER_1
 10
-16.93107390768592
 20
-20.30624782666564
 30
0.0
  0
VERTEX
  5
7D0
  8
LAYER_1
 10
-16.91884530599624
 20
-20.47230002982184
 30
0.0
  0
VERTEX
  5
7D1
  8
LAYER_1
 10
-16.91688567726723
 20
-20.60349593968834
 30
0.0
  0
VERTEX
  5
7D2
  8
LAYER_1
 10
-16.92883412716767
 20
-20.70659652157616
 30
0.0
  0
VERTEX
  5
7D3
  8
LAYER_1
 10
-16.95832976136632
 20
-20.78836274079628
 30
0.0
  0
VERTEX
  5
7D4
  8
LAYER_1
 10
-17.00901168553195
 20
-20.85555556265971
 30
0.0
  0
VERTEX
  5
7D5
  8
LAYER_1
 10
-17.08451900533333
 20
-20.91493595247745
 30
0.0
  0
VERTEX
  5
7D6
  8
LAYER_1
 10
-17.18849082643924
 20
-20.97326487556049
 30
0.0
  0
VERTEX
  5
7D7
  8
LAYER_1
 10
-17.32456625451842
 20
-21.03730329721984
 30
0.0
  0
VERTEX
  5
7D8
  8
LAYER_1
 10
-17.62499772012234
 20
-21.17277901229101
 30
0.0
  0
VERTEX
  5
7D9
  8
LAYER_1
 10
-17.62499772012234
 20
-28.86677948819683
 30
0.0
  0
VERTEX
  5
7DA
  8
LAYER_1
 10
-16.91249769181013
 20
-28.91249816864729
 30
0.0
  0
VERTEX
  5
7DB
  8
LAYER_1
 10
-16.87022812582766
 20
-30.58469776508716
 30
0.0
  0
VERTEX
  5
7DC
  8
LAYER_1
 10
-16.59136289689797
 20
-30.62766717405923
 30
0.0
  0
VERTEX
  5
7DD
  8
LAYER_1
 10
-15.86249765008688
 20
-30.74222282877174
 30
0.0
  0
VERTEX
  5
7DE
  8
LAYER_1
 10
-14.88749761134386
 20
-30.88920269931386
 30
0.0
  0
VERTEX
  5
7DF
  8
LAYER_1
 10
-13.91249757260084
 20
-31.04396925588944
 30
0.0
  0
VERTEX
  5
7E0
  8
LAYER_1
 10
-13.46249755471945
 20
-31.12334218766333
 30
0.0
  0
VERTEX
  5
7E1
  8
LAYER_1
 10
-12.44999751448631
 20
-31.20707691472134
 30
0.0
  0
VERTEX
  5
7E2
  8
LAYER_1
 10
-10.64999744296074
 20
-31.35128810802249
 30
0.0
  0
VERTEX
  5
7E3
  8
LAYER_1
 10
-9.8624974116683
 20
-31.41176457426563
 30
0.0
  0
VERTEX
  5
7E4
  8
LAYER_1
 10
-8.051580050685402
 20
-31.48798265673326
 30
0.0
  0
VERTEX
  5
7E5
  8
LAYER_1
 10
-6.225045346383247
 20
-31.55147916503848
 30
0.0
  0
VERTEX
  5
7E6
  8
LAYER_1
 10
-4.376579904654022
 20
-31.59711133515817
 30
0.0
  0
SEQEND
  5
E3F
  8
LAYER_1
  0
POLYLINE
  5
7E
  8
LAYER_1
 66
     1
 10
0.0
 20
0.0
 30
0.0
 70
     1
  0
VERTEX
  5
7E7
  8
LAYER_1
 10
-23.21249794214964
 20
-30.9495590184528
 30
0.0
  0
VERTEX
  5
7E8
  8
LAYER_1
 10
-22.46249791234732
 20
-30.52628004097642
 30
0.0
  0
VERTEX
  5
7E9
  8
LAYER_1
 10
-21.75136712177666
 20
-30.12748464279442
 30
0.0
  0
VERTEX
  5
7EA
  8
LAYER_1
 10
-21.37842440782788
 20
-29.91817812204951
 30
0.0
  0
VERTEX
  5
7EB
  8
LAYER_1
 10
-21.05910748686338
 20
-29.72746705094533
 30
0.0
  0
VERTEX
  5
7EC
  8
LAYER_1
 10
-20.85177597842873
 20
-29.60212967071304
 30
0.0
  0
VERTEX
  5
7ED
  8
LAYER_1
 10
-20.74807478822192
 20
-29.54999819397926
 30
0.0
  0
VERTEX
  5
7EE
  8
LAYER_1
 10
-20.60106024208083
 20
-29.47418820202291
 30
0.0
  0
VERTEX
  5
7EF
  8
LAYER_1
 10
-20.289592367251
 20
-29.29192162561721
 30
0.0
  0
VERTEX
  5
7F0
  8
LAYER_1
 10
-20.10598114739963
 20
-29.18793709754075
 30
0.0
  0
VERTEX
  5
7F1
  8
LAYER_1
 10
-19.92286889655882
 20
-29.09558953877146
 30
0.0
  0
VERTEX
  5
7F2
  8
LAYER_1
 10
-19.76147173678957
 20
-29.02491823415152
 30
0.0
  0
VERTEX
  5
7F3
  8
LAYER_1
 10
-19.64300579015293
 20
-28.98596246852306
 30
0.0
  0
VERTEX
  5
7F4
  8
LAYER_1
 10
-19.42499779164791
 20
-28.93807987979095
 30
0.0
  0
VERTEX
  5
7F5
  8
LAYER_1
 10
-19.42499779164791
 20
-22.04999789595604
 30
0.0
  0
VERTEX
  5
7F6
  8
LAYER_1
 10
-19.46475771494754
 20
-22.04999789595604
 30
0.0
  0
VERTEX
  5
7F7
  8
LAYER_1
 10
-19.52647804978603
 20
-22.06633096668751
 30
0.0
  0
VERTEX
  5
7F8
  8
LAYER_1
 10
-19.65039006569896
 20
-22.11302745181293
 30
0.0
  0
VERTEX
  5
7F9
  8
LAYER_1
 10
-20.05330453843342
 20
-22.28369430283163
 30
0.0
  0
VERTEX
  5
7FA
  8
LAYER_1
 10
-20.6105319285214
 20
-22.53436572418418
 30
0.0
  0
VERTEX
  5
7FB
  8
LAYER_1
 10
-21.25910303133341
 20
-22.83740899104259
 30
0.0
  0
VERTEX
  5
7FC
  8
LAYER_1
 10
-22.15570823376602
 20
-23.26359344224699
 30
0.0
  0
VERTEX
  5
7FD
  8
LAYER_1
 10
-22.53410308199736
 20
-23.40524141814405
 30
0.0
  0
VERTEX
  5
7FE
  8
LAYER_1
 10
-22.88861996427944
 20
-23.54979937284543
 30
0.0
  0
VERTEX
  5
7FF
  8
LAYER_1
 10
-23.2096060858668
 20
-23.69844368076136
 30
0.0
  0
VERTEX
  5
800
  8
LAYER_1
 10
-23.335552243182
 20
-23.75728936865196
 30
0.0
  0
VERTEX
  5
801
  8
LAYER_1
 10
-23.45884289260131
 20
-23.80547889575754
 30
0.0
  0
VERTEX
  5
802
  8
LAYER_1
 10
-23.56532764293745
 20
-23.83803938704509
 30
0.0
  0
VERTEX
  5
803
  8
LAYER_1
 10
-23.64085610300314
 20
-23.84999796748161
 30
0.0
  0
VERTEX
  5
804
  8
LAYER_1
 10
-23.77499796450138
 20
-23.84999796748161
 30
0.0
  0
VERTEX
  5
805
  8
LAYER_1
 10
-23.77499796450138
 20
-31.19999825954437
 30
0.0
  0
VERTEX
  5
806
  8
LAYER_1
 10
-23.71874796226621
 20
-31.19829479608728
 30
0.0
  0
VERTEX
  5
807
  8
LAYER_1
 10
-23.66139932717488
 20
-31.17814097962628
 30
0.0
  0
VERTEX
  5
808
  8
LAYER_1
 10
-23.54683389293496
 20
-31.12452598273111
 30
0.0
  0
SEQEND
  5
E40
  8
LAYER_1
  0
POLYLINE
  5
7F
  8
LAYER_1
 66
     1
 10
0.0
 20
0.0
 30
0.0
 70
     1
  0
VERTEX
  5
809
  8
LAYER_1
 10
16.6500036418438
 20
-31.19999825954437
 30
0.0
  0
VERTEX
  5
80A
  8
LAYER_1
 10
16.6500036418438
 20
-23.84999796748161
 30
0.0
  0
VERTEX
  5
80B
  8
LAYER_1
 10
16.38750363141298
 20
-23.84997210437938
 30
0.0
  0
VERTEX
  5
80C
  8
LAYER_1
 10
15.30000358819962
 20
-23.37362177499233
 30
0.0
  0
VERTEX
  5
80D
  8
LAYER_1
 10
14.34469105023891
 20
-22.94829956493619
 30
0.0
  0
VERTEX
  5
80E
  8
LAYER_1
 10
13.57500351965427
 20
-22.59463386287663
 30
0.0
  0
VERTEX
  5
80F
  8
LAYER_1
 10
12.73542728629121
 20
-22.20992061260041
 30
0.0
  0
VERTEX
  5
810
  8
LAYER_1
 10
12.45742610505494
 20
-22.09294904073141
 30
0.0
  0
VERTEX
  5
811
  8
LAYER_1
 10
12.328344173516
 20
-22.04999789595604
 30
0.0
  0
VERTEX
  5
812
  8
LAYER_1
 10
12.30000346899033
 20
-22.04999789595604
 30
0.0
  0
VERTEX
  5
813
  8
LAYER_1
 10
12.30000346899033
 20
-28.93373696501006
 30
0.0
  0
VERTEX
  5
814
  8
LAYER_1
 10
12.66337053602464
 20
-29.02493629340572
 30
0.0
  0
VERTEX
  5
815
  8
LAYER_1
 10
14.66250356286764
 20
-30.16546498653635
 30
0.0
  0
VERTEX
  5
816
  8
LAYER_1
 10
14.98020581172175
 20
-30.34316090412101
 30
0.0
  0
VERTEX
  5
817
  8
LAYER_1
 10
15.89635428123496
 20
-30.86042754062502
 30
0.0
  0
VERTEX
  5
818
  8
LAYER_1
 10
16.49480050189408
 20
-31.19999825954437
 30
0.0
  0
SEQEND
  5
E41
  8
LAYER_1
  0
POLYLINE
  5
80
  8
LAYER_1
 66
     1
 10
0.0
 20
0.0
 30
0.0
 70
     1
  0
VERTEX
  5
819
  8
LAYER_1
 10
50.23191566850787
 20
-27.21851217002201
 30
0.0
  0
VERTEX
  5
81A
  8
LAYER_1
 10
50.45013756895124
 20
-27.09682744454285
 30
0.0
  0
VERTEX
  5
81B
  8
LAYER_1
 10
50.69730237508976
 20
-26.93379634399531
 30
0.0
  0
VERTEX
  5
81C
  8
LAYER_1
 10
50.94305449886429
 20
-26.75073262556013
 30
0.0
  0
VERTEX
  5
81D
  8
LAYER_1
 10
51.15703835221562
 20
-26.56895004641807
 30
0.0
  0
VERTEX
  5
81E
  8
LAYER_1
 10
51.40741969131454
 20
-26.32496732468256
 30
0.0
  0
VERTEX
  5
81F
  8
LAYER_1
 10
51.64223952082919
 20
-26.07112341370625
 30
0.0
  0
VERTEX
  5
820
  8
LAYER_1
 10
51.86141613802478
 20
-25.80761264803117
 30
0.0
  0
VERTEX
  5
821
  8
LAYER_1
 10
52.06486784016649
 20
-25.53462936219939
 30
0.0
  0
VERTEX
  5
822
  8
LAYER_1
 10
52.25251292451954
 20
-25.25236789075293
 30
0.0
  0
VERTEX
  5
823
  8
LAYER_1
 10
52.42426968834911
 20
-24.96102256823384
 30
0.0
  0
VERTEX
  5
824
  8
LAYER_1
 10
52.5800564289204
 20
-24.66078772918417
 30
0.0
  0
VERTEX
  5
825
  8
LAYER_1
 10
52.71979144349861
 20
-24.35185770814594
 30
0.0
  0
VERTEX
  5
826
  8
LAYER_1
 10
52.84339302934893
 20
-24.03442683966122
 30
0.0
  0
VERTEX
  5
827
  8
LAYER_1
 10
52.95077948373658
 20
-23.70868945827203
 30
0.0
  0
VERTEX
  5
828
  8
LAYER_1
 10
53.04186910392674
 20
-23.37483989852042
 30
0.0
  0
VERTEX
  5
829
  8
LAYER_1
 10
53.1165801871846
 20
-23.03307249494844
 30
0.0
  0
VERTEX
  5
82A
  8
LAYER_1
 10
53.17483103077538
 20
-22.68358158209813
 30
0.0
  0
VERTEX
  5
82B
  8
LAYER_1
 10
53.21653993196426
 20
-22.32656149451152
 30
0.0
  0
VERTEX
  5
82C
  8
LAYER_1
 10
53.24162518801644
 20
-21.96220656673067
 30
0.0
  0
VERTEX
  5
82D
  8
LAYER_1
 10
53.25000509619713
 20
-21.59071113329762
 30
0.0
  0
VERTEX
  5
82E
  8
LAYER_1
 10
53.24636774671966
 20
-21.28295766122403
 30
0.0
  0
VERTEX
  5
82F
  8
LAYER_1
 10
53.23520872638247
 20
-20.98826560002388
 30
0.0
  0
VERTEX
  5
830
  8
LAYER_1
 10
53.21615757732837
 20
-20.70534070192385
 30
0.0
  0
VERTEX
  5
831
  8
LAYER_1
 10
53.18884384170018
 20
-20.43288871915061
 30
0.0
  0
VERTEX
  5
832
  8
LAYER_1
 10
53.1528970616407
 20
-20.16961540393087
 30
0.0
  0
VERTEX
  5
833
  8
LAYER_1
 10
53.10794677929276
 20
-19.91422650849129
 30
0.0
  0
VERTEX
  5
834
  8
LAYER_1
 10
53.05362253679918
 20
-19.66542778505857
 30
0.0
  0
VERTEX
  5
835
  8
LAYER_1
 10
52.98955387630276
 20
-19.42192498585937
 30
0.0
  0
VERTEX
  5
836
  8
LAYER_1
 10
52.91537033994634
 20
-19.18242386312039
 30
0.0
  0
VERTEX
  5
837
  8
LAYER_1
 10
52.8307014698727
 20
-18.94563016906831
 30
0.0
  0
VERTEX
  5
838
  8
LAYER_1
 10
52.73517680822468
 20
-18.71024965592981
 30
0.0
  0
VERTEX
  5
839
  8
LAYER_1
 10
52.62842589714509
 20
-18.47498807593157
 30
0.0
  0
VERTEX
  5
83A
  8
LAYER_1
 10
52.51007827877675
 20
-18.23855118130028
 30
0.0
  0
VERTEX
  5
83B
  8
LAYER_1
 10
52.37976349526247
 20
-17.99964472426262
 30
0.0
  0
VERTEX
  5
83C
  8
LAYER_1
 10
52.23711108874505
 20
-17.75697445704527
 30
0.0
  0
VERTEX
  5
83D
  8
LAYER_1
 10
52.08175060136733
 20
-17.50924613187492
 30
0.0
  0
VERTEX
  5
83E
  8
LAYER_1
 10
51.97564328960111
 20
-17.35714728228447
 30
0.0
  0
VERTEX
  5
83F
  8
LAYER_1
 10
51.85104381598867
 20
-17.19957441795804
 30
0.0
  0
VERTEX
  5
840
  8
LAYER_1
 10
51.71062547044204
 20
-17.03863685116269
 30
0.0
  0
VERTEX
  5
841
  8
LAYER_1
 10
51.55706154287324
 20
-16.87644389416545
 30
0.0
  0
VERTEX
  5
842
  8
LAYER_1
 10
51.22119010131722
 20
-16.55672905863352
 30
0.0
  0
VERTEX
  5
843
  8
LAYER_1
 10
50.86481581061676
 20
-16.25730440949859
 30
0.0
  0
VERTEX
  5
844
  8
LAYER_1
 10
50.50932499006802
 20
-15.99504444489702
 30
0.0
  0
VERTEX
  5
845
  8
LAYER_1
 10
50.33859410588062
 20
-15.88312449996386
 30
0.0
  0
VERTEX
  5
846
  8
LAYER_1
 10
50.1761039589672
 20
-15.78682366296517
 30
0.0
  0
VERTEX
  5
847
  8
LAYER_1
 10
50.02452783923979
 20
-15.70825124616801
 30
0.0
  0
VERTEX
  5
848
  8
LAYER_1
 10
49.88653903661043
 20
-15.6495165618394
 30
0.0
  0
VERTEX
  5
849
  8
LAYER_1
 10
49.76481084099112
 20
-15.61272892224641
 30
0.0
  0
VERTEX
  5
84A
  8
LAYER_1
 10
49.66201654229388
 20
-15.59999763965607
 30
0.0
  0
VERTEX
  5
84B
  8
LAYER_1
 10
49.59006821481074
 20
-15.61080209688237
 30
0.0
  0
VERTEX
  5
84C
  8
LAYER_1
 10
49.50208273305516
 20
-15.64210564912386
 30
0.0
  0
VERTEX
  5
84D
  8
LAYER_1
 10
49.40000485787394
 20
-15.69224356722439
 30
0.0
  0
VERTEX
  5
84E
  8
LAYER_1
 10
49.28577935011391
 20
-15.75955112202782
 30
0.0
  0
VERTEX
  5
84F
  8
LAYER_1
 10
49.02866448024456
 20
-15.93901622511883
 30
0.0
  0
VERTEX
  5
850
  8
LAYER_1
 10
48.74629621022154
 20
-16.16718312514775
 30
0.0
  0
VERTEX
  5
851
  8
LAYER_1
 10
48.45423262681931
 20
-16.43073398886548
 30
0.0
  0
VERTEX
  5
852
  8
LAYER_1
 10
48.16803181681229
 20
-16.71635098302287
 30
0.0
  0
VERTEX
  5
853
  8
LAYER_1
 10
47.90325186697493
 20
-17.01071627437081
 30
0.0
  0
VERTEX
  5
854
  8
LAYER_1
 10
47.67545086408165
 20
-17.30051202966018
 30
0.0
  0
VERTEX
  5
855
  8
LAYER_1
 10
47.53087691774984
 20
-17.51735577972352
 30
0.0
  0
VERTEX
  5
856
  8
LAYER_1
 10
47.38357732649503
 20
-17.7688106628235
 30
0.0
  0
VERTEX
  5
857
  8
LAYER_1
 10
47.23704829187531
 20
-18.0472092511461
 30
0.0
  0
VERTEX
  5
858
  8
LAYER_1
 10
47.09478601544882
 20
-18.34488411687732
 30
0.0
  0
VERTEX
  5
859
  8
LAYER_1
 10
46.96028669877363
 20
-18.65416783220316
 30
0.0
  0
VERTEX
  5
85A
  8
LAYER_1
 10
46.83704654340786
 20
-18.96739296930963
 30
0.0
  0
VERTEX
  5
85B
  8
LAYER_1
 10
46.7285617509096
 20
-19.2768921003827
 30
0.0
  0
VERTEX
  5
85C
  8
LAYER_1
 10
46.63832852283697
 20
-19.57499779760838
 30
0.0
  0
VERTEX
  5
85D
  8
LAYER_1
 10
46.58670510689821
 20
-19.77157825567139
 30
0.0
  0
VERTEX
  5
85E
  8
LAYER_1
 10
46.54610648298107
 20
-19.95334499443952
 30
0.0
  0
VERTEX
  5
85F
  8
LAYER_1
 10
46.51525851992669
 20
-20.13444338093486
 30
0.0
  0
VERTEX
  5
860
  8
LAYER_1
 10
46.4928870865762
 20
-20.32901878217956
 30
0.0
  0
VERTEX
  5
861
  8
LAYER_1
 10
46.47771805177074
 20
-20.55121656519574
 30
0.0
  0
VERTEX
  5
862
  8
LAYER_1
 10
46.46847728435143
 20
-20.81518209700552
 30
0.0
  0
VERTEX
  5
863
  8
LAYER_1
 10
46.46268402703578
 20
-21.52499787509441
 30
0.0
  0
VERTEX
  5
864
  8
LAYER_1
 10
46.46857327627991
 20
-22.23292998544246
 30
0.0
  0
VERTEX
  5
865
  8
LAYER_1
 10
46.47770952211847
 20
-22.49498583984335
 30
0.0
  0
VERTEX
  5
866
  8
LAYER_1
 10
46.49262911404624
 20
-22.71414605529462
 30
0.0
  0
VERTEX
  5
867
  8
LAYER_1
 10
46.51457375102188
 20
-22.90419400297061
 30
0.0
  0
VERTEX
  5
868
  8
LAYER_1
 10
46.54478513200406
 20
-23.07891305404566
 30
0.0
  0
VERTEX
  5
869
  8
LAYER_1
 10
46.63497492182269
 20
-23.43749795109034
 30
0.0
  0
VERTEX
  5
86A
  8
LAYER_1
 10
46.77299315919686
 20
-23.89977993394411
 30
0.0
  0
VERTEX
  5
86B
  8
LAYER_1
 10
46.89820389249084
 20
-24.25197378345138
 30
0.0
  0
VERTEX
  5
86C
  8
LAYER_1
 10
47.05280635392758
 20
-24.59962458255649
 30
0.0
  0
VERTEX
  5
86D
  8
LAYER_1
 10
47.27899977572999
 20
-25.04827741420377
 30
0.0
  0
VERTEX
  5
86E
  8
LAYER_1
 10
47.57049470411224
 20
-25.61249803751707
 30
0.0
  0
VERTEX
  5
86F
  8
LAYER_1
 10
47.62046450446941
 20
-25.64999803900719
 30
0.0
  0
VERTEX
  5
870
  8
LAYER_1
 10
47.72068479347028
 20
-25.76345744373748
 30
0.0
  0
VERTEX
  5
871
  8
LAYER_1
 10
47.8914695984389
 20
-25.98358324450717
 30
0.0
  0
VERTEX
  5
872
  8
LAYER_1
 10
48.0523650704367
 20
-26.18618351333648
 30
0.0
  0
VERTEX
  5
873
  8
LAYER_1
 10
48.22998473174914
 20
-26.38664592644011
 30
0.0
  0
VERTEX
  5
874
  8
LAYER_1
 10
48.4199646497613
 20
-26.58109006503079
 30
0.0
  0
VERTEX
  5
875
  8
LAYER_1
 10
48.61794089185829
 20
-26.76563551032125
 30
0.0
  0
VERTEX
  5
876
  8
LAYER_1
 10
48.81954952542515
 20
-26.93640184352424
 30
0.0
  0
VERTEX
  5
877
  8
LAYER_1
 10
49.02042661784699
 20
-27.08950864585249
 30
0.0
  0
VERTEX
  5
878
  8
LAYER_1
 10
49.21620823650889
 20
-27.22107549851874
 30
0.0
  0
VERTEX
  5
879
  8
LAYER_1
 10
49.40253044879591
 20
-27.32722198273571
 30
0.0
  0
VERTEX
  5
87A
  8
LAYER_1
 10
49.58291682414644
 20
-27.41382151313686
 30
0.0
  0
VERTEX
  5
87B
  8
LAYER_1
 10
49.65296736533136
 20
-27.43220061289931
 30
0.0
  0
VERTEX
  5
87C
  8
LAYER_1
 10
49.72392687759456
 20
-27.43208669279273
 30
0.0
  0
VERTEX
  5
87D
  8
LAYER_1
 10
49.80654841248993
 20
-27.41207032063442
 30
0.0
  0
VERTEX
  5
87E
  8
LAYER_1
 10
49.91158502157136
 20
-27.37074206424166
 30
0.0
  0
SEQEND
  5
E42
  8
LAYER_1
  0
POLYLINE
  5
81
  8
LAYER_1
 66
     1
 10
0.0
 20
0.0
 30
0.0
 70
     1
  0
VERTEX
  5
87F
  8
LAYER_1
 10
-43.75094496785458
 20
-11.88443348351652
 30
0.0
  0
VERTEX
  5
880
  8
LAYER_1
 10
-43.73851256494883
 20
-11.82161036992041
 30
0.0
  0
VERTEX
  5
881
  8
LAYER_1
 10
-43.74951641159846
 20
-11.76091656353621
 30
0.0
  0
VERTEX
  5
882
  8
LAYER_1
 10
-43.78341016661923
 20
-11.70378582472429
 30
0.0
  0
VERTEX
  5
883
  8
LAYER_1
 10
-43.83964748882694
 20
-11.65165191384504
 30
0.0
  0
VERTEX
  5
884
  8
LAYER_1
 10
-43.96476932842222
 20
-11.57345699235658
 30
0.0
  0
VERTEX
  5
885
  8
LAYER_1
 10
-44.00998462829006
 20
-11.55850299375306
 30
0.0
  0
VERTEX
  5
886
  8
LAYER_1
 10
-44.04488264299847
 20
-11.56005563204441
 30
0.0
  0
VERTEX
  5
887
  8
LAYER_1
 10
-44.07039821864277
 20
-11.5784231538314
 30
0.0
  0
VERTEX
  5
888
  8
LAYER_1
 10
-44.08746620131829
 20
-11.61391380571482
 30
0.0
  0
VERTEX
  5
889
  8
LAYER_1
 10
-44.09702143712036
 20
-11.66683583429546
 30
0.0
  0
VERTEX
  5
88A
  8
LAYER_1
 10
-44.09999877214432
 20
-11.73749748617411
 30
0.0
  0
VERTEX
  5
88B
  8
LAYER_1
 10
-44.09078502693777
 20
-11.86991936643608
 30
0.0
  0
VERTEX
  5
88C
  8
LAYER_1
 10
-44.08081163784451
 20
-11.91020257116179
 30
0.0
  0
VERTEX
  5
88D
  8
LAYER_1
 10
-44.06863283101563
 20
-11.92499749362469
 30
0.0
  0
VERTEX
  5
88E
  8
LAYER_1
 10
-44.0118175888297
 20
-11.93829895252707
 30
0.0
  0
VERTEX
  5
88F
  8
LAYER_1
 10
-43.91926503026552
 20
-11.97027905584558
 30
0.0
  0
VERTEX
  5
890
  8
LAYER_1
 10
-43.86659644909926
 20
-11.98004631791163
 30
0.0
  0
VERTEX
  5
891
  8
LAYER_1
 10
-43.81943343257974
 20
-11.9682021806225
 30
0.0
  0
VERTEX
  5
892
  8
LAYER_1
 10
-43.78010619930037
 20
-11.93593508786264
 30
0.0
  0
SEQEND
  5
E43
  8
LAYER_1
  0
POLYLINE
  5
82
  8
LAYER_1
 66
     1
 10
0.0
 20
0.0
 30
0.0
 70
     1
  0
VERTEX
  5
893
  8
LAYER_1
 10
-38.84999856352806
 20
-11.36249747127295
 30
0.0
  0
VERTEX
  5
894
  8
LAYER_1
 10
-38.8574711293404
 20
-11.31277633891032
 30
0.0
  0
VERTEX
  5
895
  8
LAYER_1
 10
-38.8793004060668
 20
-11.28236503143832
 30
0.0
  0
VERTEX
  5
896
  8
LAYER_1
 10
-38.91460376264143
 20
-11.27189511502375
 30
0.0
  0
VERTEX
  5
897
  8
LAYER_1
 10
-38.96249856799841
 20
-11.28199815583339
 30
0.0
  0
VERTEX
  5
898
  8
LAYER_1
 10
-39.04283732214518
 20
-11.32250757490645
 30
0.0
  0
VERTEX
  5
899
  8
LAYER_1
 10
-39.06292201068187
 20
-11.34253499325886
 30
0.0
  0
VERTEX
  5
89A
  8
LAYER_1
 10
-39.06961690686077
 20
-11.36249747127295
 30
0.0
  0
VERTEX
  5
89B
  8
LAYER_1
 10
-39.06292201068187
 20
-11.38245994928704
 30
0.0
  0
VERTEX
  5
89C
  8
LAYER_1
 10
-39.04283732214518
 20
-11.40248736763944
 30
0.0
  0
VERTEX
  5
89D
  8
LAYER_1
 10
-38.96249856799841
 20
-11.4429967867125
 30
0.0
  0
VERTEX
  5
89E
  8
LAYER_1
 10
-38.91460376264143
 20
-11.45309982752214
 30
0.0
  0
VERTEX
  5
89F
  8
LAYER_1
 10
-38.8793004060668
 20
-11.44262991110757
 30
0.0
  0
VERTEX
  5
8A0
  8
LAYER_1
 10
-38.8574711293404
 20
-11.41221860363557
 30
0.0
  0
SEQEND
  5
E44
  8
LAYER_1
  0
POLYLINE
  5
83
  8
LAYER_1
 66
     1
 10
0.0
 20
0.0
 30
0.0
 70
     1
  0
VERTEX
  5
8A1
  8
LAYER_1
 10
11.13750342279673
 20
-3.229484432745551
 30
0.0
  0
VERTEX
  5
8A2
  8
LAYER_1
 10
11.36250343173742
 20
-3.285035388158917
 30
0.0
  0
VERTEX
  5
8A3
  8
LAYER_1
 10
68.73750571161509
 20
-3.262497149407864
 30
0.0
  0
VERTEX
  5
8A4
  8
LAYER_1
 10
69.18750572949648
 20
-3.045598215211569
 30
0.0
  0
VERTEX
  5
8A5
  8
LAYER_1
 10
69.37909419606467
 20
-2.948578968577519
 30
0.0
  0
VERTEX
  5
8A6
  8
LAYER_1
 10
69.5610966702285
 20
-2.84677585019302
 30
0.0
  0
VERTEX
  5
8A7
  8
LAYER_1
 10
69.73364724883754
 20
-2.740039969451657
 30
0.0
  0
VERTEX
  5
8A8
  8
LAYER_1
 10
69.8968800287414
 20
-2.62822243574701
 30
0.0
  0
VERTEX
  5
8A9
  8
LAYER_1
 10
70.0509291067897
 20
-2.51117435847266
 30
0.0
  0
VERTEX
  5
8AA
  8
LAYER_1
 10
70.195928579832
 20
-2.38874684702219
 30
0.0
  0
VERTEX
  5
8AB
  8
LAYER_1
 10
70.33201254471793
 20
-2.260791010789182
 30
0.0
  0
VERTEX
  5
8AC
  8
LAYER_1
 10
70.45931509829707
 20
-2.127157959167217
 30
0.0
  0
VERTEX
  5
8AD
  8
LAYER_1
 10
70.57797033741902
 20
-1.987698801549877
 30
0.0
  0
VERTEX
  5
8AE
  8
LAYER_1
 10
70.68811235893338
 20
-1.842264647330743
 30
0.0
  0
VERTEX
  5
8AF
  8
LAYER_1
 10
70.78987525968974
 20
-1.690706605903398
 30
0.0
  0
VERTEX
  5
8B0
  8
LAYER_1
 10
70.88339313653769
 20
-1.532875786661422
 30
0.0
  0
VERTEX
  5
8B1
  8
LAYER_1
 10
70.96880008632685
 20
-1.368623298998399
 30
0.0
  0
VERTEX
  5
8B2
  8
LAYER_1
 10
71.04623020590681
 20
-1.197800252307909
 30
0.0
  0
VERTEX
  5
8B3
  8
LAYER_1
 10
71.11581759212716
 20
-1.020257755983534
 30
0.0
  0
VERTEX
  5
8B4
  8
LAYER_1
 10
71.1776963418375
 20
-0.8358469194188558
 30
0.0
  0
VERTEX
  5
8B5
  8
LAYER_1
 10
71.3250058144331
 20
-0.3591967669159004
 30
0.0
  0
VERTEX
  5
8B6
  8
LAYER_1
 10
71.3218420050487
 20
14.66250356286764
 30
0.0
  0
VERTEX
  5
8B7
  8
LAYER_1
 10
71.1416167016643
 20
15.17319679832012
 30
0.0
  0
VERTEX
  5
8B8
  8
LAYER_1
 10
71.08246836105405
 20
15.32780762354474
 30
0.0
  0
VERTEX
  5
8B9
  8
LAYER_1
 10
71.01502158638002
 20
15.48050526917985
 30
0.0
  0
VERTEX
  5
8BA
  8
LAYER_1
 10
70.93977725639897
 20
15.63071097078539
 30
0.0
  0
VERTEX
  5
8BB
  8
LAYER_1
 10
70.85723624986775
 20
15.77784596392127
 30
0.0
  0
VERTEX
  5
8BC
  8
LAYER_1
 10
70.76789944554312
 20
15.9213314841474
 30
0.0
  0
VERTEX
  5
8BD
  8
LAYER_1
 10
70.67226772218191
 20
16.06058876702372
 30
0.0
  0
VERTEX
  5
8BE
  8
LAYER_1
 10
70.46412303337684
 20
16.32410356296659
 30
0.0
  0
VERTEX
  5
8BF
  8
LAYER_1
 10
70.35261182544659
 20
16.44720354715297
 30
0.0
  0
VERTEX
  5
8C0
  8
LAYER_1
 10
70.23680921350694
 20
16.56376023622922
 30
0.0
  0
VERTEX
  5
8C1
  8
LAYER_1
 10
70.11721607631466
 20
16.67319486575525
 30
0.0
  0
VERTEX
  5
8C2
  8
LAYER_1
 10
69.99433329262658
 20
16.77492867129099
 30
0.0
  0
VERTEX
  5
8C3
  8
LAYER_1
 10
69.86866174119946
 20
16.86838288839634
 30
0.0
  0
VERTEX
  5
8C4
  8
LAYER_1
 10
69.7407023007901
 20
16.95297875263124
 30
0.0
  0
VERTEX
  5
8C5
  8
LAYER_1
 10
69.61095585015534
 20
17.0281374995556
 30
0.0
  0
VERTEX
  5
8C6
  8
LAYER_1
 10
69.47992326805192
 20
17.09328036472935
 30
0.0
  0
VERTEX
  5
8C7
  8
LAYER_1
 10
68.96655463974551
 20
17.34019347333052
 30
0.0
  0
VERTEX
  5
8C8
  8
LAYER_1
 10
68.87257777814827
 20
17.37403442312545
 30
0.0
  0
VERTEX
  5
8C9
  8
LAYER_1
 10
68.7245919967302
 20
17.40744858758107
 30
0.0
  0
VERTEX
  5
8CA
  8
LAYER_1
 10
68.54290003067305
 20
17.43658394345149
 30
0.0
  0
VERTEX
  5
8CB
  8
LAYER_1
 10
68.3478046151586
 20
17.45758846749082
 30
0.0
  0
VERTEX
  5
8CC
  8
LAYER_1
 10
67.87500567734241
 20
17.49554022597604
 30
0.0
  0
VERTEX
  5
8CD
  8
LAYER_1
 10
67.87317222894589
 20
18.02902197190789
 30
0.0
  0
VERTEX
  5
8CE
  8
LAYER_1
 10
67.86638215204579
 20
18.26042660480638
 30
0.0
  0
VERTEX
  5
8CF
  8
LAYER_1
 10
67.84765688003571
 20
18.48655722264868
 30
0.0
  0
VERTEX
  5
8D0
  8
LAYER_1
 10
67.81705119157834
 20
18.70730469958595
 30
0.0
  0
VERTEX
  5
8D1
  8
LAYER_1
 10
67.77461986533629
 20
18.92255990976933
 30
0.0
  0
VERTEX
  5
8D2
  8
LAYER_1
 10
67.72041767997224
 20
19.13221372735
 30
0.0
  0
VERTEX
  5
8D3
  8
LAYER_1
 10
67.65449941414889
 20
19.33615702647909
 30
0.0
  0
VERTEX
  5
8D4
  8
LAYER_1
 10
67.57691984652885
 20
19.53428068130776
 30
0.0
  0
VERTEX
  5
8D5
  8
LAYER_1
 10
67.48773375577481
 20
19.72647556598717
 30
0.0
  0
VERTEX
  5
8D6
  8
LAYER_1
 10
67.38699592054945
 20
19.91263255466847
 30
0.0
  0
VERTEX
  5
8D7
  8
LAYER_1
 10
67.2747611195154
 20
20.09264252150281
 30
0.0
  0
VERTEX
  5
8D8
  8
LAYER_1
 10
67.15108413133532
 20
20.26639634064135
 30
0.0
  0
VERTEX
  5
8D9
  8
LAYER_1
 10
67.01601973467191
 20
20.43378488623524
 30
0.0
  0
VERTEX
  5
8DA
  8
LAYER_1
 10
66.86962270818782
 20
20.59469903243564
 30
0.0
  0
VERTEX
  5
8DB
  8
LAYER_1
 10
66.7119478305457
 20
20.74902965339369
 30
0.0
  0
VERTEX
  5
8DC
  8
LAYER_1
 10
66.5430498804082
 20
20.89666762326056
 30
0.0
  0
VERTEX
  5
8DD
  8
LAYER_1
 10
66.36298363643803
 20
21.03750381618738
 30
0.0
  0
VERTEX
  5
8DE
  8
LAYER_1
 10
66.15598054349736
 20
21.17249973535687
 30
0.0
  0
VERTEX
  5
8DF
  8
LAYER_1
 10
65.91900569236556
 20
21.29491170987752
 30
0.0
  0
VERTEX
  5
8E0
  8
LAYER_1
 10
65.65765740209628
 20
21.40310725493342
 30
0.0
  0
VERTEX
  5
8E1
  8
LAYER_1
 10
65.3775339917432
 20
21.49545388570865
 30
0.0
  0
VERTEX
  5
8E2
  8
LAYER_1
 10
65.08423378035997
 20
21.57031911738728
 30
0.0
  0
VERTEX
  5
8E3
  8
LAYER_1
 10
64.78335508700025
 20
21.6260704651534
 30
0.0
  0
VERTEX
  5
8E4
  8
LAYER_1
 10
64.4804962307177
 20
21.6610754441911
 30
0.0
  0
VERTEX
  5
8E5
  8
LAYER_1
 10
64.18125553056598
 20
21.67370156968444
 30
0.0
  0
VERTEX
  5
8E6
  8
LAYER_1
 10
63.75000551342964
 20
21.67500384151936
 30
0.0
  0
VERTEX
  5
8E7
  8
LAYER_1
 10
63.74911534774029
 20
22.18125386163592
 30
0.0
  0
VERTEX
  5
8E8
  8
LAYER_1
 10
63.74432677430245
 20
22.3632596316168
 30
0.0
  0
VERTEX
  5
8E9
  8
LAYER_1
 10
63.73073711235511
 20
22.54244059746518
 30
0.0
  0
VERTEX
  5
8EA
  8
LAYER_1
 10
63.70854324724607
 20
22.71860403467371
 30
0.0
  0
VERTEX
  5
8EB
  8
LAYER_1
 10
63.6779420643231
 20
22.89155721873501
 30
0.0
  0
VERTEX
  5
8EC
  8
LAYER_1
 10
63.639130448934
 20
23.06110742514172
 30
0.0
  0
VERTEX
  5
8ED
  8
LAYER_1
 10
63.59230528642656
 20
23.22706192938649
 30
0.0
  0
VERTEX
  5
8EE
  8
LAYER_1
 10
63.53766346214856
 20
23.38922800696193
 30
0.0
  0
VERTEX
  5
8EF
  8
LAYER_1
 10
63.4754018614478
 20
23.5474129333607
 30
0.0
  0
VERTEX
  5
8F0
  8
LAYER_1
 10
63.40571736967206
 20
23.70142398407542
 30
0.0
  0
VERTEX
  5
8F1
  8
LAYER_1
 10
63.32880687216914
 20
23.85106843459873
 30
0.0
  0
VERTEX
  5
8F2
  8
LAYER_1
 10
63.24486725428682
 20
23.99615356042327
 30
0.0
  0
VERTEX
  5
8F3
  8
LAYER_1
 10
63.1540954013729
 20
24.13648663704166
 30
0.0
  0
VERTEX
  5
8F4
  8
LAYER_1
 10
63.05668819877515
 20
24.27187493994656
 30
0.0
  0
VERTEX
  5
8F5
  8
LAYER_1
 10
62.95284253184137
 20
24.40212574463059
 30
0.0
  0
VERTEX
  5
8F6
  8
LAYER_1
 10
62.84275528591937
 20
24.52704632658639
 30
0.0
  0
VERTEX
  5
8F7
  8
LAYER_1
 10
62.7266233463569
 20
24.64644396130659
 30
0.0
  0
VERTEX
  5
8F8
  8
LAYER_1
 10
62.60464359850178
 20
24.76012592428383
 30
0.0
  0
VERTEX
  5
8F9
  8
LAYER_1
 10
62.47701292770179
 20
24.86789949101075
 30
0.0
  0
VERTEX
  5
8FA
  8
LAYER_1
 10
62.34392821930471
 20
24.96957193697998
 30
0.0
  0
VERTEX
  5
8FB
  8
LAYER_1
 10
62.20558635865835
 20
25.06495053768416
 30
0.0
  0
VERTEX
  5
8FC
  8
LAYER_1
 10
62.06218423111048
 20
25.15384256861592
 30
0.0
  0
VERTEX
  5
8FD
  8
LAYER_1
 10
61.9139187220089
 20
25.23605530526789
 30
0.0
  0
VERTEX
  5
8FE
  8
LAYER_1
 10
61.7609867167014
 20
25.31139602313272
 30
0.0
  0
VERTEX
  5
8FF
  8
LAYER_1
 10
61.60358510053575
 20
25.37967199770304
 30
0.0
  0
VERTEX
  5
900
  8
LAYER_1
 10
61.44191075885976
 20
25.44069050447148
 30
0.0
  0
VERTEX
  5
901
  8
LAYER_1
 10
61.27616057702122
 20
25.49425881893069
 30
0.0
  0
VERTEX
  5
902
  8
LAYER_1
 10
61.1065314403679
 20
25.54018421657328
 30
0.0
  0
VERTEX
  5
903
  8
LAYER_1
 10
60.93322023424761
 20
25.57827397289191
 30
0.0
  0
VERTEX
  5
904
  8
LAYER_1
 10
60.75642384400813
 20
25.60833536337921
 30
0.0
  0
VERTEX
  5
905
  8
LAYER_1
 10
60.57633915499724
 20
25.63017566352781
 30
0.0
  0
VERTEX
  5
906
  8
LAYER_1
 10
60.39316305256276
 20
25.64360214883035
 30
0.0
  0
VERTEX
  5
907
  8
LAYER_1
 10
60.20709242205245
 20
25.64842209477946
 30
0.0
  0
VERTEX
  5
908
  8
LAYER_1
 10
59.55167944541424
 20
25.65000399947166
 30
0.0
  0
VERTEX
  5
909
  8
LAYER_1
 10
59.24217093484714
 20
26.26558587100831
 30
0.0
  0
VERTEX
  5
90A
  8
LAYER_1
 10
59.02748469584715
 20
26.67388324983272
 30
0.0
  0
VERTEX
  5
90B
  8
LAYER_1
 10
58.79840074376582
 20
27.07321859966871
 30
0.0
  0
VERTEX
  5
90C
  8
LAYER_1
 10
58.55457629213966
 20
27.46395426804986
 30
0.0
  0
VERTEX
  5
90D
  8
LAYER_1
 10
58.29566855450518
 20
27.84645260250972
 30
0.0
  0
VERTEX
  5
90E
  8
LAYER_1
 10
58.02133474439887
 20
28.22107595058186
 30
0.0
  0
VERTEX
  5
90F
  8
LAYER_1
 10
57.73123207535723
 20
28.58818665979985
 30
0.0
  0
VERTEX
  5
910
  8
LAYER_1
 10
57.42501776091677
 20
28.94814707769724
 30
0.0
  0
VERTEX
  5
911
  8
LAYER_1
 10
57.10234901461399
 20
29.3013195518076
 30
0.0
  0
VERTEX
  5
912
  8
LAYER_1
 10
56.7628830499854
 20
29.6480664296645
 30
0.0
  0
VERTEX
  5
913
  8
LAYER_1
 10
56.40627708056753
 20
29.98875005880149
 30
0.0
  0
VERTEX
  5
914
  8
LAYER_1
 10
56.03218831989685
 20
30.32373278675215
 30
0.0
  0
VERTEX
  5
915
  8
LAYER_1
 10
55.64027398150987
 20
30.65337696105002
 30
0.0
  0
VERTEX
  5
916
  8
LAYER_1
 10
55.2301912789431
 20
30.97804492922869
 30
0.0
  0
VERTEX
  5
917
  8
LAYER_1
 10
54.80159742573305
 20
31.2980990388217
 30
0.0
  0
VERTEX
  5
918
  8
LAYER_1
 10
54.35414963541621
 20
31.61390163736264
 30
0.0
  0
VERTEX
  5
919
  8
LAYER_1
 10
53.8875051215291
 20
31.92581507238505
 30
0.0
  0
VERTEX
  5
91A
  8
LAYER_1
 10
53.58750510960817
 20
32.12110320190334
 30
0.0
  0
VERTEX
  5
91B
  8
LAYER_1
 10
52.42500506341457
 20
32.70021494978901
 30
0.0
  0
VERTEX
  5
91C
  8
LAYER_1
 10
51.81510283127195
 20
32.99036954687111
 30
0.0
  0
VERTEX
  5
91D
  8
LAYER_1
 10
51.17352184545958
 20
33.26992536477859
 30
0.0
  0
VERTEX
  5
91E
  8
LAYER_1
 10
50.51015001227688
 20
33.53541084521493
 30
0.0
  0
VERTEX
  5
91F
  8
LAYER_1
 10
49.83487523802329
 20
33.7833544298836
 30
0.0
  0
VERTEX
  5
920
  8
LAYER_1
 10
49.15758542899822
 20
34.01028456048806
 30
0.0
  0
VERTEX
  5
921
  8
LAYER_1
 10
48.48816849150111
 20
34.21272967873176
 30
0.0
  0
VERTEX
  5
922
  8
LAYER_1
 10
47.83651233183137
 20
34.38721822631818
 30
0.0
  0
VERTEX
  5
923
  8
LAYER_1
 10
47.21250485628843
 20
34.5302786449508
 30
0.0
  0
VERTEX
  5
924
  8
LAYER_1
 10
45.79822290604393
 20
34.82880528615277
 30
0.0
  0
VERTEX
  5
925
  8
LAYER_1
 10
45.28394099156222
 20
34.94019622508998
 30
0.0
  0
VERTEX
  5
926
  8
LAYER_1
 10
43.16250469535589
 20
35.18351336494781
 30
0.0
  0
VERTEX
  5
927
  8
LAYER_1
 10
42.56250467151403
 20
35.36250438541174
 30
0.0
  0
VERTEX
  5
928
  8
LAYER_1
 10
37.31250446289778
 20
35.36250438541174
 30
0.0
  0
VERTEX
  5
929
  8
LAYER_1
 10
36.48750443011522
 20
35.17745180246617
 30
0.0
  0
VERTEX
  5
92A
  8
LAYER_1
 10
34.08750433474779
 20
34.86957094807393
 30
0.0
  0
VERTEX
  5
92B
  8
LAYER_1
 10
33.6375043168664
 20
34.74132955346315
 30
0.0
  0
VERTEX
  5
92C
  8
LAYER_1
 10
32.81250428408384
 20
34.57809619233289
 30
0.0
  0
VERTEX
  5
92D
  8
LAYER_1
 10
32.44546618468934
 20
34.49977781735264
 30
0.0
  0
VERTEX
  5
92E
  8
LAYER_1
 10
32.05597200265112
 20
34.40720215107364
 30
0.0
  0
VERTEX
  5
92F
  8
LAYER_1
 10
31.69051437161868
 20
34.3119370970898
 30
0.0
  0
VERTEX
  5
930
  8
LAYER_1
 10
31.39558592524153
 20
34.225550558995
 30
0.0
  0
VERTEX
  5
931
  8
LAYER_1
 10
30.8552600545204
 20
34.05999794739013
 30
0.0
  0
VERTEX
  5
932
  8
LAYER_1
 10
30.38738316363644
 20
33.9278099655679
 30
0.0
  0
VERTEX
  5
933
  8
LAYER_1
 10
30.07008870456009
 20
33.83340403560882
 30
0.0
  0
VERTEX
  5
934
  8
LAYER_1
 10
29.95543853784952
 20
33.79081056337655
 30
0.0
  0
VERTEX
  5
935
  8
LAYER_1
 10
29.89180144648282
 20
33.75868912316427
 30
0.0
  0
VERTEX
  5
936
  8
LAYER_1
 10
29.81250416487455
 20
33.69799660198007
 30
0.0
  0
VERTEX
  5
937
  8
LAYER_1
 10
29.10602534395422
 20
33.45277293223683
 30
0.0
  0
VERTEX
  5
938
  8
LAYER_1
 10
28.74838618758075
 20
33.3158752607827
 30
0.0
  0
VERTEX
  5
939
  8
LAYER_1
 10
28.29686843475167
 20
33.12441142506308
 30
0.0
  0
VERTEX
  5
93A
  8
LAYER_1
 10
27.80930411901499
 20
32.90376090173487
 30
0.0
  0
VERTEX
  5
93B
  8
LAYER_1
 10
27.34352527391876
 20
32.67930316745499
 30
0.0
  0
VERTEX
  5
93C
  8
LAYER_1
 10
26.28750402480364
 20
32.15105707241639
 30
0.0
  0
VERTEX
  5
93D
  8
LAYER_1
 10
26.10000401735306
 20
32.02286107079389
 30
0.0
  0
VERTEX
  5
93E
  8
LAYER_1
 10
25.31250398606062
 20
31.49795365434041
 30
0.0
  0
VERTEX
  5
93F
  8
LAYER_1
 10
24.82044995096657
 20
31.16068031815669
 30
0.0
  0
VERTEX
  5
940
  8
LAYER_1
 10
24.47997964475242
 20
30.90687322007338
 30
0.0
  0
VERTEX
  5
941
  8
LAYER_1
 10
23.91747962240068
 20
30.45250362195658
 30
0.0
  0
VERTEX
  5
942
  8
LAYER_1
 10
23.58750391751528
 20
30.19250304327583
 30
0.0
  0
VERTEX
  5
943
  8
LAYER_1
 10
22.2375038638711
 20
28.80879131005403
 30
0.0
  0
VERTEX
  5
944
  8
LAYER_1
 10
22.08750385791063
 20
28.59520710363334
 30
0.0
  0
VERTEX
  5
945
  8
LAYER_1
 10
21.52500383555889
 20
27.81408135951479
 30
0.0
  0
VERTEX
  5
946
  8
LAYER_1
 10
21.27800498772648
 20
27.45687654907239
 30
0.0
  0
VERTEX
  5
947
  8
LAYER_1
 10
21.02130176757719
 20
27.06172286589015
 30
0.0
  0
VERTEX
  5
948
  8
LAYER_1
 10
20.7852403824727
 20
26.67666832383875
 30
0.0
  0
VERTEX
  5
949
  8
LAYER_1
 10
20.60016703977469
 20
26.34976093678891
 30
0.0
  0
VERTEX
  5
94A
  8
LAYER_1
 10
20.23783026634223
 20
25.66656625818159
 30
0.0
  0
VERTEX
  5
94B
  8
LAYER_1
 10
19.47516699507121
 20
25.6360937714486
 30
0.0
  0
VERTEX
  5
94C
  8
LAYER_1
 10
19.06721748475962
 20
25.61219459414984
 30
0.0
  0
VERTEX
  5
94D
  8
LAYER_1
 10
18.90610938970012
 20
25.59444106570119
 30
0.0
  0
VERTEX
  5
94E
  8
LAYER_1
 10
18.76343800767358
 20
25.57079782111404
 30
0.0
  0
VERTEX
  5
94F
  8
LAYER_1
 10
18.63159754340658
 20
25.53974954318416
 30
0.0
  0
VERTEX
  5
950
  8
LAYER_1
 10
18.50298220162571
 20
25.4997809147073
 30
0.0
  0
VERTEX
  5
951
  8
LAYER_1
 10
18.22500370442867
 20
25.38702133729571
 30
0.0
  0
VERTEX
  5
952
  8
LAYER_1
 10
17.86969119030982
 20
25.21958574430417
 30
0.0
  0
VERTEX
  5
953
  8
LAYER_1
 10
17.75303102942416
 20
25.15849565197999
 30
0.0
  0
VERTEX
  5
954
  8
LAYER_1
 10
17.70000368356705
 20
25.12399796816948
 30
0.0
  0
VERTEX
  5
955
  8
LAYER_1
 10
17.58624317744086
 20
25.02769480909077
 30
0.0
  0
VERTEX
  5
956
  8
LAYER_1
 10
17.36539345203849
 20
24.85853925285085
 30
0.0
  0
VERTEX
  5
957
  8
LAYER_1
 10
17.21137505944476
 20
24.73643422873012
 30
0.0
  0
VERTEX
  5
958
  8
LAYER_1
 10
17.06627540985363
 20
24.6060466947215
 30
0.0
  0
VERTEX
  5
959
  8
LAYER_1
 10
16.93023495913503
 20
24.46767363198262
 30
0.0
  0
VERTEX
  5
95A
  8
LAYER_1
 10
16.80339416315887
 20
24.32161202167111
 30
0.0
  0
VERTEX
  5
95B
  8
LAYER_1
 10
16.68589347779504
 20
24.16815884494464
 30
0.0
  0
VERTEX
  5
95C
  8
LAYER_1
 10
16.57787335891348
 20
24.00761108296083
 30
0.0
  0
VERTEX
  5
95D
  8
LAYER_1
 10
16.47947426238407
 20
23.84026571687733
 30
0.0
  0
VERTEX
  5
95E
  8
LAYER_1
 10
16.39083664407674
 20
23.66641972785177
 30
0.0
  0
VERTEX
  5
95F
  8
LAYER_1
 10
16.31210095986139
 20
23.4863700970418
 30
0.0
  0
VERTEX
  5
960
  8
LAYER_1
 10
16.24340766560793
 20
23.30041380560505
 30
0.0
  0
VERTEX
  5
961
  8
LAYER_1
 10
16.18489721718628
 20
23.10884783469918
 30
0.0
  0
VERTEX
  5
962
  8
LAYER_1
 10
16.13671007046634
 20
22.91196916548182
 30
0.0
  0
VERTEX
  5
963
  8
LAYER_1
 10
16.09898668131803
 20
22.71007477911061
 30
0.0
  0
VERTEX
  5
964
  8
LAYER_1
 10
16.07186750561125
 20
22.50346165674319
 30
0.0
  0
VERTEX
  5
965
  8
LAYER_1
 10
16.05549299921592
 20
22.29242677953721
 30
0.0
  0
VERTEX
  5
966
  8
LAYER_1
 10
16.05000361800194
 20
22.07726712865029
 30
0.0
  0
VERTEX
  5
967
  8
LAYER_1
 10
16.05000361800194
 20
21.67500384151936
 30
0.0
  0
VERTEX
  5
968
  8
LAYER_1
 10
15.69375360384583
 20
21.6744372797011
 30
0.0
  0
VERTEX
  5
969
  8
LAYER_1
 10
15.49174473548178
 20
21.67006026963169
 30
0.0
  0
VERTEX
  5
96A
  8
LAYER_1
 10
15.29345990219286
 20
21.65763382798196
 30
0.0
  0
VERTEX
  5
96B
  8
LAYER_1
 10
15.09912646771072
 20
21.63724252165964
 30
0.0
  0
VERTEX
  5
96C
  8
LAYER_1
 10
14.908971795767
 20
21.6089709175725
 30
0.0
  0
VERTEX
  5
96D
  8
LAYER_1
 10
14.72322325009334
 20
21.57290358262827
 30
0.0
  0
VERTEX
  5
96E
  8
LAYER_1
 10
14.5421081944214
 20
21.52912508373472
 30
0.0
  0
VERTEX
  5
96F
  8
LAYER_1
 10
14.3658539924828
 20
21.47771998779958
 30
0.0
  0
VERTEX
  5
970
  8
LAYER_1
 10
14.19468800800922
 20
21.41877286173062
 30
0.0
  0
VERTEX
  5
971
  8
LAYER_1
 10
14.02883760473228
 20
21.35236827243558
 30
0.0
  0
VERTEX
  5
972
  8
LAYER_1
 10
13.86853014638363
 20
21.27859078682222
 30
0.0
  0
VERTEX
  5
973
  8
LAYER_1
 10
13.71399299669492
 20
21.19752497179827
 30
0.0
  0
VERTEX
  5
974
  8
LAYER_1
 10
13.56545351939779
 20
21.10925539427151
 30
0.0
  0
VERTEX
  5
975
  8
LAYER_1
 10
13.42313907822389
 20
21.01386662114966
 30
0.0
  0
VERTEX
  5
976
  8
LAYER_1
 10
13.28727703690487
 20
20.91144321934049
 30
0.0
  0
VERTEX
  5
977
  8
LAYER_1
 10
13.15809475917236
 20
20.80206975575175
 30
0.0
  0
VERTEX
  5
978
  8
LAYER_1
 10
13.03581960875802
 20
20.68583079729117
 30
0.0
  0
VERTEX
  5
979
  8
LAYER_1
 10
12.75411883590287
 20
20.39340664586525
 30
0.0
  0
VERTEX
  5
97A
  8
LAYER_1
 10
12.65206261830001
 20
20.27469062282454
 30
0.0
  0
VERTEX
  5
97B
  8
LAYER_1
 10
12.56533845269905
 20
20.15912064278446
 30
0.0
  0
VERTEX
  5
97C
  8
LAYER_1
 10
12.48604829368903
 20
20.03530821165938
 30
0.0
  0
VERTEX
  5
97D
  8
LAYER_1
 10
12.40629409585902
 20
19.89186483536366
 30
0.0
  0
VERTEX
  5
97E
  8
LAYER_1
 10
12.21380140209521
 20
19.50053127091773
 30
0.0
  0
VERTEX
  5
97F
  8
LAYER_1
 10
12.0926710411237
 20
19.22121170499143
 30
0.0
  0
VERTEX
  5
980
  8
LAYER_1
 10
12.04990169989687
 20
19.09351479423558
 30
0.0
  0
VERTEX
  5
981
  8
LAYER_1
 10
12.01661991541964
 20
18.9627805402336
 30
0.0
  0
VERTEX
  5
982
  8
LAYER_1
 10
11.99104343562472
 20
18.82074949944719
 30
0.0
  0
VERTEX
  5
983
  8
LAYER_1
 10
11.97139000844485
 20
18.65916222833811
 30
0.0
  0
VERTEX
  5
984
  8
LAYER_1
 10
11.94272330366117
 20
18.24428122099884
 30
0.0
  0
VERTEX
  5
985
  8
LAYER_1
 10
11.90346147069344
 20
17.47500367462635
 30
0.0
  0
VERTEX
  5
986
  8
LAYER_1
 10
11.58566189808754
 20
17.47500367462635
 30
0.0
  0
VERTEX
  5
987
  8
LAYER_1
 10
11.43456640940037
 20
17.46119525118318
 30
0.0
  0
VERTEX
  5
988
  8
LAYER_1
 10
11.24320059103307
 20
17.42325424972739
 30
0.0
  0
VERTEX
  5
989
  8
LAYER_1
 10
11.02709603360016
 20
17.36640707356949
 30
0.0
  0
VERTEX
  5
98A
  8
LAYER_1
 10
10.80178432771618
 20
17.29588012602003
 30
0.0
  0
VERTEX
  5
98B
  8
LAYER_1
 10
10.58279706399565
 20
17.21689981038954
 30
0.0
  0
VERTEX
  5
98C
  8
LAYER_1
 10
10.38566583305311
 20
17.13469252998858
 30
0.0
  0
VERTEX
  5
98D
  8
LAYER_1
 10
10.22592222550309
 20
17.05448468812768
 30
0.0
  0
VERTEX
  5
98E
  8
LAYER_1
 10
10.11909783196012
 20
16.98150268811736
 30
0.0
  0
VERTEX
  5
98F
  8
LAYER_1
 10
10.01369597383746
 20
16.90628774300102
 30
0.0
  0
VERTEX
  5
990
  8
LAYER_1
 10
9.964683824288333
 20
16.88340709044904
 30
0.0
  0
VERTEX
  5
991
  8
LAYER_1
 10
9.926554626327103
 20
16.87500365078449
 30
0.0
  0
VERTEX
  5
992
  8
LAYER_1
 10
9.852416975767909
 20
16.87500365078449
 30
0.0
  0
VERTEX
  5
993
  8
LAYER_1
 10
9.455128698389089
 20
16.43073505989334
 30
0.0
  0
VERTEX
  5
994
  8
LAYER_1
 10
9.145867618552456
 20
16.06932982263906
 30
0.0
  0
VERTEX
  5
995
  8
LAYER_1
 10
9.031224654142292
 20
15.91724536106871
 30
0.0
  0
VERTEX
  5
996
  8
LAYER_1
 10
8.935907257844196
 20
15.77211254043471
 30
0.0
  0
VERTEX
  5
997
  8
LAYER_1
 10
8.85441581798814
 20
15.62483601291095
 30
0.0
  0
VERTEX
  5
998
  8
LAYER_1
 10
8.781250722904094
 20
15.46632043067132
 30
0.0
  0
VERTEX
  5
999
  8
LAYER_1
 10
8.637901120371936
 20
15.07919071073992
 30
0.0
  0
VERTEX
  5
99A
  8
LAYER_1
 10
8.475003316998482
 20
14.59587782284943
 30
0.0
  0
VERTEX
  5
99B
  8
LAYER_1
 10
8.475003316998482
 20
-0.3811324947310908
 30
0.0
  0
VERTEX
  5
99C
  8
LAYER_1
 10
8.636315404645956
 20
-0.8843147848165671
 30
0.0
  0
VERTEX
  5
99D
  8
LAYER_1
 10
8.70397523871738
 20
-1.081663689717208
 30
0.0
  0
VERTEX
  5
99E
  8
LAYER_1
 10
8.768950393426879
 20
-1.247031027481256
 30
0.0
  0
VERTEX
  5
99F
  8
LAYER_1
 10
8.823858055981091
 20
-1.363085816682683
 30
0.0
  0
VERTEX
  5
9A0
  8
LAYER_1
 10
8.861315413586652
 20
-1.412497075895459
 30
0.0
  0
VERTEX
  5
9A1
  8
LAYER_1
 10
8.88604423927629
 20
-1.429303307097926
 30
0.0
  0
VERTEX
  5
9A2
  8
LAYER_1
 10
8.906295007999994
 20
-1.456582029934632
 30
0.0
  0
VERTEX
  5
9A3
  8
LAYER_1
 10
8.919977959840333
 20
-1.490560789478893
 30
0.0
  0
VERTEX
  5
9A4
  8
LAYER_1
 10
8.925003334879875
 20
-1.527467130804027
 30
0.0
  0
VERTEX
  5
9A5
  8
LAYER_1
 10
8.931057266887343
 20
-1.564455301369426
 30
0.0
  0
VERTEX
  5
9A6
  8
LAYER_1
 10
8.948621805765676
 20
-1.610463479342248
 30
0.0
  0
VERTEX
  5
9A7
  8
LAYER_1
 10
9.014699161270475
 20
-1.72548095483405
 30
0.0
  0
VERTEX
  5
9A8
  8
LAYER_1
 10
9.116068315665373
 20
-1.864401751927204
 30
0.0
  0
VERTEX
  5
9A9
  8
LAYER_1
 10
9.245562183221468
 20
-2.019108065269482
 30
0.0
  0
VERTEX
  5
9AA
  8
LAYER_1
 10
9.396013678209862
 20
-2.181482089508654
 30
0.0
  0
VERTEX
  5
9AB
  8
LAYER_1
 10
9.56025571490165
 20
-2.343406019292494
 30
0.0
  0
VERTEX
  5
9AC
  8
LAYER_1
 10
9.731121207567934
 20
-2.496762049268772
 30
0.0
  0
VERTEX
  5
9AD
  8
LAYER_1
 10
9.901443070479814
 20
-2.63343237408526
 30
0.0
  0
VERTEX
  5
9AE
  8
LAYER_1
 10
10.02575657451926
 20
-2.719312763861586
 30
0.0
  0
VERTEX
  5
9AF
  8
LAYER_1
 10
10.172211272521
 20
-2.808460340385118
 30
0.0
  0
VERTEX
  5
9B0
  8
LAYER_1
 10
10.50451559962973
 20
-2.983523318782934
 30
0.0
  0
VERTEX
  5
9B1
  8
LAYER_1
 10
10.84429875024273
 20
-3.132553839496986
 30
0.0
  0
VERTEX
  5
9B2
  8
LAYER_1
 10
11.00010197762481
 20
-3.189160843915812
 30
0.0
  0
SEQEND
  5
E45
  8
LAYER_1
  0
POLYLINE
  5
84
  8
LAYER_1
 66
     1
 10
0.0
 20
0.0
 30
0.0
 70
     1
  0
VERTEX
  5
9B3
  8
LAYER_1
 10
-64.94999960064888
 20
34.65000435709953
 30
0.0
  0
VERTEX
  5
9B4
  8
LAYER_1
 10
-64.94999960064888
 20
0.3000029921531677
 30
0.0
  0
VERTEX
  5
9B5
  8
LAYER_1
 10
-18.44999775290489
 20
0.3000029921531677
 30
0.0
  0
VERTEX
  5
9B6
  8
LAYER_1
 10
-18.44999775290489
 20
34.72500436007977
 30
0.0
  0
VERTEX
  5
9B7
  8
LAYER_1
 10
-17.92499773204327
 20
34.72500436007977
 30
0.0
  0
VERTEX
  5
9B8
  8
LAYER_1
 10
-17.92499773204327
 20
38.38243122294639
 30
0.0
  0
VERTEX
  5
9B9
  8
LAYER_1
 10
-23.8124979659915
 20
38.47907902463135
 30
0.0
  0
VERTEX
  5
9BA
  8
LAYER_1
 10
-57.88877612463544
 20
38.43219725150905
 30
0.0
  0
VERTEX
  5
9BB
  8
LAYER_1
 10
-59.174999371171
 20
39.69550156948937
 30
0.0
  0
VERTEX
  5
9BC
  8
LAYER_1
 10
-59.174999371171
 20
39.71384944038387
 30
0.0
  0
VERTEX
  5
9BD
  8
LAYER_1
 10
-59.07035092951264
 20
39.75216393522707
 30
0.0
  0
VERTEX
  5
9BE
  8
LAYER_1
 10
-58.81874935701489
 20
39.81851666795578
 30
0.0
  0
VERTEX
  5
9BF
  8
LAYER_1
 10
-58.08749932795763
 20
40.01179859441791
 30
0.0
  0
VERTEX
  5
9C0
  8
LAYER_1
 10
-57.07499928772449
 20
40.27657390349232
 30
0.0
  0
VERTEX
  5
9C1
  8
LAYER_1
 10
-55.75080849210912
 20
40.60786000775315
 30
0.0
  0
VERTEX
  5
9C2
  8
LAYER_1
 10
-54.71249919384718
 20
40.87618913047895
 30
0.0
  0
VERTEX
  5
9C3
  8
LAYER_1
 10
-53.77499915659428
 20
41.11232467306964
 30
0.0
  0
VERTEX
  5
9C4
  8
LAYER_1
 10
-53.43749914318323
 20
41.19019469360994
 30
0.0
  0
VERTEX
  5
9C5
  8
LAYER_1
 10
-51.33749905973673
 20
41.70711027166035
 30
0.0
  0
VERTEX
  5
9C6
  8
LAYER_1
 10
-49.57499898970127
 20
42.16073195457577
 30
0.0
  0
VERTEX
  5
9C7
  8
LAYER_1
 10
-46.53749886900187
 20
42.94810628481497
 30
0.0
  0
VERTEX
  5
9C8
  8
LAYER_1
 10
-45.26249881833792
 20
43.28185893213873
 30
0.0
  0
VERTEX
  5
9C9
  8
LAYER_1
 10
-44.2874987795949
 20
43.55083940179816
 30
0.0
  0
VERTEX
  5
9CA
  8
LAYER_1
 10
-41.737498678267
 20
44.18704691642543
 30
0.0
  0
VERTEX
  5
9CB
  8
LAYER_1
 10
-40.31249862164259
 20
44.53717614928397
 30
0.0
  0
VERTEX
  5
9CC
  8
LAYER_1
 10
-36.71249847859144
 20
45.46145743249762
 30
0.0
  0
VERTEX
  5
9CD
  8
LAYER_1
 10
-34.16249837726355
 20
46.12294887830944
 30
0.0
  0
VERTEX
  5
9CE
  8
LAYER_1
 10
-33.44999834895134
 20
46.3190714372117
 30
0.0
  0
VERTEX
  5
9CF
  8
LAYER_1
 10
-32.17499829828739
 20
46.66659455172683
 30
0.0
  0
VERTEX
  5
9D0
  8
LAYER_1
 10
-31.61249827593565
 20
46.81799510733968
 30
0.0
  0
VERTEX
  5
9D1
  8
LAYER_1
 10
-30.26249822229147
 20
47.138947214859
 30
0.0
  0
VERTEX
  5
9D2
  8
LAYER_1
 10
-28.9675762958359
 20
47.45417816451043
 30
0.0
  0
VERTEX
  5
9D3
  8
LAYER_1
 10
-27.74999812245369
 20
47.76137514779421
 30
0.0
  0
VERTEX
  5
9D4
  8
LAYER_1
 10
-26.58749807626009
 20
48.0628509732101
 30
0.0
  0
VERTEX
  5
9D5
  8
LAYER_1
 10
-22.76249792426825
 20
49.04232481918176
 30
0.0
  0
VERTEX
  5
9D6
  8
LAYER_1
 10
-21.71249788254499
 20
49.35087728946554
 30
0.0
  0
VERTEX
  5
9D7
  8
LAYER_1
 10
-19.53749779611826
 20
49.8931375628386
 30
0.0
  0
VERTEX
  5
9D8
  8
LAYER_1
 10
-19.45107972728956
 20
49.97782126618793
 30
0.0
  0
VERTEX
  5
9D9
  8
LAYER_1
 10
-19.43079791082
 20
50.00792301377869
 30
0.0
  0
VERTEX
  5
9DA
  8
LAYER_1
 10
-19.41897376975206
 20
50.05191659516059
 30
0.0
  0
VERTEX
  5
9DB
  8
LAYER_1
 10
-19.41588192357656
 20
50.11212162467817
 30
0.0
  0
VERTEX
  5
9DC
  8
LAYER_1
 10
-19.42179699178432
 20
50.19085771667594
 30
0.0
  0
VERTEX
  5
9DD
  8
LAYER_1
 10
-19.46174634931292
 20
50.41320154549012
 30
0.0
  0
VERTEX
  5
9DE
  8
LAYER_1
 10
-19.54101879826445
 20
50.73750499635935
 30
0.0
  0
VERTEX
  5
9DF
  8
LAYER_1
 10
-19.97512381317438
 20
52.41269199519273
 30
0.0
  0
VERTEX
  5
9E0
  8
LAYER_1
 10
-20.23287168828071
 20
53.41287896720402
 30
0.0
  0
VERTEX
  5
9E1
  8
LAYER_1
 10
-20.36249782890081
 20
53.53459731503676
 30
0.0
  0
VERTEX
  5
9E2
  8
LAYER_1
 10
-21.78749788552523
 20
53.15989931166931
 30
0.0
  0
VERTEX
  5
9E3
  8
LAYER_1
 10
-23.28749794512987
 20
52.7900117735722
 30
0.0
  0
VERTEX
  5
9E4
  8
LAYER_1
 10
-25.83749804645777
 20
52.15252376529516
 30
0.0
  0
VERTEX
  5
9E5
  8
LAYER_1
 10
-28.16249813884497
 20
51.56164240711824
 30
0.0
  0
VERTEX
  5
9E6
  8
LAYER_1
 10
-31.33512798845243
 20
50.74279725005196
 30
0.0
  0
VERTEX
  5
9E7
  8
LAYER_1
 10
-34.31249838322401
 20
49.95200286419725
 30
0.0
  0
VERTEX
  5
9E8
  8
LAYER_1
 10
-35.73749843984842
 20
49.56551315287031
 30
0.0
  0
VERTEX
  5
9E9
  8
LAYER_1
 10
-36.71249847859144
 20
49.36968945142483
 30
0.0
  0
VERTEX
  5
9EA
  8
LAYER_1
 10
-40.61249863356352
 20
48.36104725434974
 30
0.0
  0
VERTEX
  5
9EB
  8
LAYER_1
 10
-43.23749873787165
 20
47.69029880852723
 30
0.0
  0
VERTEX
  5
9EC
  8
LAYER_1
 10
-44.2874987795949
 20
47.40393099528798
 30
0.0
  0
VERTEX
  5
9ED
  8
LAYER_1
 10
-47.13749889284372
 20
46.65424437911959
 30
0.0
  0
VERTEX
  5
9EE
  8
LAYER_1
 10
-48.11249893158674
 20
46.43975689261126
 30
0.0
  0
VERTEX
  5
9EF
  8
LAYER_1
 10
-51.93749908357859
 20
45.45877564034213
 30
0.0
  0
VERTEX
  5
9F0
  8
LAYER_1
 10
-54.03749916702509
 20
44.91349375947721
 30
0.0
  0
VERTEX
  5
9F1
  8
LAYER_1
 10
-54.93749920278788
 20
44.68674206940264
 30
0.0
  0
VERTEX
  5
9F2
  8
LAYER_1
 10
-58.23749933391809
 20
43.78596598539868
 30
0.0
  0
VERTEX
  5
9F3
  8
LAYER_1
 10
-59.13749936968088
 20
43.58387206821293
 30
0.0
  0
VERTEX
  5
9F4
  8
LAYER_1
 10
-61.68749947100878
 20
42.89565876140415
 30
0.0
  0
VERTEX
  5
9F5
  8
LAYER_1
 10
-62.28749949485064
 20
42.75496865191872
 30
0.0
  0
VERTEX
  5
9F6
  8
LAYER_1
 10
-62.88749951869249
 20
42.60829166761864
 30
0.0
  0
VERTEX
  5
9F7
  8
LAYER_1
 10
-63.48749954253435
 20
42.45320758251506
 30
0.0
  0
VERTEX
  5
9F8
  8
LAYER_1
 10
-64.34999957680702
 20
42.22943276881267
 30
0.0
  0
VERTEX
  5
9F9
  8
LAYER_1
 10
-64.61249958723783
 20
42.16672891502853
 30
0.0
  0
VERTEX
  5
9FA
  8
LAYER_1
 10
-66.23916140622333
 20
41.75036781921948
 30
0.0
  0
VERTEX
  5
9FB
  8
LAYER_1
 10
-66.31420182552105
 20
41.55481562116101
 30
0.0
  0
VERTEX
  5
9FC
  8
LAYER_1
 10
-65.9249996393919
 20
40.0439952114411
 30
0.0
  0
VERTEX
  5
9FD
  8
LAYER_1
 10
-65.9249996393919
 20
35.24255539161275
 30
0.0
  0
VERTEX
  5
9FE
  8
LAYER_1
 10
-65.81477848034528
 20
35.02941117311865
 30
0.0
  0
VERTEX
  5
9FF
  8
LAYER_1
 10
-65.76475147651917
 20
34.9538194873013
 30
0.0
  0
VERTEX
  5
A00
  8
LAYER_1
 10
-65.6968431510711
 20
34.88301025522199
 30
0.0
  0
VERTEX
  5
A01
  8
LAYER_1
 10
-65.61417711858951
 20
34.8186159405567
 30
0.0
  0
VERTEX
  5
A02
  8
LAYER_1
 10
-65.51987699366279
 20
34.76226900698138
 30
0.0
  0
VERTEX
  5
A03
  8
LAYER_1
 10
-65.41706639087937
 20
34.71560191817204
 30
0.0
  0
VERTEX
  5
A04
  8
LAYER_1
 10
-65.30886892482764
 20
34.68024713780463
 30
0.0
  0
VERTEX
  5
A05
  8
LAYER_1
 10
-65.19840821009603
 20
34.65783712955513
 30
0.0
  0
VERTEX
  5
A06
  8
LAYER_1
 10
-65.08880786127297
 20
34.65000435709953
 30
0.0
  0
SEQEND
  5
E46
  8
LAYER_1
  0
POLYLINE
  5
85
  8
LAYER_1
 66
     1
 10
0.0
 20
0.0
 30
0.0
 70
     1
  0
VERTEX
  5
A07
  8
LAYER_1
 10
4.800003170967102
 20
29.36850556487882
 30
0.0
  0
VERTEX
  5
A08
  8
LAYER_1
 10
5.062503181397915
 20
29.33885341778652
 30
0.0
  0
VERTEX
  5
A09
  8
LAYER_1
 10
8.58750332146883
 20
29.38982137308774
 30
0.0
  0
VERTEX
  5
A0A
  8
LAYER_1
 10
9.487503357231617
 20
29.51030392661386
 30
0.0
  0
VERTEX
  5
A0B
  8
LAYER_1
 10
10.97592442763019
 20
29.7004289170995
 30
0.0
  0
VERTEX
  5
A0C
  8
LAYER_1
 10
11.55282799878085
 20
29.78571331398533
 30
0.0
  0
VERTEX
  5
A0D
  8
LAYER_1
 10
12.23883015977867
 20
29.9116464778755
 30
0.0
  0
VERTEX
  5
A0E
  8
LAYER_1
 10
12.91502422659068
 20
30.05474455786923
 30
0.0
  0
VERTEX
  5
A0F
  8
LAYER_1
 10
13.46250351518393
 20
30.19152370306573
 30
0.0
  0
VERTEX
  5
A10
  8
LAYER_1
 10
13.83750353008509
 20
30.29788977486838
 30
0.0
  0
VERTEX
  5
A11
  8
LAYER_1
 10
14.77500356733799
 20
30.57377402480139
 30
0.0
  0
VERTEX
  5
A12
  8
LAYER_1
 10
15.22468423640884
 20
30.70995533130701
 30
0.0
  0
VERTEX
  5
A13
  8
LAYER_1
 10
15.67418629470851
 20
30.85395295249487
 30
0.0
  0
VERTEX
  5
A14
  8
LAYER_1
 10
16.12529821172317
 20
31.00654397621762
 30
0.0
  0
VERTEX
  5
A15
  8
LAYER_1
 10
16.57980845693898
 20
31.16850549032789
 30
0.0
  0
VERTEX
  5
A16
  8
LAYER_1
 10
17.03950549984211
 20
31.34061458267832
 30
0.0
  0
VERTEX
  5
A17
  8
LAYER_1
 10
17.50617780991873
 20
31.52364834112156
 30
0.0
  0
VERTEX
  5
A18
  8
LAYER_1
 10
18.46760210953709
 20
31.92559820769703
 30
0.0
  0
VERTEX
  5
A19
  8
LAYER_1
 10
19.4783891116834
 20
32.38057179287541
 30
0.0
  0
VERTEX
  5
A1A
  8
LAYER_1
 10
20.55284657224698
 20
32.89478579947783
 30
0.0
  0
VERTEX
  5
A1B
  8
LAYER_1
 10
21.70528224711718
 20
33.47445693032542
 30
0.0
  0
VERTEX
  5
A1C
  8
LAYER_1
 10
22.9500038921833
 20
34.12580188823929
 30
0.0
  0
VERTEX
  5
A1D
  8
LAYER_1
 10
24.1125039383769
 20
34.74423116891228
 30
0.0
  0
VERTEX
  5
A1E
  8
LAYER_1
 10
25.01250397413969
 20
35.22778610728922
 30
0.0
  0
VERTEX
  5
A1F
  8
LAYER_1
 10
25.96674008469491
 20
35.76411065582158
 30
0.0
  0
VERTEX
  5
A20
  8
LAYER_1
 10
26.62654629518049
 20
36.12437452996651
 30
0.0
  0
VERTEX
  5
A21
  8
LAYER_1
 10
27.32892876353166
 20
36.48860875831067
 30
0.0
  0
VERTEX
  5
A22
  8
LAYER_1
 10
28.05585361320562
 20
36.84847090207887
 30
0.0
  0
VERTEX
  5
A23
  8
LAYER_1
 10
28.78928696765953
 20
37.19561852249594
 30
0.0
  0
VERTEX
  5
A24
  8
LAYER_1
 10
29.51119495035057
 20
37.5217091807867
 30
0.0
  0
VERTEX
  5
A25
  8
LAYER_1
 10
30.20354368473593
 20
37.81840043817597
 30
0.0
  0
VERTEX
  5
A26
  8
LAYER_1
 10
30.84829929427278
 20
38.07734985588857
 30
0.0
  0
VERTEX
  5
A27
  8
LAYER_1
 10
31.4274279024183
 20
38.29021499514933
 30
0.0
  0
VERTEX
  5
A28
  8
LAYER_1
 10
32.3672077087614
 20
38.60054445342632
 30
0.0
  0
VERTEX
  5
A29
  8
LAYER_1
 10
33.30871812015562
 20
38.88162695052107
 30
0.0
  0
VERTEX
  5
A2A
  8
LAYER_1
 10
34.25005523000971
 20
39.13304386658121
 30
0.0
  0
VERTEX
  5
A2B
  8
LAYER_1
 10
35.18931513173234
 20
39.35437658175438
 30
0.0
  0
VERTEX
  5
A2C
  8
LAYER_1
 10
36.12459391873224
 20
39.54520647618822
 30
0.0
  0
VERTEX
  5
A2D
  8
LAYER_1
 10
37.05398768441813
 20
39.70511493003038
 30
0.0
  0
VERTEX
  5
A2E
  8
LAYER_1
 10
37.51588271345853
 20
39.7733427980257
 30
0.0
  0
VERTEX
  5
A2F
  8
LAYER_1
 10
37.9755925221987
 20
39.83368332342847
 30
0.0
  0
VERTEX
  5
A30
  8
LAYER_1
 10
38.4328791223147
 20
39.88608417875714
 30
0.0
  0
VERTEX
  5
A31
  8
LAYER_1
 10
38.88750452548265
 20
39.93049303653018
 30
0.0
  0
VERTEX
  5
A32
  8
LAYER_1
 10
40.23750457912683
 20
40.05081949805142
 30
0.0
  0
VERTEX
  5
A33
  8
LAYER_1
 10
41.73750463873148
 20
40.20497744186827
 30
0.0
  0
VERTEX
  5
A34
  8
LAYER_1
 10
49.16250493377447
 20
40.29894738490206
 30
0.0
  0
VERTEX
  5
A35
  8
LAYER_1
 10
49.65000495314598
 20
40.78500460088317
 30
0.0
  0
VERTEX
  5
A36
  8
LAYER_1
 10
49.65000495314598
 20
55.73245418387341
 30
0.0
  0
VERTEX
  5
A37
  8
LAYER_1
 10
49.53252362142148
 20
55.9596380281975
 30
0.0
  0
VERTEX
  5
A38
  8
LAYER_1
 10
49.46533974332625
 20
56.0588287553332
 30
0.0
  0
VERTEX
  5
A39
  8
LAYER_1
 10
49.37188976916654
 20
56.1542852888649
 30
0.0
  0
VERTEX
  5
A3A
  8
LAYER_1
 10
49.26202014661004
 20
56.23736156610777
 30
0.0
  0
VERTEX
  5
A3B
  8
LAYER_1
 10
49.14557732332447
 20
56.29941152437698
 30
0.0
  0
VERTEX
  5
A3C
  8
LAYER_1
 10
48.87611235695201
 20
56.41200117623237
 30
0.0
  0
VERTEX
  5
A3D
  8
LAYER_1
 10
45.48750478774309
 20
56.37644654344371
 30
0.0
  0
VERTEX
  5
A3E
  8
LAYER_1
 10
44.36250474303961
 20
56.31260852211537
 30
0.0
  0
VERTEX
  5
A3F
  8
LAYER_1
 10
43.09415638950543
 20
56.23017125725897
 30
0.0
  0
VERTEX
  5
A40
  8
LAYER_1
 10
41.89282175583773
 20
56.1293508919436
 30
0.0
  0
VERTEX
  5
A41
  8
LAYER_1
 10
40.75034449221684
 20
56.00780078519928
 30
0.0
  0
VERTEX
  5
A42
  8
LAYER_1
 10
40.19862851485529
 20
55.93851875348814
 30
0.0
  0
VERTEX
  5
A43
  8
LAYER_1
 10
39.65856824882304
 20
55.86317429605602
 30
0.0
  0
VERTEX
  5
A44
  8
LAYER_1
 10
39.12914415039266
 20
55.78147408278165
 30
0.0
  0
VERTEX
  5
A45
  8
LAYER_1
 10
38.60933667583667
 20
55.69312478354379
 30
0.0
  0
VERTEX
  5
A46
  8
LAYER_1
 10
38.09812628142761
 20
55.59783306822122
 30
0.0
  0
VERTEX
  5
A47
  8
LAYER_1
 10
37.59449342343802
 20
55.49530560669265
 30
0.0
  0
VERTEX
  5
A48
  8
LAYER_1
 10
37.09741855814045
 20
55.38524906883684
 30
0.0
  0
VERTEX
  5
A49
  8
LAYER_1
 10
36.60588214180741
 20
55.26737012453256
 30
0.0
  0
VERTEX
  5
A4A
  8
LAYER_1
 10
36.11886463071147
 20
55.14137544365855
 30
0.0
  0
VERTEX
  5
A4B
  8
LAYER_1
 10
35.63534648112515
 20
55.00697169609354
 30
0.0
  0
VERTEX
  5
A4C
  8
LAYER_1
 10
35.15430814932098
 20
54.86386555171631
 30
0.0
  0
VERTEX
  5
A4D
  8
LAYER_1
 10
34.67473009157153
 20
54.7117636804056
 30
0.0
  0
VERTEX
  5
A4E
  8
LAYER_1
 10
34.19559276414931
 20
54.55037275204015
 30
0.0
  0
VERTEX
  5
A4F
  8
LAYER_1
 10
33.71587662332686
 20
54.37939943649872
 30
0.0
  0
VERTEX
  5
A50
  8
LAYER_1
 10
33.23456212537673
 20
54.19855040366006
 30
0.0
  0
VERTEX
  5
A51
  8
LAYER_1
 10
32.75062972657145
 20
54.00753232340293
 30
0.0
  0
VERTEX
  5
A52
  8
LAYER_1
 10
32.26305988318357
 20
53.80605186560607
 30
0.0
  0
VERTEX
  5
A53
  8
LAYER_1
 10
31.77083305148562
 20
53.59381570014822
 30
0.0
  0
VERTEX
  5
A54
  8
LAYER_1
 10
30.76833024824968
 20
53.1359029257646
 30
0.0
  0
VERTEX
  5
A55
  8
LAYER_1
 10
29.73496496704392
 20
52.63144735928208
 30
0.0
  0
VERTEX
  5
A56
  8
LAYER_1
 10
28.66258085804866
 20
52.07810235973065
 30
0.0
  0
VERTEX
  5
A57
  8
LAYER_1
 10
27.54302157144421
 20
51.47352128614033
 30
0.0
  0
VERTEX
  5
A58
  8
LAYER_1
 10
26.36250402778387
 20
50.82345858692727
 30
0.0
  0
VERTEX
  5
A59
  8
LAYER_1
 10
25.46250399202108
 20
50.34926344591481
 30
0.0
  0
VERTEX
  5
A5A
  8
LAYER_1
 10
23.51250391453505
 20
49.218097123543
 30
0.0
  0
VERTEX
  5
A5B
  8
LAYER_1
 10
19.4625037536025
 20
47.1867274257993
 30
0.0
  0
VERTEX
  5
A5C
  8
LAYER_1
 10
18.5250037163496
 20
46.75574156345019
 30
0.0
  0
VERTEX
  5
A5D
  8
LAYER_1
 10
17.86447262466954
 20
46.45970044642627
 30
0.0
  0
VERTEX
  5
A5E
  8
LAYER_1
 10
17.19587107243816
 20
46.17499942534458
 30
0.0
  0
VERTEX
  5
A5F
  8
LAYER_1
 10
16.52084986735427
 20
45.9021215457102
 30
0.0
  0
VERTEX
  5
A60
  8
LAYER_1
 10
15.84105981711669
 20
45.64154985302822
 30
0.0
  0
VERTEX
  5
A61
  8
LAYER_1
 10
15.15815172942424
 20
45.39376739280371
 30
0.0
  0
VERTEX
  5
A62
  8
LAYER_1
 10
14.47377641197572
 20
45.15925721054174
 30
0.0
  0
VERTEX
  5
A63
  8
LAYER_1
 10
13.78958467246997
 20
44.93850235174737
 30
0.0
  0
VERTEX
  5
A64
  8
LAYER_1
 10
13.10722731860578
 20
44.73198586192572
 30
0.0
  0
VERTEX
  5
A65
  8
LAYER_1
 10
12.42835515808198
 20
44.54019078658183
 30
0.0
  0
VERTEX
  5
A66
  8
LAYER_1
 10
11.75461899859739
 20
44.3636001712208
 30
0.0
  0
VERTEX
  5
A67
  8
LAYER_1
 10
11.08766964785081
 20
44.20269706134768
 30
0.0
  0
VERTEX
  5
A68
  8
LAYER_1
 10
10.42915791354107
 20
44.05796450246757
 30
0.0
  0
VERTEX
  5
A69
  8
LAYER_1
 10
9.780734603366971
 20
43.92988554008554
 30
0.0
  0
VERTEX
  5
A6A
  8
LAYER_1
 10
9.14405052502734
 20
43.81894321970665
 30
0.0
  0
VERTEX
  5
A6B
  8
LAYER_1
 10
8.520756486220993
 20
43.725620586836
 30
0.0
  0
VERTEX
  5
A6C
  8
LAYER_1
 10
7.91250329464674
 20
43.65040068697866
 30
0.0
  0
VERTEX
  5
A6D
  8
LAYER_1
 10
6.56250324100256
 20
43.497260719149
 30
0.0
  0
VERTEX
  5
A6E
  8
LAYER_1
 10
5.962503217160702
 20
43.42660506352281
 30
0.0
  0
VERTEX
  5
A6F
  8
LAYER_1
 10
4.387503154575825
 20
43.37847615368898
 30
0.0
  0
VERTEX
  5
A70
  8
LAYER_1
 10
3.851401679023738
 20
43.36790846310362
 30
0.0
  0
VERTEX
  5
A71
  8
LAYER_1
 10
3.30152049553379
 20
43.36815183257019
 30
0.0
  0
VERTEX
  5
A72
  8
LAYER_1
 10
2.742086899273657
 20
43.37874009718094
 30
0.0
  0
VERTEX
  5
A73
  8
LAYER_1
 10
2.177328185411012
 20
43.39920709202805
 30
0.0
  0
VERTEX
  5
A74
  8
LAYER_1
 10
1.611471649113529
 20
43.42908665220375
 30
0.0
  0
VERTEX
  5
A75
  8
LAYER_1
 10
1.048744585548883
 20
43.46791261280023
 30
0.0
  0
VERTEX
  5
A76
  8
LAYER_1
 10
0.4933742898847476
 20
43.51521880890972
 30
0.0
  0
VERTEX
  5
A77
  8
LAYER_1
 10
-0.0504119427112037
 20
43.57053907562444
 30
0.0
  0
VERTEX
  5
A78
  8
LAYER_1
 10
-0.5783868170712967
 20
43.63340724803658
 30
0.0
  0
VERTEX
  5
A79
  8
LAYER_1
 10
-1.086323038027857
 20
43.70335716123836
 30
0.0
  0
VERTEX
  5
A7A
  8
LAYER_1
 10
-1.569993310413211
 20
43.77992265032199
 30
0.0
  0
VERTEX
  5
A7B
  8
LAYER_1
 10
-2.025170339059684
 20
43.86263755037967
 30
0.0
  0
VERTEX
  5
A7C
  8
LAYER_1
 10
-2.447626828799603
 20
43.95103569650362
 30
0.0
  0
VERTEX
  5
A7D
  8
LAYER_1
 10
-2.833135484465293
 20
44.04465092378606
 30
0.0
  0
VERTEX
  5
A7E
  8
LAYER_1
 10
-3.177469010889081
 20
44.14301706731919
 30
0.0
  0
VERTEX
  5
A7F
  8
LAYER_1
 10
-3.476400112903292
 20
44.24566796219523
 30
0.0
  0
VERTEX
  5
A80
  8
LAYER_1
 10
-3.690303076398706
 20
44.3271114111803
 30
0.0
  0
VERTEX
  5
A81
  8
LAYER_1
 10
-3.662351981291266
 20
44.9448081009518
 30
0.0
  0
VERTEX
  5
A82
  8
LAYER_1
 10
-3.639057400976244
 20
45.26258329297832
 30
0.0
  0
VERTEX
  5
A83
  8
LAYER_1
 10
-3.59695894214345
 20
45.52474060353352
 30
0.0
  0
VERTEX
  5
A84
  8
LAYER_1
 10
-3.566797860590799
 20
45.64433822525831
 30
0.0
  0
VERTEX
  5
A85
  8
LAYER_1
 10
-3.529463332178195
 20
45.76128218301398
 30
0.0
  0
VERTEX
  5
A86
  8
LAYER_1
 10
-3.429977298465786
 20
46.00221018181624
 30
0.0
  0
VERTEX
  5
A87
  8
LAYER_1
 10
-3.323200539588353
 20
46.20969644228299
 30
0.0
  0
VERTEX
  5
A88
  8
LAYER_1
 10
-3.186633972951182
 20
46.43911804599853
 30
0.0
  0
VERTEX
  5
A89
  8
LAYER_1
 10
-3.024437618936254
 20
46.68487168956241
 30
0.0
  0
VERTEX
  5
A8A
  8
LAYER_1
 10
-2.840771497925548
 20
46.94135406957417
 30
0.0
  0
VERTEX
  5
A8B
  8
LAYER_1
 10
-2.639795630301046
 20
47.20296188263335
 30
0.0
  0
VERTEX
  5
A8C
  8
LAYER_1
 10
-2.425670036444729
 20
47.46409182533947
 30
0.0
  0
VERTEX
  5
A8D
  8
LAYER_1
 10
-2.202554736738577
 20
47.7191405942921
 30
0.0
  0
VERTEX
  5
A8E
  8
LAYER_1
 10
-1.974609751564572
 20
47.96250488609076
 30
0.0
  0
VERTEX
  5
A8F
  8
LAYER_1
 10
-1.537367868136371
 20
48.41250490397215
 30
0.0
  0
VERTEX
  5
A90
  8
LAYER_1
 10
1.237503029406071
 20
50.95249798658895
 30
0.0
  0
VERTEX
  5
A91
  8
LAYER_1
 10
2.86182638998342
 20
52.61250507086515
 30
0.0
  0
VERTEX
  5
A92
  8
LAYER_1
 10
3.188221826853706
 20
53.04427826488765
 30
0.0
  0
VERTEX
  5
A93
  8
LAYER_1
 10
3.303341705440136
 20
53.20587209131119
 30
0.0
  0
VERTEX
  5
A94
  8
LAYER_1
 10
3.409365372925406
 20
53.37452196526967
 30
0.0
  0
VERTEX
  5
A95
  8
LAYER_1
 10
3.506511845349545
 20
53.55122967257533
 30
0.0
  0
VERTEX
  5
A96
  8
LAYER_1
 10
3.595000138752579
 20
53.73699699904039
 30
0.0
  0
VERTEX
  5
A97
  8
LAYER_1
 10
3.675049269174536
 20
53.93282573047703
 30
0.0
  0
VERTEX
  5
A98
  8
LAYER_1
 10
3.746878252655444
 20
54.1397176526975
 30
0.0
  0
VERTEX
  5
A99
  8
LAYER_1
 10
3.81070610523533
 20
54.358674551514
 30
0.0
  0
VERTEX
  5
A9A
  8
LAYER_1
 10
3.866751842954223
 20
54.59069821273874
 30
0.0
  0
VERTEX
  5
A9B
  8
LAYER_1
 10
3.915234481852148
 20
54.83679042218393
 30
0.0
  0
VERTEX
  5
A9C
  8
LAYER_1
 10
3.956373037969134
 20
55.09795296566178
 30
0.0
  0
VERTEX
  5
A9D
  8
LAYER_1
 10
3.990386527345208
 20
55.37518762898452
 30
0.0
  0
VERTEX
  5
A9E
  8
LAYER_1
 10
4.017493966020399
 20
55.66949619796435
 30
0.0
  0
VERTEX
  5
A9F
  8
LAYER_1
 10
4.051866755428237
 20
56.31334219614413
 30
0.0
  0
VERTEX
  5
AA0
  8
LAYER_1
 10
4.061243534512869
 20
57.03750524669886
 30
0.0
  0
VERTEX
  5
AA1
  8
LAYER_1
 10
4.057025883482069
 20
58.3125052973628
 30
0.0
  0
VERTEX
  5
AA2
  8
LAYER_1
 10
3.937986597903389
 20
58.98391715964911
 30
0.0
  0
VERTEX
  5
AA3
  8
LAYER_1
 10
3.815649103853768
 20
59.60350728743094
 30
0.0
  0
VERTEX
  5
AA4
  8
LAYER_1
 10
3.749765701144732
 20
59.88556485167129
 30
0.0
  0
VERTEX
  5
AA5
  8
LAYER_1
 10
3.68035232755857
 20
60.14996966251019
 30
0.0
  0
VERTEX
  5
AA6
  8
LAYER_1
 10
3.607118832779553
 20
60.39735090472182
 30
0.0
  0
VERTEX
  5
AA7
  8
LAYER_1
 10
3.52977506649195
 20
60.62833776308038
 30
0.0
  0
VERTEX
  5
AA8
  8
LAYER_1
 10
3.448030878380029
 20
60.84355942236007
 30
0.0
  0
VERTEX
  5
AA9
  8
LAYER_1
 10
3.361596118128062
 20
61.04364506733508
 30
0.0
  0
VERTEX
  5
AAA
  8
LAYER_1
 10
3.270180635420317
 20
61.22922388277959
 30
0.0
  0
VERTEX
  5
AAB
  8
LAYER_1
 10
3.173494279941064
 20
61.40092505346782
 30
0.0
  0
VERTEX
  5
AAC
  8
LAYER_1
 10
3.071246901374572
 20
61.55937776417394
 30
0.0
  0
VERTEX
  5
AAD
  8
LAYER_1
 10
2.96314834940511
 20
61.70521119967215
 30
0.0
  0
VERTEX
  5
AAE
  8
LAYER_1
 10
2.848908473716947
 20
61.83905454473664
 30
0.0
  0
VERTEX
  5
AAF
  8
LAYER_1
 10
2.728237123994354
 20
61.96153698414161
 30
0.0
  0
VERTEX
  5
AB0
  8
LAYER_1
 10
2.6008441499216
 20
62.07328770266125
 30
0.0
  0
VERTEX
  5
AB1
  8
LAYER_1
 10
2.466439401182953
 20
62.17493588506974
 30
0.0
  0
VERTEX
  5
AB2
  8
LAYER_1
 10
2.235417130922849
 20
62.32866905002186
 30
0.0
  0
VERTEX
  5
AB3
  8
LAYER_1
 10
1.987743516150273
 20
62.4776424890314
 30
0.0
  0
VERTEX
  5
AB4
  8
LAYER_1
 10
1.724227630319582
 20
62.62158787619168
 30
0.0
  0
VERTEX
  5
AB5
  8
LAYER_1
 10
1.445678546885131
 20
62.76023688559599
 30
0.0
  0
VERTEX
  5
AB6
  8
LAYER_1
 10
1.152905339301275
 20
62.89332119133764
 30
0.0
  0
VERTEX
  5
AB7
  8
LAYER_1
 10
0.8467170810223682
 20
63.02057246750994
 30
0.0
  0
VERTEX
  5
AB8
  8
LAYER_1
 10
0.527922845502766
 20
63.14172238820617
 30
0.0
  0
VERTEX
  5
AB9
  8
LAYER_1
 10
0.1973317061968238
 20
63.25650262751963
 30
0.0
  0
VERTEX
  5
ABA
  8
LAYER_1
 10
-0.1442472634411036
 20
63.36464485954363
 30
0.0
  0
VERTEX
  5
ABB
  8
LAYER_1
 10
-0.496004989956661
 20
63.46588075837148
 30
0.0
  0
VERTEX
  5
ABC
  8
LAYER_1
 10
-0.8571323998954935
 20
63.55994199809648
 30
0.0
  0
VERTEX
  5
ABD
  8
LAYER_1
 10
-1.226820419803246
 20
63.64656025281191
 30
0.0
  0
VERTEX
  5
ABE
  8
LAYER_1
 10
-1.604259976225563
 20
63.72546719661108
 30
0.0
  0
VERTEX
  5
ABF
  8
LAYER_1
 10
-1.988641995708091
 20
63.79639450358731
 30
0.0
  0
VERTEX
  5
AC0
  8
LAYER_1
 10
-2.379157404796472
 20
63.85907384783388
 30
0.0
  0
VERTEX
  5
AC1
  8
LAYER_1
 10
-2.774997130036354
 20
63.9132369034441
 30
0.0
  0
VERTEX
  5
AC2
  8
LAYER_1
 10
-3.562497161328793
 20
64.01174647756375
 30
0.0
  0
VERTEX
  5
AC3
  8
LAYER_1
 10
-6.149997264146805
 20
64.0121260007121
 30
0.0
  0
VERTEX
  5
AC4
  8
LAYER_1
 10
-7.322132059772513
 20
64.00693311339501
 30
0.0
  0
VERTEX
  5
AC5
  8
LAYER_1
 10
-8.600823568390533
 20
63.99251350785772
 30
0.0
  0
VERTEX
  5
AC6
  8
LAYER_1
 10
-9.831533849849496
 20
63.97107542861735
 30
0.0
  0
VERTEX
  5
AC7
  8
LAYER_1
 10
-10.85972496399803
 20
63.94482712019101
 30
0.0
  0
VERTEX
  5
AC8
  8
LAYER_1
 10
-12.98195256103125
 20
63.87714871652153
 30
0.0
  0
VERTEX
  5
AC9
  8
LAYER_1
 10
-13.0505690476242
 20
63.74893763854186
 30
0.0
  0
VERTEX
  5
ACA
  8
LAYER_1
 10
-13.0744158869675
 20
63.68638126242598
 30
0.0
  0
VERTEX
  5
ACB
  8
LAYER_1
 10
-13.07861078996969
 20
63.62517265825666
 30
0.0
  0
VERTEX
  5
ACC
  8
LAYER_1
 10
-13.06322794340246
 20
63.56610934394283
 30
0.0
  0
VERTEX
  5
ACD
  8
LAYER_1
 10
-13.02834153403749
 20
63.50998883739339
 30
0.0
  0
VERTEX
  5
ACE
  8
LAYER_1
 10
-12.93749753385782
 20
63.3992511142246
 30
0.0
  0
VERTEX
  5
ACF
  8
LAYER_1
 10
-11.69999748468399
 20
63.16178259050182
 30
0.0
  0
VERTEX
  5
AD0
  8
LAYER_1
 10
-10.49554431182332
 20
62.93821349431587
 30
0.0
  0
VERTEX
  5
AD1
  8
LAYER_1
 10
-9.337497390806675
 20
62.73416274318168
 30
0.0
  0
VERTEX
  5
AD2
  8
LAYER_1
 10
-8.424646328071384
 20
62.57595701431683
 30
0.0
  0
VERTEX
  5
AD3
  8
LAYER_1
 10
-7.569888780315715
 20
62.41956069076808
 30
0.0
  0
VERTEX
  5
AD4
  8
LAYER_1
 10
-6.771159130739459
 20
62.26434763596647
 30
0.0
  0
VERTEX
  5
AD5
  8
LAYER_1
 10
-6.026391762542413
 20
62.10969171334302
 30
0.0
  0
VERTEX
  5
AD6
  8
LAYER_1
 10
-5.333521058924371
 20
61.95496678632877
 30
0.0
  0
VERTEX
  5
AD7
  8
LAYER_1
 10
-4.690481403085128
 20
61.79954671835473
 30
0.0
  0
VERTEX
  5
AD8
  8
LAYER_1
 10
-4.095207178224478
 20
61.64280537285195
 30
0.0
  0
VERTEX
  5
AD9
  8
LAYER_1
 10
-3.545632767542216
 20
61.48411661325144
 30
0.0
  0
VERTEX
  5
ADA
  8
LAYER_1
 10
-3.039692554238136
 20
61.32285430298424
 30
0.0
  0
VERTEX
  5
ADB
  8
LAYER_1
 10
-2.575320921512033
 20
61.15839230548138
 30
0.0
  0
VERTEX
  5
ADC
  8
LAYER_1
 10
-2.150452252563702
 20
60.99010448417388
 30
0.0
  0
VERTEX
  5
ADD
  8
LAYER_1
 10
-1.763020930592937
 20
60.81736470249276
 30
0.0
  0
VERTEX
  5
ADE
  8
LAYER_1
 10
-1.410961338799533
 20
60.63954682386906
 30
0.0
  0
VERTEX
  5
ADF
  8
LAYER_1
 10
-1.092207860383284
 20
60.45602471173382
 30
0.0
  0
VERTEX
  5
AE0
  8
LAYER_1
 10
-0.8046948785439857
 20
60.26617222951806
 30
0.0
  0
VERTEX
  5
AE1
  8
LAYER_1
 10
-0.5463567764814314
 20
60.06936324065279
 30
0.0
  0
VERTEX
  5
AE2
  8
LAYER_1
 10
-0.3414643243734432
 20
59.88560691610037
 30
0.0
  0
VERTEX
  5
AE3
  8
LAYER_1
 10
-0.1595004395473942
 20
59.69014826945026
 30
0.0
  0
VERTEX
  5
AE4
  8
LAYER_1
 10
-0.0018183355989056
 20
59.4854269720254
 30
0.0
  0
VERTEX
  5
AE5
  8
LAYER_1
 10
0.1302287738764019
 20
59.27388269514873
 30
0.0
  0
VERTEX
  5
AE6
  8
LAYER_1
 10
0.2352876752829071
 20
59.05795511014318
 30
0.0
  0
VERTEX
  5
AE7
  8
LAYER_1
 10
0.3120051550249892
 20
58.84008388833168
 30
0.0
  0
VERTEX
  5
AE8
  8
LAYER_1
 10
0.3590279995070271
 20
58.62270870103718
 30
0.0
  0
VERTEX
  5
AE9
  8
LAYER_1
 10
0.370981054276898
 20
58.51496951762223
 30
0.0
  0
VERTEX
  5
AEA
  8
LAYER_1
 10
0.3750029951334
 20
58.40826921958262
 30
0.0
  0
VERTEX
  5
AEB
  8
LAYER_1
 10
0.3750029951334
 20
58.04049147513916
 30
0.0
  0
VERTEX
  5
AEC
  8
LAYER_1
 10
-0.3187470324337482
 20
57.71361757187552
 30
0.0
  0
VERTEX
  5
AED
  8
LAYER_1
 10
-1.150192377972417
 20
57.3454839314059
 30
0.0
  0
VERTEX
  5
AEE
  8
LAYER_1
 10
-2.174997106194496
 20
56.91941108549815
 30
0.0
  0
VERTEX
  5
AEF
  8
LAYER_1
 10
-2.688959688135141
 20
56.70660018736938
 30
0.0
  0
VERTEX
  5
AF0
  8
LAYER_1
 10
-3.177497446522174
 20
56.49145373810139
 30
0.0
  0
VERTEX
  5
AF1
  8
LAYER_1
 10
-3.641418686380696
 20
56.273395837634
 30
0.0
  0
VERTEX
  5
AF2
  8
LAYER_1
 10
-4.081531712735807
 20
56.05185058590698
 30
0.0
  0
VERTEX
  5
AF3
  8
LAYER_1
 10
-4.498644830612607
 20
55.82624208286012
 30
0.0
  0
VERTEX
  5
AF4
  8
LAYER_1
 10
-4.893566345036197
 20
55.59599442843322
 30
0.0
  0
VERTEX
  5
AF5
  8
LAYER_1
 10
-5.267104561031676
 20
55.36053172256607
 30
0.0
  0
VERTEX
  5
AF6
  8
LAYER_1
 10
-5.620067783624144
 20
55.11927806519846
 30
0.0
  0
VERTEX
  5
AF7
  8
LAYER_1
 10
-5.953264317838702
 20
54.87165755627017
 30
0.0
  0
VERTEX
  5
AF8
  8
LAYER_1
 10
-6.267502468700449
 20
54.617094295721
 30
0.0
  0
VERTEX
  5
AF9
  8
LAYER_1
 10
-6.563590541234488
 20
54.35501238349075
 30
0.0
  0
VERTEX
  5
AFA
  8
LAYER_1
 10
-6.842336840465914
 20
54.08483591951918
 30
0.0
  0
VERTEX
  5
AFB
  8
LAYER_1
 10
-7.104549671419831
 20
53.80598900374611
 30
0.0
  0
VERTEX
  5
AFC
  8
LAYER_1
 10
-7.351037339121339
 20
53.51789573611131
 30
0.0
  0
VERTEX
  5
AFD
  8
LAYER_1
 10
-7.582608148595537
 20
53.21998021655459
 30
0.0
  0
VERTEX
  5
AFE
  8
LAYER_1
 10
-7.800070404867526
 20
52.91166654501572
 30
0.0
  0
VERTEX
  5
AFF
  8
LAYER_1
 10
-8.21174203566213
 20
52.27147687276033
 30
0.0
  0
VERTEX
  5
B00
  8
LAYER_1
 10
-8.380203109617906
 20
51.99119224207696
 30
0.0
  0
VERTEX
  5
B01
  8
LAYER_1
 10
-8.493413910890808
 20
51.78666650031224
 30
0.0
  0
VERTEX
  5
B02
  8
LAYER_1
 10
-8.605344271497163
 20
51.54540541154425
 30
0.0
  0
VERTEX
  5
B03
  8
LAYER_1
 10
-8.713636107145955
 20
51.27325439617536
 30
0.0
  0
VERTEX
  5
B04
  8
LAYER_1
 10
-8.816847614828523
 20
50.97529161810869
 30
0.0
  0
VERTEX
  5
B05
  8
LAYER_1
 10
-8.913536991536207
 20
50.65659524124737
 30
0.0
  0
VERTEX
  5
B06
  8
LAYER_1
 10
-9.002262434260341
 20
50.32224342949455
 30
0.0
  0
VERTEX
  5
B07
  8
LAYER_1
 10
-9.081582139992268
 20
49.97731434675335
 30
0.0
  0
VERTEX
  5
B08
  8
LAYER_1
 10
-9.15005430572332
 20
49.62688615692691
 30
0.0
  0
VERTEX
  5
B09
  8
LAYER_1
 10
-9.20623712844484
 20
49.27603702391839
 30
0.0
  0
VERTEX
  5
B0A
  8
LAYER_1
 10
-9.32872880822707
 20
48.41250490397215
 30
0.0
  0
VERTEX
  5
B0B
  8
LAYER_1
 10
-9.320931989466388
 20
44.36250474303961
 30
0.0
  0
VERTEX
  5
B0C
  8
LAYER_1
 10
-9.146957164588898
 20
41.73750463873148
 30
0.0
  0
VERTEX
  5
B0D
  8
LAYER_1
 10
-9.070153238244686
 20
41.06250461190939
 30
0.0
  0
VERTEX
  5
B0E
  8
LAYER_1
 10
-8.977346104570385
 20
40.30957997468518
 30
0.0
  0
VERTEX
  5
B0F
  8
LAYER_1
 10
-8.873511483367764
 20
39.57807505903423
 30
0.0
  0
VERTEX
  5
B10
  8
LAYER_1
 10
-8.76158663893649
 20
38.88314423481276
 30
0.0
  0
VERTEX
  5
B11
  8
LAYER_1
 10
-8.64450883557623
 20
38.23994187187699
 30
0.0
  0
VERTEX
  5
B12
  8
LAYER_1
 10
-8.525215337586648
 20
37.66362234008313
 30
0.0
  0
VERTEX
  5
B13
  8
LAYER_1
 10
-8.406643409267414
 20
37.16934000928741
 30
0.0
  0
VERTEX
  5
B14
  8
LAYER_1
 10
-8.29173031491819
 20
36.77224924934603
 30
0.0
  0
VERTEX
  5
B15
  8
LAYER_1
 10
-8.236563725575978
 20
36.61488644902579
 30
0.0
  0
VERTEX
  5
B16
  8
LAYER_1
 10
-8.183413318838646
 20
36.48750443011522
 30
0.0
  0
VERTEX
  5
B17
  8
LAYER_1
 10
-8.0557786988475
 20
36.24281645513348
 30
0.0
  0
VERTEX
  5
B18
  8
LAYER_1
 10
-7.893504842195625
 20
35.98204002710793
 30
0.0
  0
VERTEX
  5
B19
  8
LAYER_1
 10
-7.697736299797736
 20
35.7065594203037
 30
0.0
  0
VERTEX
  5
B1A
  8
LAYER_1
 10
-7.469617622568546
 20
35.41775890898595
 30
0.0
  0
VERTEX
  5
B1B
  8
LAYER_1
 10
-7.210293361422766
 20
35.1170227674198
 30
0.0
  0
VERTEX
  5
B1C
  8
LAYER_1
 10
-6.920908067275112
 20
34.8057352698704
 30
0.0
  0
VERTEX
  5
B1D
  8
LAYER_1
 10
-6.602606291040297
 20
34.48528069060288
 30
0.0
  0
VERTEX
  5
B1E
  8
LAYER_1
 10
-6.256532583633032
 20
34.15704330388236
 30
0.0
  0
VERTEX
  5
B1F
  8
LAYER_1
 10
-5.864387040148443
 20
33.80574236251357
 30
0.0
  0
VERTEX
  5
B20
  8
LAYER_1
 10
-5.46334622581934
 20
33.46708184080582
 30
0.0
  0
VERTEX
  5
B21
  8
LAYER_1
 10
-5.053272150622576
 20
33.14098460383615
 30
0.0
  0
VERTEX
  5
B22
  8
LAYER_1
 10
-4.634026824534997
 20
32.82737351668161
 30
0.0
  0
VERTEX
  5
B23
  8
LAYER_1
 10
-4.205472257533457
 20
32.52617144441925
 30
0.0
  0
VERTEX
  5
B24
  8
LAYER_1
 10
-3.767470459594805
 20
32.23730125212608
 30
0.0
  0
VERTEX
  5
B25
  8
LAYER_1
 10
-3.319883440695891
 20
31.96068580487917
 30
0.0
  0
VERTEX
  5
B26
  8
LAYER_1
 10
-2.862573210813565
 20
31.69624796775556
 30
0.0
  0
VERTEX
  5
B27
  8
LAYER_1
 10
-2.395401779924678
 20
31.44391060583229
 30
0.0
  0
VERTEX
  5
B28
  8
LAYER_1
 10
-1.918231158006079
 20
31.20359658418639
 30
0.0
  0
VERTEX
  5
B29
  8
LAYER_1
 10
-1.430923355034619
 20
30.97522876789491
 30
0.0
  0
VERTEX
  5
B2A
  8
LAYER_1
 10
-0.9333403809871488
 20
30.75873002203489
 30
0.0
  0
VERTEX
  5
B2B
  8
LAYER_1
 10
-0.4253442458405174
 20
30.55402321168338
 30
0.0
  0
VERTEX
  5
B2C
  8
LAYER_1
 10
0.0932030404284243
 20
30.36103120191741
 30
0.0
  0
VERTEX
  5
B2D
  8
LAYER_1
 10
0.6224394678428263
 20
30.17967685781403
 30
0.0
  0
VERTEX
  5
B2E
  8
LAYER_1
 10
1.162503026425838
 20
30.00988304445028
 30
0.0
  0
VERTEX
  5
B2F
  8
LAYER_1
 10
1.518804344363219
 20
29.9075504476381
 30
0.0
  0
VERTEX
  5
B30
  8
LAYER_1
 10
1.872044679829344
 20
29.81704564045568
 30
0.0
  0
VERTEX
  5
B31
  8
LAYER_1
 10
2.237809695507023
 20
29.73562050121181
 30
0.0
  0
VERTEX
  5
B32
  8
LAYER_1
 10
2.631685054079067
 20
29.6605269082153
 30
0.0
  0
VERTEX
  5
B33
  8
LAYER_1
 10
3.069256418228287
 20
29.58901673977494
 30
0.0
  0
VERTEX
  5
B34
  8
LAYER_1
 10
3.566109450637492
 20
29.51834187419954
 30
0.0
  0
SEQEND
  5
E47
  8
LAYER_1
  0
POLYLINE
  5
86
  8
LAYER_1
 66
     1
 10
0.0
 20
0.0
 30
0.0
 70
     1
  0
VERTEX
  5
B35
  8
LAYER_1
 10
-33.58808105750731
 20
54.40968288315977
 30
0.0
  0
VERTEX
  5
B36
  8
LAYER_1
 10
-33.2449924570415
 20
54.33935880089703
 30
0.0
  0
VERTEX
  5
B37
  8
LAYER_1
 10
-33.09379130218251
 20
54.31650780872587
 30
0.0
  0
VERTEX
  5
B38
  8
LAYER_1
 10
-32.98264027832854
 20
54.30638352926124
 30
0.0
  0
VERTEX
  5
B39
  8
LAYER_1
 10
-32.85963699501102
 20
54.3096286166197
 30
0.0
  0
VERTEX
  5
B3A
  8
LAYER_1
 10
-32.6879662676403
 20
54.32430860465134
 30
0.0
  0
VERTEX
  5
B3B
  8
LAYER_1
 10
-32.23891338654249
 20
54.38203041706008
 30
0.0
  0
VERTEX
  5
B3C
  8
LAYER_1
 10
-31.71606344664168
 20
54.46766323513928
 30
0.0
  0
VERTEX
  5
B3D
  8
LAYER_1
 10
-31.19999825954437
 20
54.56932132754079
 30
0.0
  0
VERTEX
  5
B3E
  8
LAYER_1
 10
-30.80395280728775
 20
54.64417994300095
 30
0.0
  0
VERTEX
  5
B3F
  8
LAYER_1
 10
-30.64320140751359
 20
54.66690736307977
 30
0.0
  0
VERTEX
  5
B40
  8
LAYER_1
 10
-30.53633291736266
 20
54.67520127693831
 30
0.0
  0
VERTEX
  5
B41
  8
LAYER_1
 10
-30.44928294119989
 20
54.68359399344308
 30
0.0
  0
VERTEX
  5
B42
  8
LAYER_1
 10
-30.34249284188853
 20
54.70659043062804
 30
0.0
  0
VERTEX
  5
B43
  8
LAYER_1
 10
-30.22949777621641
 20
54.74067531640464
 30
0.0
  0
VERTEX
  5
B44
  8
LAYER_1
 10
-30.12383290097139
 20
54.78233337868434
 30
0.0
  0
VERTEX
  5
B45
  8
LAYER_1
 10
-30.00709460540176
 20
54.82657712249379
 30
0.0
  0
VERTEX
  5
B46
  8
LAYER_1
 10
-29.86394913785572
 20
54.86770223025731
 30
0.0
  0
VERTEX
  5
B47
  8
LAYER_1
 10
-29.71253644377093
 20
54.90111819598291
 30
0.0
  0
VERTEX
  5
B48
  8
LAYER_1
 10
-29.57099646858509
 20
54.9222345136786
 30
0.0
  0
VERTEX
  5
B49
  8
LAYER_1
 10
-29.4316529602461
 20
54.94603527331352
 30
0.0
  0
VERTEX
  5
B4A
  8
LAYER_1
 10
-29.28622074519983
 20
54.98676036313106
 30
0.0
  0
VERTEX
  5
B4B
  8
LAYER_1
 10
-29.15192638663077
 20
55.03870297455065
 30
0.0
  0
VERTEX
  5
B4C
  8
LAYER_1
 10
-29.04599644772346
 20
55.0961562989917
 30
0.0
  0
VERTEX
  5
B4D
  8
LAYER_1
 10
-28.76447693591558
 20
55.267546589792
 30
0.0
  0
VERTEX
  5
B4E
  8
LAYER_1
 10
-28.46328091701913
 20
55.42098874460366
 30
0.0
  0
VERTEX
  5
B4F
  8
LAYER_1
 10
-28.19607590827777
 20
55.5315554668957
 30
0.0
  0
VERTEX
  5
B50
  8
LAYER_1
 10
-28.09199113185388
 20
55.56297076068093
 30
0.0
  0
VERTEX
  5
B51
  8
LAYER_1
 10
-28.01652942693513
 20
55.57431946013713
 30
0.0
  0
VERTEX
  5
B52
  8
LAYER_1
 10
-27.95221088638752
 20
55.56459135172787
 30
0.0
  0
VERTEX
  5
B53
  8
LAYER_1
 10
-27.86861965758184
 20
55.53501040902952
 30
0.0
  0
VERTEX
  5
B54
  8
LAYER_1
 10
-27.76604580198609
 20
55.48575099747447
 30
0.0
  0
VERTEX
  5
B55
  8
LAYER_1
 10
-27.64477938106828
 20
55.41698748249512
 30
0.0
  0
VERTEX
  5
B56
  8
LAYER_1
 10
-27.34732908913847
 20
55.22164560399305
 30
0.0
  0
VERTEX
  5
B57
  8
LAYER_1
 10
-26.97858927353645
 20
54.95037969698251
 30
0.0
  0
VERTEX
  5
B58
  8
LAYER_1
 10
-26.88395349130966
 20
54.87950081762348
 30
0.0
  0
VERTEX
  5
B59
  8
LAYER_1
 10
-26.8026219616044
 20
54.82656235376733
 30
0.0
  0
VERTEX
  5
B5A
  8
LAYER_1
 10
-26.72271195487581
 20
54.7895651606433
 30
0.0
  0
VERTEX
  5
B5B
  8
LAYER_1
 10
-26.63234074157904
 20
54.76651009348063
 30
0.0
  0
VERTEX
  5
B5C
  8
LAYER_1
 10
-26.51962559216925
 20
54.75539800750857
 30
0.0
  0
VERTEX
  5
B5D
  8
LAYER_1
 10
-26.37268377710158
 20
54.75422975795637
 30
0.0
  0
VERTEX
  5
B5E
  8
LAYER_1
 10
-25.9285892318132
 20
54.77372818902842
 30
0.0
  0
VERTEX
  5
B5F
  8
LAYER_1
 10
-24.89999800920486
 20
54.83940672133249
 30
0.0
  0
VERTEX
  5
B60
  8
LAYER_1
 10
-24.82472335669532
 20
54.85146633327766
 30
0.0
  0
VERTEX
  5
B61
  8
LAYER_1
 10
-24.7393755552218
 20
54.87359760074615
 30
0.0
  0
VERTEX
  5
B62
  8
LAYER_1
 10
-24.54581180615464
 20
54.94380552168121
 30
0.0
  0
VERTEX
  5
B63
  8
LAYER_1
 10
-24.33400936354713
 20
55.04149132299388
 30
0.0
  0
VERTEX
  5
B64
  8
LAYER_1
 10
-24.11867082894297
 20
55.15811584354034
 30
0.0
  0
VERTEX
  5
B65
  8
LAYER_1
 10
-23.91449880388589
 20
55.2851399221768
 30
0.0
  0
VERTEX
  5
B66
  8
LAYER_1
 10
-23.73619588991962
 20
55.41402439775948
 30
0.0
  0
VERTEX
  5
B67
  8
LAYER_1
 10
-23.59846468858786
 20
55.53623010914456
 30
0.0
  0
VERTEX
  5
B68
  8
LAYER_1
 10
-23.54940804314235
 20
55.59215994040557
 30
0.0
  0
VERTEX
  5
B69
  8
LAYER_1
 10
-23.51600780143436
 20
55.64321789518826
 30
0.0
  0
VERTEX
  5
B6A
  8
LAYER_1
 10
-23.4833213528355
 20
55.69502810453154
 30
0.0
  0
VERTEX
  5
B6B
  8
LAYER_1
 10
-23.43803200310553
 20
55.74882755726557
 30
0.0
  0
VERTEX
  5
B6C
  8
LAYER_1
 10
-23.31177425314421
 20
55.8607643661846
 30
0.0
  0
VERTEX
  5
B6D
  8
LAYER_1
 10
-23.14149385733434
 20
55.97576866850282
 30
0.0
  0
VERTEX
  5
B6E
  8
LAYER_1
 10
-22.93145012145988
 20
56.09058081077768
 30
0.0
  0
VERTEX
  5
B6F
  8
LAYER_1
 10
-22.76394777085798
 20
56.18514167487312
 30
0.0
  0
VERTEX
  5
B70
  8
LAYER_1
 10
-22.58178460902517
 20
56.30746754740591
 30
0.0
  0
VERTEX
  5
B71
  8
LAYER_1
 10
-22.39310843076267
 20
56.45041886421951
 30
0.0
  0
VERTEX
  5
B72
  8
LAYER_1
 10
-22.20606703087166
 20
56.60685606115747
 30
0.0
  0
VERTEX
  5
B73
  8
LAYER_1
 10
-22.02880820415335
 20
56.76963957406329
 30
0.0
  0
VERTEX
  5
B74
  8
LAYER_1
 10
-21.86947974540895
 20
56.93162983878048
 30
0.0
  0
VERTEX
  5
B75
  8
LAYER_1
 10
-21.73622944943966
 20
57.08568729115255
 30
0.0
  0
VERTEX
  5
B76
  8
LAYER_1
 10
-21.63720511104666
 20
57.224672367023
 30
0.0
  0
VERTEX
  5
B77
  8
LAYER_1
 10
-21.61312071870102
 20
57.27429743828409
 30
0.0
  0
VERTEX
  5
B78
  8
LAYER_1
 10
-21.58827121425647
 20
57.3467744370857
 30
0.0
  0
VERTEX
  5
B79
  8
LAYER_1
 10
-21.53467452754374
 20
57.56804418207019
 30
0.0
  0
VERTEX
  5
B7A
  8
LAYER_1
 10
-21.47321036785459
 20
57.90400153149596
 30
0.0
  0
VERTEX
  5
B7B
  8
LAYER_1
 10
-21.40067405213517
 20
58.37016641488253
 30
0.0
  0
VERTEX
  5
B7C
  8
LAYER_1
 10
-21.39004005491894
 20
58.4939413409038
 30
0.0
  0
VERTEX
  5
B7D
  8
LAYER_1
 10
-21.39521424771304
 20
58.60521594222872
 30
0.0
  0
VERTEX
  5
B7E
  8
LAYER_1
 10
-21.41531182815204
 20
58.69688486428331
 30
0.0
  0
VERTEX
  5
B7F
  8
LAYER_1
 10
-21.44944799387052
 20
58.76184275249361
 30
0.0
  0
VERTEX
  5
B80
  8
LAYER_1
 10
-21.47260019202937
 20
58.79510285535089
 30
0.0
  0
VERTEX
  5
B81
  8
LAYER_1
 10
-21.48897324371584
 20
58.8322531653024
 30
0.0
  0
VERTEX
  5
B82
  8
LAYER_1
 10
-21.49854300959814
 20
58.87526223249486
 30
0.0
  0
VERTEX
  5
B83
  8
LAYER_1
 10
-21.5012853503445
 20
58.92609860707502
 30
0.0
  0
VERTEX
  5
B84
  8
LAYER_1
 10
-21.48619119910221
 20
59.05912747898526
 30
0.0
  0
VERTEX
  5
B85
  8
LAYER_1
 10
-21.44349767533465
 20
59.24708818220694
 30
0.0
  0
VERTEX
  5
B86
  8
LAYER_1
 10
-21.39760200377764
 20
59.45708595996132
 30
0.0
  0
VERTEX
  5
B87
  8
LAYER_1
 10
-21.38748099744921
 20
59.54460061576489
 30
0.0
  0
VERTEX
  5
B88
  8
LAYER_1
 10
-21.38619091283438
 20
59.62769819059545
 30
0.0
  0
VERTEX
  5
B89
  8
LAYER_1
 10
-21.39394152649331
 20
59.7118079902601
 30
0.0
  0
VERTEX
  5
B8A
  8
LAYER_1
 10
-21.41094261498617
 20
59.80235932056588
 30
0.0
  0
VERTEX
  5
B8B
  8
LAYER_1
 10
-21.47353532271435
 20
60.02450379632916
 30
0.0
  0
VERTEX
  5
B8C
  8
LAYER_1
 10
-21.56284950243756
 20
60.35319265853064
 30
0.0
  0
VERTEX
  5
B8D
  8
LAYER_1
 10
-21.59001919206575
 20
60.48847561094068
 30
0.0
  0
VERTEX
  5
B8E
  8
LAYER_1
 10
-21.59999787807465
 20
60.58007787814418
 30
0.0
  0
VERTEX
  5
B8F
  8
LAYER_1
 10
-21.60513561621389
 20
60.6156023024097
 30
0.0
  0
VERTEX
  5
B90
  8
LAYER_1
 10
-21.61986052121586
 20
60.65746374189047
 30
0.0
  0
VERTEX
  5
B91
  8
LAYER_1
 10
-21.6739419753132
 20
60.75403866508535
 30
0.0
  0
VERTEX
  5
B92
  8
LAYER_1
 10
-21.75398252737727
 20
60.85748464490392
 30
0.0
  0
VERTEX
  5
B93
  8
LAYER_1
 10
-21.85172246441865
 20
60.95548367852132
 30
0.0
  0
VERTEX
  5
B94
  8
LAYER_1
 10
-21.97448079172779
 20
61.07814169312351
 30
0.0
  0
VERTEX
  5
B95
  8
LAYER_1
 10
-22.12264072323377
 20
61.2487284627522
 30
0.0
  0
VERTEX
  5
B96
  8
LAYER_1
 10
-22.27753885890513
 20
61.44467175486604
 30
0.0
  0
VERTEX
  5
B97
  8
LAYER_1
 10
-22.42051179871043
 20
61.64339933692369
 30
0.0
  0
VERTEX
  5
B98
  8
LAYER_1
 10
-22.73757654665818
 20
62.11029788120442
 30
0.0
  0
VERTEX
  5
B99
  8
LAYER_1
 10
-23.16253725185449
 20
62.09416294760203
 30
0.0
  0
VERTEX
  5
B9A
  8
LAYER_1
 10
-23.34749765064685
 20
62.07988818038196
 30
0.0
  0
VERTEX
  5
B9B
  8
LAYER_1
 10
-23.53695785872785
 20
62.0529487100311
 30
0.0
  0
VERTEX
  5
B9C
  8
LAYER_1
 10
-23.70867526633376
 20
62.01720480318064
 30
0.0
  0
VERTEX
  5
B9D
  8
LAYER_1
 10
-23.84040726370089
 20
61.97651672646174
 30
0.0
  0
VERTEX
  5
B9E
  8
LAYER_1
 10
-23.95933711721872
 20
61.9371017968474
 30
0.0
  0
VERTEX
  5
B9F
  8
LAYER_1
 10
-24.09619720246272
 20
61.90482437963809
 30
0.0
  0
VERTEX
  5
BA0
  8
LAYER_1
 10
-24.23406857344807
 20
61.88301531395612
 30
0.0
  0
VERTEX
  5
BA1
  8
LAYER_1
 10
-24.35603228418999
 20
61.87500543892384
 30
0.0
  0
VERTEX
  5
BA2
  8
LAYER_1
 10
-24.50433128746371
 20
61.87963523467779
 30
0.0
  0
VERTEX
  5
BA3
  8
LAYER_1
 10
-24.54895669250624
 20
61.88939919681451
 30
0.0
  0
VERTEX
  5
BA4
  8
LAYER_1
 10
-24.57700056491571
 20
61.90766406174153
 30
0.0
  0
VERTEX
  5
BA5
  8
LAYER_1
 10
-24.59078880351449
 20
61.93708097442169
 30
0.0
  0
VERTEX
  5
BA6
  8
LAYER_1
 10
-24.59264730712494
 20
61.98030107981786
 30
0.0
  0
VERTEX
  5
BA7
  8
LAYER_1
 10
-24.56987870467032
 20
62.11875544860959
 30
0.0
  0
VERTEX
  5
BA8
  8
LAYER_1
 10
-24.49654828165195
 20
62.52177690541052
 30
0.0
  0
VERTEX
  5
BA9
  8
LAYER_1
 10
-24.47624597070894
 20
62.67717590613033
 30
0.0
  0
VERTEX
  5
BAA
  8
LAYER_1
 10
-24.46655713372885
 20
62.81002116332016
 30
0.0
  0
VERTEX
  5
BAB
  8
LAYER_1
 10
-24.46726042590076
 20
62.92645323317285
 30
0.0
  0
VERTEX
  5
BAC
  8
LAYER_1
 10
-24.47813450241377
 20
63.03261267188122
 30
0.0
  0
VERTEX
  5
BAD
  8
LAYER_1
 10
-24.49895801845697
 20
63.13464003563814
 30
0.0
  0
VERTEX
  5
BAE
  8
LAYER_1
 10
-24.52950962921945
 20
63.23867588063644
 30
0.0
  0
VERTEX
  5
BAF
  8
LAYER_1
 10
-24.5584009632485
 20
63.33357769311513
 30
0.0
  0
VERTEX
  5
BB0
  8
LAYER_1
 10
-24.57777726695934
 20
63.42036439964428
 30
0.0
  0
VERTEX
  5
BB1
  8
LAYER_1
 10
-24.58714182434938
 20
63.50652388304776
 30
0.0
  0
VERTEX
  5
BB2
  8
LAYER_1
 10
-24.58599791941604
 20
63.5995440261495
 30
0.0
  0
VERTEX
  5
BB3
  8
LAYER_1
 10
-24.57384883615676
 20
63.7069127117734
 30
0.0
  0
VERTEX
  5
BB4
  8
LAYER_1
 10
-24.55019785856896
 20
63.83611782274335
 30
0.0
  0
VERTEX
  5
BB5
  8
LAYER_1
 10
-24.46640335639745
 20
64.18998885201702
 30
0.0
  0
VERTEX
  5
BB6
  8
LAYER_1
 10
-24.31703127295206
 20
64.80902367417372
 30
0.0
  0
VERTEX
  5
BB7
  8
LAYER_1
 10
-24.27441323260525
 20
65.02260502392203
 30
0.0
  0
VERTEX
  5
BB8
  8
LAYER_1
 10
-24.25182302189493
 20
65.1872924243694
 30
0.0
  0
VERTEX
  5
BB9
  8
LAYER_1
 10
-24.24824751236052
 20
65.31438344420519
 30
0.0
  0
VERTEX
  5
BBA
  8
LAYER_1
 10
-24.26267357554146
 20
65.4151756521187
 30
0.0
  0
VERTEX
  5
BBB
  8
LAYER_1
 10
-24.29408808297715
 20
65.50096661679927
 30
0.0
  0
VERTEX
  5
BBC
  8
LAYER_1
 10
-24.34147790620705
 20
65.58305390693624
 30
0.0
  0
VERTEX
  5
BBD
  8
LAYER_1
 10
-24.40465656333565
 20
65.69159926865599
 30
0.0
  0
VERTEX
  5
BBE
  8
LAYER_1
 10
-24.42208896286368
 20
65.73639246996167
 30
0.0
  0
VERTEX
  5
BBF
  8
LAYER_1
 10
-24.43037488394175
 20
65.77800847983059
 30
0.0
  0
VERTEX
  5
BC0
  8
LAYER_1
 10
-24.4297329322505
 20
65.81880414446226
 30
0.0
  0
VERTEX
  5
BC1
  8
LAYER_1
 10
-24.42038171347061
 20
65.86113631005622
 30
0.0
  0
VERTEX
  5
BC2
  8
LAYER_1
 10
-24.37642589736753
 20
65.95983752892903
 30
0.0
  0
VERTEX
  5
BC3
  8
LAYER_1
 10
-24.35131764075444
 20
66.0150964914107
 30
0.0
  0
VERTEX
  5
BC4
  8
LAYER_1
 10
-24.33250962591043
 20
66.07523431135007
 30
0.0
  0
VERTEX
  5
BC5
  8
LAYER_1
 10
-24.31375787673768
 20
66.2099953523819
 30
0.0
  0
VERTEX
  5
BC6
  8
LAYER_1
 10
-24.32009776026547
 20
66.36381830958449
 30
0.0
  0
VERTEX
  5
BC7
  8
LAYER_1
 10
-24.35145638690997
 20
66.53640084051784
 30
0.0
  0
VERTEX
  5
BC8
  8
LAYER_1
 10
-24.40776086708738
 20
66.72744060274194
 30
0.0
  0
VERTEX
  5
BC9
  8
LAYER_1
 10
-24.48893831121385
 20
66.93663525381676
 30
0.0
  0
VERTEX
  5
BCA
  8
LAYER_1
 10
-24.59491582970559
 20
67.1636824513023
 30
0.0
  0
VERTEX
  5
BCB
  8
LAYER_1
 10
-24.72562053297877
 20
67.40827985275851
 30
0.0
  0
VERTEX
  5
BCC
  8
LAYER_1
 10
-24.89428382260542
 20
67.69250678654086
 30
0.0
  0
VERTEX
  5
BCD
  8
LAYER_1
 10
-25.06074229609892
 20
67.94185013622501
 30
0.0
  0
VERTEX
  5
BCE
  8
LAYER_1
 10
-25.22925667211468
 20
68.16060206911285
 30
0.0
  0
VERTEX
  5
BCF
  8
LAYER_1
 10
-25.40408766930818
 20
68.35305475250632
 30
0.0
  0
VERTEX
  5
BD0
  8
LAYER_1
 10
-25.58949600633485
 20
68.52350035370733
 30
0.0
  0
VERTEX
  5
BD1
  8
LAYER_1
 10
-25.78974240185016
 20
68.67623104001778
 30
0.0
  0
VERTEX
  5
BD2
  8
LAYER_1
 10
-26.00908757450953
 20
68.81553897873958
 30
0.0
  0
VERTEX
  5
BD3
  8
LAYER_1
 10
-26.25179224296844
 20
68.94571633717467
 30
0.0
  0
VERTEX
  5
BD4
  8
LAYER_1
 10
-26.80200950017314
 20
69.22904567268674
 30
0.0
  0
VERTEX
  5
BD5
  8
LAYER_1
 10
-27.33749810606241
 20
69.5192003345064
 30
0.0
  0
VERTEX
  5
BD6
  8
LAYER_1
 10
-27.57828909648311
 20
69.64363301522476
 30
0.0
  0
VERTEX
  5
BD7
  8
LAYER_1
 10
-27.80314835413252
 20
69.73583170411432
 30
0.0
  0
VERTEX
  5
BD8
  8
LAYER_1
 10
-28.01667266769089
 20
69.79608492621938
 30
0.0
  0
VERTEX
  5
BD9
  8
LAYER_1
 10
-28.12062071689852
 20
69.8143221513041
 30
0.0
  0
VERTEX
  5
BDA
  8
LAYER_1
 10
-28.22345882583848
 20
69.82468120658433
 30
0.0
  0
VERTEX
  5
BDB
  8
LAYER_1
 10
-28.32576159309583
 20
69.82719815769063
 30
0.0
  0
VERTEX
  5
BDC
  8
LAYER_1
 10
-28.42810361725557
 20
69.82190907025353
 30
0.0
  0
VERTEX
  5
BDD
  8
LAYER_1
 10
-28.63520383062242
 20
69.78805704227129
 30
0.0
  0
VERTEX
  5
BDE
  8
LAYER_1
 10
-28.84935625461928
 20
69.72341364768202
 30
0.0
  0
VERTEX
  5
BDF
  8
LAYER_1
 10
-29.07515767792642
 20
69.62826741153006
 30
0.0
  0
VERTEX
  5
BE0
  8
LAYER_1
 10
-29.3231459108332
 20
69.51756876903796
 30
0.0
  0
VERTEX
  5
BE1
  8
LAYER_1
 10
-29.4192620554311
 20
69.48665786153921
 30
0.0
  0
VERTEX
  5
BE2
  8
LAYER_1
 10
-29.51156622715655
 20
69.47063795609833
 30
0.0
  0
VERTEX
  5
BE3
  8
LAYER_1
 10
-29.61113843228292
 20
69.46845809738505
 30
0.0
  0
VERTEX
  5
BE4
  8
LAYER_1
 10
-29.72905867708364
 20
69.47906733006914
 30
0.0
  0
VERTEX
  5
BE5
  8
LAYER_1
 10
-30.06426331080163
 20
69.53444924830836
 30
0.0
  0
VERTEX
  5
BE6
  8
LAYER_1
 10
-30.33418343644566
 20
69.57404232542372
 30
0.0
  0
VERTEX
  5
BE7
  8
LAYER_1
 10
-30.64536048456882
 20
69.60576329831235
 30
0.0
  0
VERTEX
  5
BE8
  8
LAYER_1
 10
-30.9592976833666
 20
69.62638850213293
 30
0.0
  0
VERTEX
  5
BE9
  8
LAYER_1
 10
-31.23749826103449
 20
69.63269427204412
 30
0.0
  0
VERTEX
  5
BEA
  8
LAYER_1
 10
-31.43102488246175
 20
69.62970495651717
 30
0.0
  0
VERTEX
  5
BEB
  8
LAYER_1
 10
-31.5905149971213
 20
69.62131716384351
 30
0.0
  0
VERTEX
  5
BEC
  8
LAYER_1
 10
-31.73011698489195
 20
69.60336923090478
 30
0.0
  0
VERTEX
  5
BED
  8
LAYER_1
 10
-31.86397922565246
 20
69.57169949458266
 30
0.0
  0
VERTEX
  5
BEE
  8
LAYER_1
 10
-32.00625009928162
 20
69.52214629175879
 30
0.0
  0
VERTEX
  5
BEF
  8
LAYER_1
 10
-32.1710779856582
 20
69.4505479593148
 30
0.0
  0
VERTEX
  5
BF0
  8
LAYER_1
 10
-32.62499831616879
 20
69.2245692530932
 30
0.0
  0
VERTEX
  5
BF1
  8
LAYER_1
 10
-33.0436035129712
 20
68.99769154717451
 30
0.0
  0
VERTEX
  5
BF2
  8
LAYER_1
 10
-33.21830166214848
 20
68.89042622318884
 30
0.0
  0
VERTEX
  5
BF3
  8
LAYER_1
 10
-33.37944686038492
 20
68.78040933524056
 30
0.0
  0
VERTEX
  5
BF4
  8
LAYER_1
 10
-33.53417661908679
 20
68.66249044587087
 30
0.0
  0
VERTEX
  5
BF5
  8
LAYER_1
 10
-33.68962844966041
 20
68.53151911762093
 30
0.0
  0
VERTEX
  5
BF6
  8
LAYER_1
 10
-34.03124837204814
 20
68.20981739464517
 30
0.0
  0
VERTEX
  5
BF7
  8
LAYER_1
 10
-34.64999839663506
 20
67.59851539880722
 30
0.0
  0
VERTEX
  5
BF8
  8
LAYER_1
 10
-34.64999839663506
 20
67.48849837872655
 30
0.0
  0
VERTEX
  5
BF9
  8
LAYER_1
 10
-34.66638994943997
 20
67.42838296250218
 30
0.0
  0
VERTEX
  5
BFA
  8
LAYER_1
 10
-34.7110204149979
 20
67.34603054963162
 30
0.0
  0
VERTEX
  5
BFB
  8
LAYER_1
 10
-34.77707350402364
 20
67.25228583146881
 30
0.0
  0
VERTEX
  5
BFC
  8
LAYER_1
 10
-34.85773292723196
 20
67.1579934993677
 30
0.0
  0
VERTEX
  5
BFD
  8
LAYER_1
 10
-35.05990345432447
 20
66.92835172815921
 30
0.0
  0
VERTEX
  5
BFE
  8
LAYER_1
 10
-35.22713626355657
 20
66.70267314413017
 30
0.0
  0
VERTEX
  5
BFF
  8
LAYER_1
 10
-35.29850887745945
 20
66.58900307376274
 30
0.0
  0
VERTEX
  5
C00
  8
LAYER_1
 10
-35.36217648607858
 20
66.4735434319359
 30
0.0
  0
VERTEX
  5
C01
  8
LAYER_1
 10
-35.41848223080777
 20
66.35536742923155
 30
0.0
  0
VERTEX
  5
C02
  8
LAYER_1
 10
-35.4677692530408
 20
66.23354827623163
 30
0.0
  0
VERTEX
  5
C03
  8
LAYER_1
 10
-35.51038069417147
 20
66.10715918351804
 30
0.0
  0
VERTEX
  5
C04
  8
LAYER_1
 10
-35.54665969559355
 20
65.97527336167269
 30
0.0
  0
VERTEX
  5
C05
  8
LAYER_1
 10
-35.60159294488716
 20
65.69130437291435
 30
0.0
  0
VERTEX
  5
C06
  8
LAYER_1
 10
-35.63531413207194
 20
65.37422699461189
 30
0.0
  0
VERTEX
  5
C07
  8
LAYER_1
 10
-35.6505683882982
 20
65.01662691142059
 30
0.0
  0
VERTEX
  5
C08
  8
LAYER_1
 10
-35.66249843686819
 20
64.36243170473094
 30
0.0
  0
VERTEX
  5
C09
  8
LAYER_1
 10
-35.72030311820083
 20
64.30466393991702
 30
0.0
  0
VERTEX
  5
C0A
  8
LAYER_1
 10
-35.7360927230136
 20
64.297717403642
 30
0.0
  0
VERTEX
  5
C0B
  8
LAYER_1
 10
-35.75889933293617
 20
64.30024094650662
 30
0.0
  0
VERTEX
  5
C0C
  8
LAYER_1
 10
-35.82125692731459
 20
64.3309019618785
 30
0.0
  0
VERTEX
  5
C0D
  8
LAYER_1
 10
-35.89876261974384
 20
64.39105437048002
 30
0.0
  0
VERTEX
  5
C0E
  8
LAYER_1
 10
-35.98280312863164
 20
64.47510555675859
 30
0.0
  0
VERTEX
  5
C0F
  8
LAYER_1
 10
-36.10795174702835
 20
64.5874985731856
 30
0.0
  0
VERTEX
  5
C10
  8
LAYER_1
 10
-36.30248782782851
 20
64.72958081211
 30
0.0
  0
VERTEX
  5
C11
  8
LAYER_1
 10
-36.54764428820496
 20
64.89032138456668
 30
0.0
  0
VERTEX
  5
C12
  8
LAYER_1
 10
-36.82465404533055
 20
65.05868940159054
 30
0.0
  0
VERTEX
  5
C13
  8
LAYER_1
 10
-37.11475001637812
 20
65.2236539742165
 30
0.0
  0
VERTEX
  5
C14
  8
LAYER_1
 10
-37.39916511852051
 20
65.37418421347945
 30
0.0
  0
VERTEX
  5
C15
  8
LAYER_1
 10
-37.65913226893058
 20
65.49924923041429
 30
0.0
  0
VERTEX
  5
C16
  8
LAYER_1
 10
-37.87588438478115
 20
65.58781813605592
 30
0.0
  0
VERTEX
  5
C17
  8
LAYER_1
 10
-38.01996890311788
 20
65.63081768241145
 30
0.0
  0
VERTEX
  5
C18
  8
LAYER_1
 10
-38.17663497440008
 20
65.66312454840426
 30
0.0
  0
VERTEX
  5
C19
  8
LAYER_1
 10
-38.34428725182227
 20
65.68498759445075
 30
0.0
  0
VERTEX
  5
C1A
  8
LAYER_1
 10
-38.52133038857895
 20
65.69665568096735
 30
0.0
  0
VERTEX
  5
C1B
  8
LAYER_1
 10
-38.70616903786463
 20
65.69837766837051
 30
0.0
  0
VERTEX
  5
C1C
  8
LAYER_1
 10
-38.89720785287383
 20
65.69040241707665
 30
0.0
  0
VERTEX
  5
C1D
  8
LAYER_1
 10
-39.09285148680106
 20
65.67297878750222
 30
0.0
  0
VERTEX
  5
C1E
  8
LAYER_1
 10
-39.29150459284082
 20
65.64635564006362
 30
0.0
  0
VERTEX
  5
C1F
  8
LAYER_1
 10
-39.49157182418762
 20
65.61078183517729
 30
0.0
  0
VERTEX
  5
C20
  8
LAYER_1
 10
-39.69145783403597
 20
65.56650623325972
 30
0.0
  0
VERTEX
  5
C21
  8
LAYER_1
 10
-39.88956727558038
 20
65.51377769472728
 30
0.0
  0
VERTEX
  5
C22
  8
LAYER_1
 10
-40.08430480201537
 20
65.45284507999645
 30
0.0
  0
VERTEX
  5
C23
  8
LAYER_1
 10
-40.27407506653543
 20
65.38395724948361
 30
0.0
  0
VERTEX
  5
C24
  8
LAYER_1
 10
-40.4572827223351
 20
65.30736306360527
 30
0.0
  0
VERTEX
  5
C25
  8
LAYER_1
 10
-40.63233242260886
 20
65.2233113827778
 30
0.0
  0
VERTEX
  5
C26
  8
LAYER_1
 10
-40.79762882055123
 20
65.13205106741765
 30
0.0
  0
VERTEX
  5
C27
  8
LAYER_1
 10
-41.35775902244011
 20
64.8000055551529
 30
0.0
  0
VERTEX
  5
C28
  8
LAYER_1
 10
-41.44124775250691
 20
64.8000055551529
 30
0.0
  0
VERTEX
  5
C29
  8
LAYER_1
 10
-41.46474222978999
 20
64.80711857121159
 30
0.0
  0
VERTEX
  5
C2A
  8
LAYER_1
 10
-41.49447824842564
 20
64.82775312638006
 30
0.0
  0
VERTEX
  5
C2B
  8
LAYER_1
 10
-41.56993653724015
 20
64.90535989600068
 30
0.0
  0
VERTEX
  5
C2C
  8
LAYER_1
 10
-41.66214587392141
 20
65.02437194792346
 30
0.0
  0
VERTEX
  5
C2D
  8
LAYER_1
 10
-41.76562951344039
 20
65.17633536605707
 30
0.0
  0
VERTEX
  5
C2E
  8
LAYER_1
 10
-41.87491071076805
 20
65.35279623431023
 30
0.0
  0
VERTEX
  5
C2F
  8
LAYER_1
 10
-41.98451272087538
 20
65.54530063659166
 30
0.0
  0
VERTEX
  5
C30
  8
LAYER_1
 10
-42.08895879873334
 20
65.74539465681002
 30
0.0
  0
VERTEX
  5
C31
  8
LAYER_1
 10
-42.18277219931289
 20
65.94462437887401
 30
0.0
  0
VERTEX
  5
C32
  8
LAYER_1
 10
-42.25700739426628
 20
66.0996294819556
 30
0.0
  0
VERTEX
  5
C33
  8
LAYER_1
 10
-42.3373551136909
 20
66.23723270359412
 30
0.0
  0
VERTEX
  5
C34
  8
LAYER_1
 10
-42.43029331223666
 20
66.3638083208117
 30
0.0
  0
VERTEX
  5
C35
  8
LAYER_1
 10
-42.54229994455341
 20
66.48573061063055
 30
0.0
  0
VERTEX
  5
C36
  8
LAYER_1
 10
-42.67985296529104
 20
66.60937385007284
 30
0.0
  0
VERTEX
  5
C37
  8
LAYER_1
 10
-42.84943032909942
 20
66.74111231616074
 30
0.0
  0
VERTEX
  5
C38
  8
LAYER_1
 10
-43.31056990452797
 20
67.05437203636208
 30
0.0
  0
VERTEX
  5
C39
  8
LAYER_1
 10
-43.55212393458223
 20
67.22328746534782
 30
0.0
  0
VERTEX
  5
C3A
  8
LAYER_1
 10
-43.65144764353792
 20
67.30456010543038
 30
0.0
  0
VERTEX
  5
C3B
  8
LAYER_1
 10
-43.73937662888616
 20
67.38662495131256
 30
0.0
  0
VERTEX
  5
C3C
  8
LAYER_1
 10
-43.81809150095711
 20
67.47166869454917
 30
0.0
  0
VERTEX
  5
C3D
  8
LAYER_1
 10
-43.88977287008088
 20
67.5618780266951
 30
0.0
  0
VERTEX
  5
C3E
  8
LAYER_1
 10
-44.02075754080744
 20
67.76654022393427
 30
0.0
  0
VERTEX
  5
C3F
  8
LAYER_1
 10
-44.13611747847069
 20
67.9595348556918
 30
0.0
  0
VERTEX
  5
C40
  8
LAYER_1
 10
-44.24830123360734
 20
68.12250708048458
 30
0.0
  0
VERTEX
  5
C41
  8
LAYER_1
 10
-44.35984605359286
 20
68.25759674968884
 30
0.0
  0
VERTEX
  5
C42
  8
LAYER_1
 10
-44.47328918580278
 20
68.36694371468079
 30
0.0
  0
VERTEX
  5
C43
  8
LAYER_1
 10
-44.59116787761261
 20
68.45268782683664
 30
0.0
  0
VERTEX
  5
C44
  8
LAYER_1
 10
-44.71601937639783
 20
68.51696893753261
 30
0.0
  0
VERTEX
  5
C45
  8
LAYER_1
 10
-44.85038092953397
 20
68.56192689814493
 30
0.0
  0
VERTEX
  5
C46
  8
LAYER_1
 10
-44.99678978439653
 20
68.5897015600498
 30
0.0
  0
VERTEX
  5
C47
  8
LAYER_1
 10
-45.1541649156222
 20
68.61873916844851
 30
0.0
  0
VERTEX
  5
C48
  8
LAYER_1
 10
-45.33079830787864
 20
68.6651088336514
 30
0.0
  0
VERTEX
  5
C49
  8
LAYER_1
 10
-45.50507939222545
 20
68.72242519894189
 30
0.0
  0
VERTEX
  5
C4A
  8
LAYER_1
 10
-45.65539759972228
 20
68.78430290760335
 30
0.0
  0
VERTEX
  5
C4B
  8
LAYER_1
 10
-45.83833660796843
 20
68.85876825349631
 30
0.0
  0
VERTEX
  5
C4C
  8
LAYER_1
 10
-46.0477489057001
 20
68.92256297419661
 30
0.0
  0
VERTEX
  5
C4D
  8
LAYER_1
 10
-46.27943515614817
 20
68.9751214885087
 30
0.0
  0
VERTEX
  5
C4E
  8
LAYER_1
 10
-46.5291960225435
 20
69.01587821523702
 30
0.0
  0
VERTEX
  5
C4F
  8
LAYER_1
 10
-46.79283216811699
 20
69.044267573186
 30
0.0
  0
VERTEX
  5
C50
  8
LAYER_1
 10
-47.06614425609952
 20
69.05972398116006
 30
0.0
  0
VERTEX
  5
C51
  8
LAYER_1
 10
-47.34493294972198
 20
69.06168185796369
 30
0.0
  0
VERTEX
  5
C52
  8
LAYER_1
 10
-47.62499891221523
 20
69.0495756224013
 30
0.0
  0
VERTEX
  5
C53
  8
LAYER_1
 10
-47.92813963475031
 20
69.02446681896373
 30
0.0
  0
VERTEX
  5
C54
  8
LAYER_1
 10
-48.18451926046474
 20
68.99294937226344
 30
0.0
  0
VERTEX
  5
C55
  8
LAYER_1
 10
-48.40175296313464
 20
68.95242773991103
 30
0.0
  0
VERTEX
  5
C56
  8
LAYER_1
 10
-48.58745591653614
 20
68.9003063795171
 30
0.0
  0
VERTEX
  5
C57
  8
LAYER_1
 10
-48.74924329444535
 20
68.83398974869223
 30
0.0
  0
VERTEX
  5
C58
  8
LAYER_1
 10
-48.89473027063841
 20
68.75088230504704
 30
0.0
  0
VERTEX
  5
C59
  8
LAYER_1
 10
-49.0315320188914
 20
68.6483885061921
 30
0.0
  0
VERTEX
  5
C5A
  8
LAYER_1
 10
-49.16726371298047
 20
68.52391280973802
 30
0.0
  0
VERTEX
  5
C5B
  8
LAYER_1
 10
-49.48024549926635
 20
68.22515445413795
 30
0.0
  0
VERTEX
  5
C5C
  8
LAYER_1
 10
-49.79093754228875
 20
67.94415819180122
 30
0.0
  0
VERTEX
  5
C5D
  8
LAYER_1
 10
-49.92643999201375
 20
67.81494931320194
 30
0.0
  0
VERTEX
  5
C5E
  8
LAYER_1
 10
-50.02298969447664
 20
67.696371318653
 30
0.0
  0
VERTEX
  5
C5F
  8
LAYER_1
 10
-50.08077868791412
 20
67.58814199975359
 30
0.0
  0
VERTEX
  5
C60
  8
LAYER_1
 10
-50.0951979306973
 20
67.53781990354724
 30
0.0
  0
VERTEX
  5
C61
  8
LAYER_1
 10
-50.0999990105629
 20
67.48997914810298
 30
0.0
  0
VERTEX
  5
C62
  8
LAYER_1
 10
-50.11479393302579
 20
67.39777085468323
 30
0.0
  0
VERTEX
  5
C63
  8
LAYER_1
 10
-50.1550771377515
 20
67.28408141922947
 30
0.0
  0
VERTEX
  5
C64
  8
LAYER_1
 10
-50.21469628074556
 20
67.16334747232668
 30
0.0
  0
VERTEX
  5
C65
  8
LAYER_1
 10
-50.28749901801348
 20
67.05000564455986
 30
0.0
  0
VERTEX
  5
C66
  8
LAYER_1
 10
-50.41992089827545
 20
66.84918782403324
 30
0.0
  0
VERTEX
  5
C67
  8
LAYER_1
 10
-50.46020410300116
 20
66.77149835489912
 30
0.0
  0
VERTEX
  5
C68
  8
LAYER_1
 10
-50.47499902546406
 20
66.72325070831198
 30
0.0
  0
VERTEX
  5
C69
  8
LAYER_1
 10
-50.49455073227091
 20
66.6611710798287
 30
0.0
  0
VERTEX
  5
C6A
  8
LAYER_1
 10
-50.54662771261039
 20
66.55770526835025
 30
0.0
  0
VERTEX
  5
C6B
  8
LAYER_1
 10
-50.70888865340086
 20
66.28784402807037
 30
0.0
  0
VERTEX
  5
C6C
  8
LAYER_1
 10
-50.88284416686263
 20
66.03612485079739
 30
0.0
  0
VERTEX
  5
C6D
  8
LAYER_1
 10
-50.94953936304125
 20
65.95533661807757
 30
0.0
  0
VERTEX
  5
C6E
  8
LAYER_1
 10
-50.98955657202288
 20
65.92500559985638
 30
0.0
  0
VERTEX
  5
C6F
  8
LAYER_1
 10
-51.01614544893048
 20
65.94933731300392
 30
0.0
  0
VERTEX
  5
C70
  8
LAYER_1
 10
-51.0523771325937
 20
66.01558702701954
 30
0.0
  0
VERTEX
  5
C71
  8
LAYER_1
 10
-51.09348855766523
 20
66.11363660376264
 30
0.0
  0
VERTEX
  5
C72
  8
LAYER_1
 10
-51.13471665879778
 20
66.23336790509268
 30
0.0
  0
VERTEX
  5
C73
  8
LAYER_1
 10
-51.18664451187662
 20
66.37452602550894
 30
0.0
  0
VERTEX
  5
C74
  8
LAYER_1
 10
-51.25688892492073
 20
66.53091595124921
 30
0.0
  0
VERTEX
  5
C75
  8
LAYER_1
 10
-51.33623743078336
 20
66.68350938178064
 30
0.0
  0
VERTEX
  5
C76
  8
LAYER_1
 10
-51.41547756231776
 20
66.81327801657037
 30
0.0
  0
VERTEX
  5
C77
  8
LAYER_1
 10
-51.50749017667886
 20
66.9694442448691
 30
0.0
  0
VERTEX
  5
C78
  8
LAYER_1
 10
-51.53967499645208
 20
67.04652308742213
 30
0.0
  0
VERTEX
  5
C79
  8
LAYER_1
 10
-51.5638993195845
 20
67.1281267042764
 30
0.0
  0
VERTEX
  5
C7A
  8
LAYER_1
 10
-51.58110351729919
 20
67.21815081195597
 30
0.0
  0
VERTEX
  5
C7B
  8
LAYER_1
 10
-51.59222796081921
 20
67.32049112698492
 30
0.0
  0
VERTEX
  5
C7C
  8
LAYER_1
 10
-51.59999907016754
 20
67.57770324518734
 30
0.0
  0
VERTEX
  5
C7D
  8
LAYER_1
 10
-51.60611775658514
 20
67.85431349208882
 30
0.0
  0
VERTEX
  5
C7E
  8
LAYER_1
 10
-51.61718449805255
 20
67.9516022259395
 30
0.0
  0
VERTEX
  5
C7F
  8
LAYER_1
 10
-51.63662806808829
 20
68.03051103968842
 30
0.0
  0
VERTEX
  5
C80
  8
LAYER_1
 10
-51.66672738898929
 20
68.09776318805932
 30
0.0
  0
VERTEX
  5
C81
  8
LAYER_1
 10
-51.70976138305249
 20
68.1600819257759
 30
0.0
  0
VERTEX
  5
C82
  8
LAYER_1
 10
-51.8437490798533
 20
68.29681218814102
 30
0.0
  0
VERTEX
  5
C83
  8
LAYER_1
 10
-51.98277740569029
 20
68.40448452449458
 30
0.0
  0
VERTEX
  5
C84
  8
LAYER_1
 10
-52.18113190575968
 20
68.5304140452081
 30
0.0
  0
VERTEX
  5
C85
  8
LAYER_1
 10
-52.41235750088526
 20
68.65893102447629
 30
0.0
  0
VERTEX
  5
C86
  8
LAYER_1
 10
-52.64999911189079
 20
68.77436573649379
 30
0.0
  0
VERTEX
  5
C87
  8
LAYER_1
 10
-53.12677269992934
 20
69.00148158936517
 30
0.0
  0
VERTEX
  5
C88
  8
LAYER_1
 10
-53.33368543786131
 20
69.10918721051851
 30
0.0
  0
VERTEX
  5
C89
  8
LAYER_1
 10
-53.4831644865919
 20
69.19460579237227
 30
0.0
  0
VERTEX
  5
C8A
  8
LAYER_1
 10
-53.6228010003247
 20
69.27373740536441
 30
0.0
  0
VERTEX
  5
C8B
  8
LAYER_1
 10
-53.77013907282697
 20
69.34250482790281
 30
0.0
  0
VERTEX
  5
C8C
  8
LAYER_1
 10
-53.92167799232021
 20
69.4000074774589
 30
0.0
  0
VERTEX
  5
C8D
  8
LAYER_1
 10
-54.07391704702589
 20
69.4453447715041
 30
0.0
  0
VERTEX
  5
C8E
  8
LAYER_1
 10
-54.22335552516553
 20
69.4776161275098
 30
0.0
  0
VERTEX
  5
C8F
  8
LAYER_1
 10
-54.3664927149606
 20
69.49592096294745
 30
0.0
  0
VERTEX
  5
C90
  8
LAYER_1
 10
-54.4998279046326
 20
69.49935869528844
 30
0.0
  0
VERTEX
  5
C91
  8
LAYER_1
 10
-54.61986038240303
 20
69.48702874200418
 30
0.0
  0
VERTEX
  5
C92
  8
LAYER_1
 10
-54.75244206259148
 20
69.47849450148705
 30
0.0
  0
VERTEX
  5
C93
  8
LAYER_1
 10
-54.91494953936703
 20
69.49451248510391
 30
0.0
  0
VERTEX
  5
C94
  8
LAYER_1
 10
-55.10131996740608
 20
69.53411609363708
 30
0.0
  0
VERTEX
  5
C95
  8
LAYER_1
 10
-55.30549050138502
 20
69.5963387278689
 30
0.0
  0
VERTEX
  5
C96
  8
LAYER_1
 10
-55.48342283656132
 20
69.65232971830713
 30
0.0
  0
VERTEX
  5
C97
  8
LAYER_1
 10
-55.65669871904694
 20
69.69529845828842
 30
0.0
  0
VERTEX
  5
C98
  8
LAYER_1
 10
-55.82502539729389
 20
69.7252260876655
 30
0.0
  0
VERTEX
  5
C99
  8
LAYER_1
 10
-55.98811011975415
 20
69.74209374629119
 30
0.0
  0
VERTEX
  5
C9A
  8
LAYER_1
 10
-56.1456601348797
 20
69.74588257401822
 30
0.0
  0
VERTEX
  5
C9B
  8
LAYER_1
 10
-56.29738269112253
 20
69.73657371069942
 30
0.0
  0
VERTEX
  5
C9C
  8
LAYER_1
 10
-56.44298503693462
 20
69.71414829618753
 30
0.0
  0
VERTEX
  5
C9D
  8
LAYER_1
 10
-56.58217442076796
 20
69.67858747033532
 30
0.0
  0
VERTEX
  5
C9E
  8
LAYER_1
 10
-56.91007573225508
 20
69.59153187146461
 30
0.0
  0
VERTEX
  5
C9F
  8
LAYER_1
 10
-57.37499929964542
 20
69.48251748651703
 30
0.0
  0
VERTEX
  5
CA0
  8
LAYER_1
 10
-57.81956822301035
 20
69.36946058872758
 30
0.0
  0
VERTEX
  5
CA1
  8
LAYER_1
 10
-57.99162112444721
 20
69.31559536273656
 30
0.0
  0
VERTEX
  5
CA2
  8
LAYER_1
 10
-58.09853177332997
 20
69.27268575685409
 30
0.0
  0
VERTEX
  5
CA3
  8
LAYER_1
 10
-58.25723310405791
 20
69.17325985370368
 30
0.0
  0
VERTEX
  5
CA4
  8
LAYER_1
 10
-58.45498818065913
 20
69.0253946494645
 30
0.0
  0
VERTEX
  5
CA5
  8
LAYER_1
 10
-58.67930983480294
 20
68.84046019158055
 30
0.0
  0
VERTEX
  5
CA6
  8
LAYER_1
 10
-58.91771089815869
 20
68.62982652749588
 30
0.0
  0
VERTEX
  5
CA7
  8
LAYER_1
 10
-59.15770420239569
 20
68.40486370465455
 30
0.0
  0
VERTEX
  5
CA8
  8
LAYER_1
 10
-59.3868025791833
 20
68.17694177050058
 30
0.0
  0
VERTEX
  5
CA9
  8
LAYER_1
 10
-59.59251886019082
 20
67.95743077247803
 30
0.0
  0
VERTEX
  5
CAA
  8
LAYER_1
 10
-59.7623658770876
 20
67.75770075803098
 30
0.0
  0
VERTEX
  5
CAB
  8
LAYER_1
 10
-59.89915972846246
 20
67.56768174093642
 30
0.0
  0
VERTEX
  5
CAC
  8
LAYER_1
 10
-59.95007454551748
 20
67.47764961249175
 30
0.0
  0
VERTEX
  5
CAD
  8
LAYER_1
 10
-59.99190279260229
 20
67.38440216633417
 30
0.0
  0
VERTEX
  5
CAE
  8
LAYER_1
 10
-60.02657059655542
 20
67.28303922412763
 30
0.0
  0
VERTEX
  5
CAF
  8
LAYER_1
 10
-60.0560040842154
 20
67.16866060753617
 30
0.0
  0
VERTEX
  5
CB0
  8
LAYER_1
 10
-60.10687261801009
 20
66.88125563785434
 30
0.0
  0
VERTEX
  5
CB1
  8
LAYER_1
 10
-60.13422146063796
 20
66.74293466047433
 30
0.0
  0
VERTEX
  5
CB2
  8
LAYER_1
 10
-60.17001115781963
 20
66.62966978822116
 30
0.0
  0
VERTEX
  5
CB3
  8
LAYER_1
 10
-60.20959965091625
 20
66.5531487184069
 30
0.0
  0
VERTEX
  5
CB4
  8
LAYER_1
 10
-60.22936780260803
 20
66.53231951482438
 30
0.0
  0
VERTEX
  5
CB5
  8
LAYER_1
 10
-60.24834488128899
 20
66.52505914834362
 30
0.0
  0
VERTEX
  5
CB6
  8
LAYER_1
 10
-60.3374994173646
 20
66.52511267298897
 30
0.0
  0
VERTEX
  5
CB7
  8
LAYER_1
 10
-61.01249944418669
 20
66.70629424907776
 30
0.0
  0
VERTEX
  5
CB8
  8
LAYER_1
 10
-61.35475044823454
 20
66.79386374404487
 30
0.0
  0
VERTEX
  5
CB9
  8
LAYER_1
 10
-61.67970508063307
 20
66.86848916994964
 30
0.0
  0
VERTEX
  5
CBA
  8
LAYER_1
 10
-61.98366802320412
 20
66.92961612153304
 30
0.0
  0
VERTEX
  5
CBB
  8
LAYER_1
 10
-62.26294395776954
 20
66.97669019353606
 30
0.0
  0
VERTEX
  5
CBC
  8
LAYER_1
 10
-62.51383756615121
 20
67.00915698069964
 30
0.0
  0
VERTEX
  5
CBD
  8
LAYER_1
 10
-62.73265353017096
 20
67.02646207776479
 30
0.0
  0
VERTEX
  5
CBE
  8
LAYER_1
 10
-62.91569653165067
 20
67.02805107947249
 30
0.0
  0
VERTEX
  5
CBF
  8
LAYER_1
 10
-63.0592712524122
 20
67.0133695805637
 30
0.0
  0
VERTEX
  5
CC0
  8
LAYER_1
 10
-63.20184273514031
 20
66.97684945621114
 30
0.0
  0
VERTEX
  5
CC1
  8
LAYER_1
 10
-63.38640656618936
 20
66.91561391372335
 30
0.0
  0
VERTEX
  5
CC2
  8
LAYER_1
 10
-63.58911324219252
 20
66.83820139665093
 30
0.0
  0
VERTEX
  5
CC3
  8
LAYER_1
 10
-63.78611325978294
 20
66.7531503485445
 30
0.0
  0
VERTEX
  5
CC4
  8
LAYER_1
 10
-64.0028038843503
 20
66.65949013553382
 30
0.0
  0
VERTEX
  5
CC5
  8
LAYER_1
 10
-64.2591235991521
 20
66.55863682292998
 30
0.0
  0
VERTEX
  5
CC6
  8
LAYER_1
 10
-64.52303472762318
 20
66.46270890305571
 30
0.0
  0
VERTEX
  5
CC7
  8
LAYER_1
 10
-64.7624995931983
 20
66.38382486823369
 30
0.0
  0
VERTEX
  5
CC8
  8
LAYER_1
 10
-65.08291151648571
 20
66.27493441889374
 30
0.0
  0
VERTEX
  5
CC9
  8
LAYER_1
 10
-65.37706519826119
 20
66.15224847985687
 30
0.0
  0
VERTEX
  5
CCA
  8
LAYER_1
 10
-65.6461772427889
 20
66.01493023446771
 30
0.0
  0
VERTEX
  5
CCB
  8
LAYER_1
 10
-65.89146425433285
 20
65.86214286607088
 30
0.0
  0
VERTEX
  5
CCC
  8
LAYER_1
 10
-66.11414283715717
 20
65.69304955801101
 30
0.0
  0
VERTEX
  5
CCD
  8
LAYER_1
 10
-66.31542959552598
 20
65.50681349363278
 30
0.0
  0
VERTEX
  5
CCE
  8
LAYER_1
 10
-66.49654113370335
 20
65.30259785628077
 30
0.0
  0
VERTEX
  5
CCF
  8
LAYER_1
 10
-66.65869405595336
 20
65.07956582929964
 30
0.0
  0
VERTEX
  5
CD0
  8
LAYER_1
 10
-66.84669427731757
 20
64.81278508141344
 30
0.0
  0
VERTEX
  5
CD1
  8
LAYER_1
 10
-67.01249968260527
 20
64.60646528347107
 30
0.0
  0
VERTEX
  5
CD2
  8
LAYER_1
 10
-67.07912864246975
 20
64.51424460663594
 30
0.0
  0
VERTEX
  5
CD3
  8
LAYER_1
 10
-67.14965922185304
 20
64.38383898932787
 30
0.0
  0
VERTEX
  5
CD4
  8
LAYER_1
 10
-67.2156819778159
 20
64.23259351352716
 30
0.0
  0
VERTEX
  5
CD5
  8
LAYER_1
 10
-67.26878746741914
 20
64.07785326121413
 30
0.0
  0
VERTEX
  5
CD6
  8
LAYER_1
 10
-67.32510530754531
 20
63.91232370450047
 30
0.0
  0
VERTEX
  5
CD7
  8
LAYER_1
 10
-67.39987456245674
 20
63.73170140978717
 30
0.0
  0
VERTEX
  5
CD8
  8
LAYER_1
 10
-67.4833499602839
 20
63.55781810048847
 30
0.0
  0
VERTEX
  5
CD9
  8
LAYER_1
 10
-67.56578622915724
 20
63.4125055000186
 30
0.0
  0
VERTEX
  5
CDA
  8
LAYER_1
 10
-67.80554121931675
 20
62.99133360828273
 30
0.0
  0
VERTEX
  5
CDB
  8
LAYER_1
 10
-68.1141665175643
 20
62.40000545978546
 30
0.0
  0
VERTEX
  5
CDC
  8
LAYER_1
 10
-68.47183582308669
 20
61.68750543147326
 30
0.0
  0
VERTEX
  5
CDD
  8
LAYER_1
 10
-68.47341778190325
 20
61.45951282946939
 30
0.0
  0
VERTEX
  5
CDE
  8
LAYER_1
 10
-68.4646474376904
 20
61.33571589735802
 30
0.0
  0
VERTEX
  5
CDF
  8
LAYER_1
 10
-68.43959835196094
 20
61.16718462326382
 30
0.0
  0
VERTEX
  5
CE0
  8
LAYER_1
 10
-68.40212111911401
 20
60.97606744556688
 30
0.0
  0
VERTEX
  5
CE1
  8
LAYER_1
 10
-68.35606633354874
 20
60.7845128026473
 30
0.0
  0
VERTEX
  5
CE2
  8
LAYER_1
 10
-68.30359041798326
 20
60.54527613213544
 30
0.0
  0
VERTEX
  5
CE3
  8
LAYER_1
 10
-68.27480631565653
 20
60.30250853821742
 30
0.0
  0
VERTEX
  5
CE4
  8
LAYER_1
 10
-68.26851150190794
 20
60.03884943333065
 30
0.0
  0
VERTEX
  5
CE5
  8
LAYER_1
 10
-68.28350345207681
 20
59.73693822991257
 30
0.0
  0
VERTEX
  5
CE6
  8
LAYER_1
 10
-68.29810053889234
 20
59.49809852646041
 30
0.0
  0
VERTEX
  5
CE7
  8
LAYER_1
 10
-68.29957833398308
 20
59.29407996253181
 30
0.0
  0
VERTEX
  5
CE8
  8
LAYER_1
 10
-68.28474358759425
 20
59.11295739243806
 30
0.0
  0
VERTEX
  5
CE9
  8
LAYER_1
 10
-68.25040304997108
 20
58.94280567049049
 30
0.0
  0
VERTEX
  5
CEA
  8
LAYER_1
 10
-68.19336347135884
 20
58.77169965100037
 30
0.0
  0
VERTEX
  5
CEB
  8
LAYER_1
 10
-68.11043160200273
 20
58.58771418827902
 30
0.0
  0
VERTEX
  5
CEC
  8
LAYER_1
 10
-67.998414192148
 20
58.37892413663774
 30
0.0
  0
VERTEX
  5
CED
  8
LAYER_1
 10
-67.8541179920399
 20
58.13340435038782
 30
0.0
  0
VERTEX
  5
CEE
  8
LAYER_1
 10
-67.6692122013711
 20
57.83247978012039
 30
0.0
  0
VERTEX
  5
CEF
  8
LAYER_1
 10
-67.50619945523573
 20
57.58034685959185
 30
0.0
  0
VERTEX
  5
CF0
  8
LAYER_1
 10
-67.36189380258777
 20
57.37317604403985
 30
0.0
  0
VERTEX
  5
CF1
  8
LAYER_1
 10
-67.23310929238113
 20
57.20713778870206
 30
0.0
  0
VERTEX
  5
CF2
  8
LAYER_1
 10
-67.11665997356974
 20
57.07840254881614
 30
0.0
  0
VERTEX
  5
CF3
  8
LAYER_1
 10
-67.00935989510752
 20
56.98314077961978
 30
0.0
  0
VERTEX
  5
CF4
  8
LAYER_1
 10
-66.90802310594839
 20
56.91752293635063
 30
0.0
  0
VERTEX
  5
CF5
  8
LAYER_1
 10
-66.8094636550463
 20
56.87771947424636
 30
0.0
  0
VERTEX
  5
CF6
  8
LAYER_1
 10
-66.74933006207281
 20
56.85639039974768
 30
0.0
  0
VERTEX
  5
CF7
  8
LAYER_1
 10
-66.6897812954308
 20
56.82711214157496
 30
0.0
  0
VERTEX
  5
CF8
  8
LAYER_1
 10
-66.57296451812559
 20
56.74515339394647
 30
0.0
  0
VERTEX
  5
CF9
  8
LAYER_1
 10
-66.46006587709925
 20
56.63273387083891
 30
0.0
  0
VERTEX
  5
CFA
  8
LAYER_1
 10
-66.35213792632042
 20
56.49074421173032
 30
0.0
  0
VERTEX
  5
CFB
  8
LAYER_1
 10
-66.26891741164914
 20
56.38567061051386
 30
0.0
  0
VERTEX
  5
CFC
  8
LAYER_1
 10
-66.16199327388696
 20
56.27901750711197
 30
0.0
  0
VERTEX
  5
CFD
  8
LAYER_1
 10
-66.03858508398807
 20
56.17558982759068
 30
0.0
  0
VERTEX
  5
CFE
  8
LAYER_1
 10
-65.9059124129067
 20
56.08019249801607
 30
0.0
  0
VERTEX
  5
CFF
  8
LAYER_1
 10
-65.77119483159706
 20
55.99763044445417
 30
0.0
  0
VERTEX
  5
D00
  8
LAYER_1
 10
-65.64165191101335
 20
55.93270859297103
 30
0.0
  0
VERTEX
  5
D01
  8
LAYER_1
 10
-65.52450322210981
 20
55.89023186963271
 30
0.0
  0
VERTEX
  5
D02
  8
LAYER_1
 10
-65.42696833584063
 20
55.87500520050526
 30
0.0
  0
VERTEX
  5
D03
  8
LAYER_1
 10
-65.39000454042846
 20
55.86097614712147
 30
0.0
  0
VERTEX
  5
D04
  8
LAYER_1
 10
-65.33095043062202
 20
55.82277822949234
 30
0.0
  0
VERTEX
  5
D05
  8
LAYER_1
 10
-65.17910352433624
 20
55.69721125663148
 30
0.0
  0
VERTEX
  5
D06
  8
LAYER_1
 10
-65.01918124925871
 20
55.55865399073842
 30
0.0
  0
VERTEX
  5
D07
  8
LAYER_1
 10
-64.84291547624473
 20
55.42372506154555
 30
0.0
  0
VERTEX
  5
D08
  8
LAYER_1
 10
-64.65410996577444
 20
55.29462935141183
 30
0.0
  0
VERTEX
  5
D09
  8
LAYER_1
 10
-64.45656847832792
 20
55.17357174269624
 30
0.0
  0
VERTEX
  5
D0A
  8
LAYER_1
 10
-64.25409477438534
 20
55.06275711775773
 30
0.0
  0
VERTEX
  5
D0B
  8
LAYER_1
 10
-64.0504926144268
 20
54.96439035895526
 30
0.0
  0
VERTEX
  5
D0C
  8
LAYER_1
 10
-63.84956575893242
 20
54.8806763486478
 30
0.0
  0
VERTEX
  5
D0D
  8
LAYER_1
 10
-63.65511796838233
 20
54.8138199691943
 30
0.0
  0
VERTEX
  5
D0E
  8
LAYER_1
 10
-63.36651845195274
 20
54.73290390103638
 30
0.0
  0
VERTEX
  5
D0F
  8
LAYER_1
 10
-63.25432307475693
 20
54.70945353522927
 30
0.0
  0
VERTEX
  5
D10
  8
LAYER_1
 10
-63.1547779739099
 20
54.69663753279581
 30
0.0
  0
VERTEX
  5
D11
  8
LAYER_1
 10
-63.06131866616374
 20
54.69392783213034
 30
0.0
  0
VERTEX
  5
D12
  8
LAYER_1
 10
-62.96738066827051
 20
54.70079637162716
 30
0.0
  0
VERTEX
  5
D13
  8
LAYER_1
 10
-62.75181066905128
 20
54.74115592468499
 30
0.0
  0
VERTEX
  5
D14
  8
LAYER_1
 10
-62.37448358859125
 20
54.82825345800669
 30
0.0
  0
VERTEX
  5
D15
  8
LAYER_1
 10
-61.58099151191862
 20
55.26468103751108
 30
0.0
  0
VERTEX
  5
D16
  8
LAYER_1
 10
-61.02895890876778
 20
55.55359212649675
 30
0.0
  0
VERTEX
  5
D17
  8
LAYER_1
 10
-60.51929676974881
 20
55.79024386328338
 30
0.0
  0
VERTEX
  5
D18
  8
LAYER_1
 10
-60.28219805164584
 20
55.88817800075815
 30
0.0
  0
VERTEX
  5
D19
  8
LAYER_1
 10
-60.0579040624043
 20
55.97209393157044
 30
0.0
  0
VERTEX
  5
D1A
  8
LAYER_1
 10
-59.84715217296701
 20
56.04167386618271
 30
0.0
  0
VERTEX
  5
D1B
  8
LAYER_1
 10
-59.65067975427682
 20
56.09660001505736
 30
0.0
  0
VERTEX
  5
D1C
  8
LAYER_1
 10
-59.54278143240418
 20
56.13448161917546
 30
0.0
  0
VERTEX
  5
D1D
  8
LAYER_1
 10
-59.42406369225813
 20
56.19365322628007
 30
0.0
  0
VERTEX
  5
D1E
  8
LAYER_1
 10
-59.30892806110351
 20
56.26601456686539
 30
0.0
  0
VERTEX
  5
D1F
  8
LAYER_1
 10
-59.21177606620516
 20
56.34346537142557
 30
0.0
  0
VERTEX
  5
D20
  8
LAYER_1
 10
-59.11050936841515
 20
56.42305406006954
 30
0.0
  0
VERTEX
  5
D21
  8
LAYER_1
 10
-58.98417033829807
 20
56.50123637217018
 30
0.0
  0
VERTEX
  5
D22
  8
LAYER_1
 10
-58.8488715676876
 20
56.56902301711752
 30
0.0
  0
VERTEX
  5
D23
  8
LAYER_1
 10
-58.72072564841737
 20
56.61742470430153
 30
0.0
  0
VERTEX
  5
D24
  8
LAYER_1
 10
-58.59062261920089
 20
56.66610492580456
 30
0.0
  0
VERTEX
  5
D25
  8
LAYER_1
 10
-58.44999508388525
 20
56.73464995627397
 30
0.0
  0
VERTEX
  5
D26
  8
LAYER_1
 10
-58.31576948200454
 20
56.8139546789473
 30
0.0
  0
VERTEX
  5
D27
  8
LAYER_1
 10
-58.20487225309285
 20
56.89491397706209
 30
0.0
  0
VERTEX
  5
D28
  8
LAYER_1
 10
-57.97798523269086
 20
57.08582681806749
 30
0.0
  0
VERTEX
  5
D29
  8
LAYER_1
 10
-57.25909632196394
 20
56.57416601301168
 30
0.0
  0
VERTEX
  5
D2A
  8
LAYER_1
 10
-56.65918639133747
 20
56.14110769270697
 30
0.0
  0
VERTEX
  5
D2B
  8
LAYER_1
 10
-56.22635332638396
 20
55.81842732971236
 30
0.0
  0
VERTEX
  5
D2C
  8
LAYER_1
 10
-56.02813558960875
 20
55.6694527552355
 30
0.0
  0
VERTEX
  5
D2D
  8
LAYER_1
 10
-55.85321095304101
 20
55.55255679411249
 30
0.0
  0
VERTEX
  5
D2E
  8
LAYER_1
 10
-55.68987729083924
 20
55.46405914485671
 30
0.0
  0
VERTEX
  5
D2F
  8
LAYER_1
 10
-55.52643247716193
 20
55.4002795059815
 30
0.0
  0
VERTEX
  5
D30
  8
LAYER_1
 10
-55.35117438616756
 20
55.35753757600023
 30
0.0
  0
VERTEX
  5
D31
  8
LAYER_1
 10
-55.15240089201461
 20
55.33215305342624
 30
0.0
  0
VERTEX
  5
D32
  8
LAYER_1
 10
-54.91840986886159
 20
55.3204456367729
 30
0.0
  0
VERTEX
  5
D33
  8
LAYER_1
 10
-54.63749919086695
 20
55.31873502455355
 30
0.0
  0
VERTEX
  5
D34
  8
LAYER_1
 10
-54.23888341960691
 20
55.32994151633352
 30
0.0
  0
VERTEX
  5
D35
  8
LAYER_1
 10
-54.07055308844721
 20
55.34320412519841
 30
0.0
  0
VERTEX
  5
D36
  8
LAYER_1
 10
-53.91396107584409
 20
55.36293068851808
 30
0.0
  0
VERTEX
  5
D37
  8
LAYER_1
 10
-53.76242234347984
 20
55.39013949064616
 30
0.0
  0
VERTEX
  5
D38
  8
LAYER_1
 10
-53.60925185303673
 20
55.4258488159363
 30
0.0
  0
VERTEX
  5
D39
  8
LAYER_1
 10
-53.27127544464307
 20
55.52684217341726
 30
0.0
  0
VERTEX
  5
D3A
  8
LAYER_1
 10
-53.02441052701613
 20
55.61631111739791
 30
0.0
  0
VERTEX
  5
D3B
  8
LAYER_1
 10
-52.80778627830246
 20
55.70978181496331
 30
0.0
  0
VERTEX
  5
D3C
  8
LAYER_1
 10
-52.64478160568103
 20
55.79617745361892
 30
0.0
  0
VERTEX
  5
D3D
  8
LAYER_1
 10
-52.59069251889835
 20
55.83326062195101
 30
0.0
  0
VERTEX
  5
D3E
  8
LAYER_1
 10
-52.55877541633086
 20
55.86442122087018
 30
0.0
  0
VERTEX
  5
D3F
  8
LAYER_1
 10
-52.4740493777233
 20
55.93930854326683
 30
0.0
  0
VERTEX
  5
D40
  8
LAYER_1
 10
-52.31453026405455
 20
56.04379306969449
 30
0.0
  0
VERTEX
  5
D41
  8
LAYER_1
 10
-52.10306464259082
 20
56.16403532116254
 30
0.0
  0
VERTEX
  5
D42
  8
LAYER_1
 10
-51.86249908059835
 20
56.28619581868034
 30
0.0
  0
VERTEX
  5
D43
  8
LAYER_1
 10
-51.47886282513444
 20
56.47856895093297
 30
0.0
  0
VERTEX
  5
D44
  8
LAYER_1
 10
-51.16313287386058
 20
56.65572835827574
 30
0.0
  0
VERTEX
  5
D45
  8
LAYER_1
 10
-50.91609893554091
 20
56.81719885208038
 30
0.0
  0
VERTEX
  5
D46
  8
LAYER_1
 10
-50.81858975522768
 20
56.89190225995956
 30
0.0
  0
VERTEX
  5
D47
  8
LAYER_1
 10
-50.73855071893955
 20
56.96250524371862
 30
0.0
  0
VERTEX
  5
D48
  8
LAYER_1
 10
-50.63250438771162
 20
57.0892651375035
 30
0.0
  0
VERTEX
  5
D49
  8
LAYER_1
 10
-50.52203253412793
 20
57.25668251363719
 30
0.0
  0
VERTEX
  5
D4A
  8
LAYER_1
 10
-50.43518184883612
 20
57.41802821318724
 30
0.0
  0
VERTEX
  5
D4B
  8
LAYER_1
 10
-50.40937903512706
 20
57.48182132207702
 30
0.0
  0
VERTEX
  5
D4C
  8
LAYER_1
 10
-50.39999902248383
 20
57.52657307722123
 30
0.0
  0
VERTEX
  5
D4D
  8
LAYER_1
 10
-50.38149407779684
 20
57.5950074583233
 30
0.0
  0
VERTEX
  5
D4E
  8
LAYER_1
 10
-50.33110932741151
 20
57.72083596780581
 30
0.0
  0
VERTEX
  5
D4F
  8
LAYER_1
 10
-50.16548091159933
 20
58.07296184600872
 30
0.0
  0
VERTEX
  5
D50
  8
LAYER_1
 10
-50.07644233007576
 20
58.27185894809548
 30
0.0
  0
VERTEX
  5
D51
  8
LAYER_1
 10
-50.0087466320487
 20
58.47214726122445
 30
0.0
  0
VERTEX
  5
D52
  8
LAYER_1
 10
-49.96256347071938
 20
58.67141581926629
 30
0.0
  0
VERTEX
  5
D53
  8
LAYER_1
 10
-49.93806249928907
 20
58.86725365609168
 30
0.0
  0
VERTEX
  5
D54
  8
LAYER_1
 10
-49.93541337095902
 20
59.0572498055713
 30
0.0
  0
VERTEX
  5
D55
  8
LAYER_1
 10
-49.95478573893048
 20
59.23899330157585
 30
0.0
  0
VERTEX
  5
D56
  8
LAYER_1
 10
-49.99634925640473
 20
59.41007317797597
 30
0.0
  0
VERTEX
  5
D57
  8
LAYER_1
 10
-50.060273576583
 20
59.56807846864237
 30
0.0
  0
VERTEX
  5
D58
  8
LAYER_1
 10
-50.10481931265267
 20
59.6829577219214
 30
0.0
  0
VERTEX
  5
D59
  8
LAYER_1
 10
-50.14129841643609
 20
59.82574451557403
 30
0.0
  0
VERTEX
  5
D5A
  8
LAYER_1
 10
-50.165946459533
 20
59.97825348031505
 30
0.0
  0
VERTEX
  5
D5B
  8
LAYER_1
 10
-50.17499901354313
 20
60.1222992468592
 30
0.0
  0
VERTEX
  5
D5C
  8
LAYER_1
 10
-50.18239387432977
 20
60.25317228990259
 30
0.0
  0
VERTEX
  5
D5D
  8
LAYER_1
 10
-50.20614825988005
 20
60.36358196687935
 30
0.0
  0
VERTEX
  5
D5E
  8
LAYER_1
 10
-50.24861687497955
 20
60.45568624112644
 30
0.0
  0
VERTEX
  5
D5F
  8
LAYER_1
 10
-50.31215442441383
 20
60.53164307598082
 30
0.0
  0
VERTEX
  5
D60
  8
LAYER_1
 10
-50.39911561296847
 20
60.59361043477946
 30
0.0
  0
VERTEX
  5
D61
  8
LAYER_1
 10
-50.51185514542901
 20
60.64374628085935
 30
0.0
  0
VERTEX
  5
D62
  8
LAYER_1
 10
-50.65272772658103
 20
60.68420857755744
 30
0.0
  0
VERTEX
  5
D63
  8
LAYER_1
 10
-50.82408806121009
 20
60.71715528821071
 30
0.0
  0
VERTEX
  5
D64
  8
LAYER_1
 10
-50.98002347598347
 20
60.75724656679085
 30
0.0
  0
VERTEX
  5
D65
  8
LAYER_1
 10
-51.14458271858959
 20
60.82807212248323
 30
0.0
  0
VERTEX
  5
D66
  8
LAYER_1
 10
-51.31328228070929
 20
60.92734354991615
 30
0.0
  0
VERTEX
  5
D67
  8
LAYER_1
 10
-51.48163865402346
 20
61.05277244371786
 30
0.0
  0
VERTEX
  5
D68
  8
LAYER_1
 10
-51.60151049692895
 20
61.14611277407205
 30
0.0
  0
VERTEX
  5
D69
  8
LAYER_1
 10
-51.72005006295887
 20
61.22663438944235
 30
0.0
  0
VERTEX
  5
D6A
  8
LAYER_1
 10
-51.83831430675051
 20
61.29478200986158
 30
0.0
  0
VERTEX
  5
D6B
  8
LAYER_1
 10
-51.95736018294119
 20
61.35100035536249
 30
0.0
  0
VERTEX
  5
D6C
  8
LAYER_1
 10
-52.07824464616819
 20
61.39573414597791
 30
0.0
  0
VERTEX
  5
D6D
  8
LAYER_1
 10
-52.20202465106883
 20
61.42942810174062
 30
0.0
  0
VERTEX
  5
D6E
  8
LAYER_1
 10
-52.32975715228039
 20
61.45252694268341
 30
0.0
  0
VERTEX
  5
D6F
  8
LAYER_1
 10
-52.46249910444021
 20
61.46547538883908
 30
0.0
  0
VERTEX
  5
D70
  8
LAYER_1
 10
-52.80434990940304
 20
61.48689004586528
 30
0.0
  0
VERTEX
  5
D71
  8
LAYER_1
 10
-52.90344401379385
 20
61.49754663550766
 30
0.0
  0
VERTEX
  5
D72
  8
LAYER_1
 10
-52.96355492816909
 20
61.51163339050359
 30
0.0
  0
VERTEX
  5
D73
  8
LAYER_1
 10
-52.99136090906235
 20
61.53174830430357
 30
0.0
  0
VERTEX
  5
D74
  8
LAYER_1
 10
-52.99354021300729
 20
61.56048937035811
 30
0.0
  0
VERTEX
  5
D75
  8
LAYER_1
 10
-52.94773181618667
 20
61.65424193303295
 30
0.0
  0
VERTEX
  5
D76
  8
LAYER_1
 10
-52.88687944949487
 20
61.75322816532631
 30
0.0
  0
VERTEX
  5
D77
  8
LAYER_1
 10
-52.85144379855404
 20
61.78832249107397
 30
0.0
  0
VERTEX
  5
D78
  8
LAYER_1
 10
-52.80433467063841
 20
61.81808199724711
 30
0.0
  0
VERTEX
  5
D79
  8
LAYER_1
 10
-52.65009448814822
 20
61.87438967294428
 30
0.0
  0
VERTEX
  5
D7A
  8
LAYER_1
 10
-52.3741559105552
 20
61.94773743656668
 30
0.0
  0
VERTEX
  5
D7B
  8
LAYER_1
 10
-52.21848960766199
 20
62.00379888776898
 30
0.0
  0
VERTEX
  5
D7C
  8
LAYER_1
 10
-52.05401991632091
 20
62.09319389431577
 30
0.0
  0
VERTEX
  5
D7D
  8
LAYER_1
 10
-51.88645664994166
 20
62.21233633653518
 30
0.0
  0
VERTEX
  5
D7E
  8
LAYER_1
 10
-51.72150962193394
 20
62.35764009475531
 30
0.0
  0
VERTEX
  5
D7F
  8
LAYER_1
 10
-51.38220653613839
 20
62.68740493882592
 30
0.0
  0
VERTEX
  5
D80
  8
LAYER_1
 10
-51.15221925450979
 20
62.27988984249396
 30
0.0
  0
VERTEX
  5
D81
  8
LAYER_1
 10
-51.03033884179455
 20
62.07670743303001
 30
0.0
  0
VERTEX
  5
D82
  8
LAYER_1
 10
-50.90187974353194
 20
61.88787862096275
 30
0.0
  0
VERTEX
  5
D83
  8
LAYER_1
 10
-50.76588987674675
 20
61.71239850417146
 30
0.0
  0
VERTEX
  5
D84
  8
LAYER_1
 10
-50.62141715846376
 20
61.54926218053541
 30
0.0
  0
VERTEX
  5
D85
  8
LAYER_1
 10
-50.46750950570775
 20
61.3974647479339
 30
0.0
  0
VERTEX
  5
D86
  8
LAYER_1
 10
-50.30321483550347
 20
61.25600130424619
 30
0.0
  0
VERTEX
  5
D87
  8
LAYER_1
 10
-50.12758106487571
 20
61.12386694735157
 30
0.0
  0
VERTEX
  5
D88
  8
LAYER_1
 10
-49.93965611084924
 20
61.00005677512934
 30
0.0
  0
VERTEX
  5
D89
  8
LAYER_1
 10
-49.6291482669337
 20
60.79642836538528
 30
0.0
  0
VERTEX
  5
D8A
  8
LAYER_1
 10
-49.53469068167178
 20
60.72516670992816
 30
0.0
  0
VERTEX
  5
D8B
  8
LAYER_1
 10
-49.49999898672104
 20
60.68792901045228
 30
0.0
  0
VERTEX
  5
D8C
  8
LAYER_1
 10
-49.51298775359315
 20
60.65827833548404
 30
0.0
  0
VERTEX
  5
D8D
  8
LAYER_1
 10
-49.54835320794792
 20
60.607674420023
 30
0.0
  0
VERTEX
  5
D8E
  8
LAYER_1
 10
-49.66460910153595
 20
60.47195363557512
 30
0.0
  0
VERTEX
  5
D8F
  8
LAYER_1
 10
-49.82921921635086
 20
60.29673419781091
 30
0.0
  0
VERTEX
  5
D90
  8
LAYER_1
 10
-49.86010347069481
 20
57.86250527948141
 30
0.0
  0
VERTEX
  5
D91
  8
LAYER_1
 10
-49.75064695045883
 20
57.46081201737169
 30
0.0
  0
VERTEX
  5
D92
  8
LAYER_1
 10
-49.70594918600848
 20
57.25960654085883
 30
0.0
  0
VERTEX
  5
D93
  8
LAYER_1
 10
-49.68129452772477
 20
57.05763075045496
 30
0.0
  0
VERTEX
  5
D94
  8
LAYER_1
 10
-49.6766848970793
 20
56.85491121815588
 30
0.0
  0
VERTEX
  5
D95
  8
LAYER_1
 10
-49.69212221554362
 20
56.6514745159574
 30
0.0
  0
VERTEX
  5
D96
  8
LAYER_1
 10
-49.7430540008644
 20
56.24383027665286
 30
0.0
  0
VERTEX
  5
D97
  8
LAYER_1
 10
-48.2154289814312
 20
54.75000515580177
 30
0.0
  0
VERTEX
  5
D98
  8
LAYER_1
 10
-47.74187323633707
 20
54.75000515580177
 30
0.0
  0
VERTEX
  5
D99
  8
LAYER_1
 10
-47.5350853102168
 20
54.7593939287433
 30
0.0
  0
VERTEX
  5
D9A
  8
LAYER_1
 10
-47.32211675709813
 20
54.78495741942567
 30
0.0
  0
VERTEX
  5
D9B
  8
LAYER_1
 10
-47.12803518029033
 20
54.82279138563557
 30
0.0
  0
VERTEX
  5
D9C
  8
LAYER_1
 10
-46.97790818310264
 20
54.8689915851597
 30
0.0
  0
VERTEX
  5
D9D
  8
LAYER_1
 10
-46.81631110096445
 20
54.95078141363034
 30
0.0
  0
VERTEX
  5
D9E
  8
LAYER_1
 10
-46.64601791165042
 20
55.06516844817493
 30
0.0
  0
VERTEX
  5
D9F
  8
LAYER_1
 10
-46.47225476615381
 20
55.20682185357812
 30
0.0
  0
VERTEX
  5
DA0
  8
LAYER_1
 10
-46.30024781546789
 20
55.37041079462459
 30
0.0
  0
VERTEX
  5
DA1
  8
LAYER_1
 10
-46.13522321058591
 20
55.55060443609896
 30
0.0
  0
VERTEX
  5
DA2
  8
LAYER_1
 10
-45.98240710250111
 20
55.74207194278591
 30
0.0
  0
VERTEX
  5
DA3
  8
LAYER_1
 10
-45.84702564220675
 20
55.93948247947006
 30
0.0
  0
VERTEX
  5
DA4
  8
LAYER_1
 10
-45.7343049806961
 20
56.13750521093607
 30
0.0
  0
VERTEX
  5
DA5
  8
LAYER_1
 10
-45.58873940925734
 20
56.4129831799526
 30
0.0
  0
VERTEX
  5
DA6
  8
LAYER_1
 10
-45.44088944879347
 20
56.67130753694448
 30
0.0
  0
VERTEX
  5
DA7
  8
LAYER_1
 10
-45.29504431579968
 20
56.90646066932112
 30
0.0
  0
VERTEX
  5
DA8
  8
LAYER_1
 10
-45.15549322677117
 20
57.11242496449196
 30
0.0
  0
VERTEX
  5
DA9
  8
LAYER_1
 10
-45.02652539820314
 20
57.28318280986645
 30
0.0
  0
VERTEX
  5
DAA
  8
LAYER_1
 10
-44.9124300465908
 20
57.412716592854
 30
0.0
  0
VERTEX
  5
DAB
  8
LAYER_1
 10
-44.81749638842935
 20
57.49500870086406
 30
0.0
  0
VERTEX
  5
DAC
  8
LAYER_1
 10
-44.77855557454744
 20
57.51655862281797
 30
0.0
  0
VERTEX
  5
DAD
  8
LAYER_1
 10
-44.74601364021396
 20
57.52404152130606
 30
0.0
  0
VERTEX
  5
DAE
  8
LAYER_1
 10
-44.70200652304521
 20
57.52090147546913
 30
0.0
  0
VERTEX
  5
DAF
  8
LAYER_1
 10
-44.669091271441
 20
57.5058554514246
 30
0.0
  0
VERTEX
  5
DB0
  8
LAYER_1
 10
-44.64640918994249
 20
57.47148307980471
 30
0.0
  0
VERTEX
  5
DB1
  8
LAYER_1
 10
-44.63310158309087
 20
57.41036399124171
 30
0.0
  0
VERTEX
  5
DB2
  8
LAYER_1
 10
-44.6283097554273
 20
57.31507781636787
 30
0.0
  0
VERTEX
  5
DB3
  8
LAYER_1
 10
-44.63117501149296
 20
57.17820418581544
 30
0.0
  0
VERTEX
  5
DB4
  8
LAYER_1
 10
-44.65644199297664
 20
56.75001308020384
 30
0.0
  0
VERTEX
  5
DB5
  8
LAYER_1
 10
-44.70835550896212
 20
55.97502089433729
 30
0.0
  0
VERTEX
  5
DB6
  8
LAYER_1
 10
-44.23140666162847
 20
55.53126303177507
 30
0.0
  0
VERTEX
  5
DB7
  8
LAYER_1
 10
-44.00806680898221
 20
55.34049024606746
 30
0.0
  0
VERTEX
  5
DB8
  8
LAYER_1
 10
-43.75253942122309
 20
55.14909970491858
 30
0.0
  0
VERTEX
  5
DB9
  8
LAYER_1
 10
-43.49633855504518
 20
54.97933277736855
 30
0.0
  0
VERTEX
  5
DBA
  8
LAYER_1
 10
-43.27097826714254
 20
54.85343083245746
 30
0.0
  0
VERTEX
  5
DBB
  8
LAYER_1
 10
-43.08076918518216
 20
54.76797424290719
 30
0.0
  0
VERTEX
  5
DBC
  8
LAYER_1
 10
-42.88981494599678
 20
54.69423925584467
 30
0.0
  0
VERTEX
  5
DBD
  8
LAYER_1
 10
-42.70510436347778
 20
54.63383630833275
 30
0.0
  0
VERTEX
  5
DBE
  8
LAYER_1
 10
-42.53362625151653
 20
54.58837583743428
 30
0.0
  0
VERTEX
  5
DBF
  8
LAYER_1
 10
-42.38236942400444
 20
54.55946828021212
 30
0.0
  0
VERTEX
  5
DC0
  8
LAYER_1
 10
-42.25832269483289
 20
54.54872407372911
 30
0.0
  0
VERTEX
  5
DC1
  8
LAYER_1
 10
-42.16847487789327
 20
54.5577536550481
 30
0.0
  0
VERTEX
  5
DC2
  8
LAYER_1
 10
-42.1385595658515
 20
54.5701868777155
 30
0.0
  0
VERTEX
  5
DC3
  8
LAYER_1
 10
-42.11981478707698
 20
54.58816746123196
 30
0.0
  0
VERTEX
  5
DC4
  8
LAYER_1
 10
-42.10286645155813
 20
54.59855861768715
 30
0.0
  0
VERTEX
  5
DC5
  8
LAYER_1
 10
-42.0695287501397
 20
54.60368644808246
 30
0.0
  0
VERTEX
  5
DC6
  8
LAYER_1
 10
-41.96161680456989
 20
54.59900925994293
 30
0.0
  0
VERTEX
  5
DC7
  8
LAYER_1
 10
-41.81194206029907
 20
54.57585015531241
 30
0.0
  0
VERTEX
  5
DC8
  8
LAYER_1
 10
-41.63636762725879
 20
54.53592339268994
 30
0.0
  0
VERTEX
  5
DC9
  8
LAYER_1
 10
-41.38358682669197
 20
54.47921732446545
 30
0.0
  0
VERTEX
  5
DCA
  8
LAYER_1
 10
-41.27168094397803
 20
54.46415755197354
 30
0.0
  0
VERTEX
  5
DCB
  8
LAYER_1
 10
-41.15969245539628
 20
54.4577833605715
 30
0.0
  0
VERTEX
  5
DCC
  8
LAYER_1
 10
-41.04031714776115
 20
54.45996230526659
 30
0.0
  0
VERTEX
  5
DCD
  8
LAYER_1
 10
-40.90625080788703
 20
54.47056194106606
 30
0.0
  0
VERTEX
  5
DCE
  8
LAYER_1
 10
-40.56482817867949
 20
54.51649350600707
 30
0.0
  0
VERTEX
  5
DCF
  8
LAYER_1
 10
-40.1184175191546
 20
54.59028089731387
 30
0.0
  0
VERTEX
  5
DD0
  8
LAYER_1
 10
-39.7586536899716
 20
54.66470566790073
 30
0.0
  0
VERTEX
  5
DD1
  8
LAYER_1
 10
-39.47194528956942
 20
54.74698554442557
 30
0.0
  0
VERTEX
  5
DD2
  8
LAYER_1
 10
-39.35173956217331
 20
54.79332668699533
 30
0.0
  0
VERTEX
  5
DD3
  8
LAYER_1
 10
-39.24470091638702
 20
54.8443382535463
 30
0.0
  0
VERTEX
  5
DD4
  8
LAYER_1
 10
-39.14913042701542
 20
54.90092245991073
 30
0.0
  0
VERTEX
  5
DD5
  8
LAYER_1
 10
-39.06332916886335
 20
54.96398152192084
 30
0.0
  0
VERTEX
  5
DD6
  8
LAYER_1
 10
-38.9855982167357
 20
55.03441765540888
 30
0.0
  0
VERTEX
  5
DD7
  8
LAYER_1
 10
-38.91423864543732
 20
55.11313307620708
 30
0.0
  0
VERTEX
  5
DD8
  8
LAYER_1
 10
-38.8475515297731
 20
55.2010300001477
 30
0.0
  0
VERTEX
  5
DD9
  8
LAYER_1
 10
-38.7838379445479
 20
55.29901064306296
 30
0.0
  0
VERTEX
  5
DDA
  8
LAYER_1
 10
-38.65853566463402
 20
55.52883194914637
 30
0.0
  0
VERTEX
  5
DDB
  8
LAYER_1
 10
-38.5581505489022
 20
55.7465724598441
 30
0.0
  0
VERTEX
  5
DDC
  8
LAYER_1
 10
-38.4759438243492
 20
55.95774465798844
 30
0.0
  0
VERTEX
  5
DDD
  8
LAYER_1
 10
-38.42039874019176
 20
56.13822893651187
 30
0.0
  0
VERTEX
  5
DDE
  8
LAYER_1
 10
-38.39999854564667
 20
56.26390568834685
 30
0.0
  0
VERTEX
  5
DDF
  8
LAYER_1
 10
-38.39618514232092
 20
56.32184085507514
 30
0.0
  0
VERTEX
  5
DE0
  8
LAYER_1
 10
-38.38441285914433
 20
56.3785713322843
 30
0.0
  0
VERTEX
  5
DE1
  8
LAYER_1
 10
-38.36418358631785
 20
56.43494202917704
 30
0.0
  0
VERTEX
  5
DE2
  8
LAYER_1
 10
-38.33499921404244
 20
56.49179785495609
 30
0.0
  0
VERTEX
  5
DE3
  8
LAYER_1
 10
-38.2477727319487
 20
56.61034452998403
 30
0.0
  0
VERTEX
  5
DE4
  8
LAYER_1
 10
-38.1187485344708
 20
56.74097063098989
 30
0.0
  0
VERTEX
  5
DE5
  8
LAYER_1
 10
-37.9041580416654
 20
56.92351296357138
 30
0.0
  0
VERTEX
  5
DE6
  8
LAYER_1
 10
-37.82645990300274
 20
56.97912490108546
 30
0.0
  0
VERTEX
  5
DE7
  8
LAYER_1
 10
-37.78317453210365
 20
56.99964693127751
 30
0.0
  0
VERTEX
  5
DE8
  8
LAYER_1
 10
-37.75009556890907
 20
57.01035042350944
 30
0.0
  0
VERTEX
  5
DE9
  8
LAYER_1
 10
-37.71422968371681
 20
57.04092314695178
 30
0.0
  0
VERTEX
  5
DEA
  8
LAYER_1
 10
-37.67614580952868
 20
57.089681699385
 30
0.0
  0
VERTEX
  5
DEB
  8
LAYER_1
 10
-37.63641287934651
 20
57.15494267858949
 30
0.0
  0
VERTEX
  5
DEC
  8
LAYER_1
 10
-37.55427558300725
 20
57.32823830843412
 30
0.0
  0
VERTEX
  5
DED
  8
LAYER_1
 10
-37.47236925871354
 20
57.5473428187292
 30
0.0
  0
VERTEX
  5
DEE
  8
LAYER_1
 10
-37.39524537047988
 20
57.7987889917182
 30
0.0
  0
VERTEX
  5
DEF
  8
LAYER_1
 10
-37.32745538232079
 20
58.06910960964462
 30
0.0
  0
VERTEX
  5
DF0
  8
LAYER_1
 10
-37.27355075825077
 20
58.34483745475197
 30
0.0
  0
VERTEX
  5
DF1
  8
LAYER_1
 10
-37.23808296228432
 20
58.61250530928373
 30
0.0
  0
VERTEX
  5
DF2
  8
LAYER_1
 10
-37.20539016621736
 20
58.87225704258046
 30
0.0
  0
VERTEX
  5
DF3
  8
LAYER_1
 10
-37.16030730352799
 20
59.06848271016345
 30
0.0
  0
VERTEX
  5
DF4
  8
LAYER_1
 10
-37.13133168566074
 20
59.14850760448049
 30
0.0
  0
VERTEX
  5
DF5
  8
LAYER_1
 10
-37.09711305729091
 20
59.21953218457091
 30
0.0
  0
VERTEX
  5
DF6
  8
LAYER_1
 10
-37.05693625380283
 20
59.28385018450199
 30
0.0
  0
VERTEX
  5
DF7
  8
LAYER_1
 10
-37.01008611058084
 20
59.343755338341
 30
0.0
  0
VERTEX
  5
DF8
  8
LAYER_1
 10
-36.87136830940392
 20
59.48941940662917
 30
0.0
  0
VERTEX
  5
DF9
  8
LAYER_1
 10
-36.81898962123947
 20
59.53373093182745
 30
0.0
  0
VERTEX
  5
DFA
  8
LAYER_1
 10
-36.78766212409957
 20
59.55000534653664
 30
0.0
  0
VERTEX
  5
DFB
  8
LAYER_1
 10
-36.74313087737114
 20
59.55000534653664
 30
0.0
  0
VERTEX
  5
DFC
  8
LAYER_1
 10
-36.84532582800273
 20
58.0662060783655
 30
0.0
  0
VERTEX
  5
DFD
  8
LAYER_1
 10
-36.79907663902782
 20
57.88193463200554
 30
0.0
  0
VERTEX
  5
DFE
  8
LAYER_1
 10
-36.75152426739245
 20
57.77336302142478
 30
0.0
  0
VERTEX
  5
DFF
  8
LAYER_1
 10
-36.6562388997896
 20
57.61396672394108
 30
0.0
  0
VERTEX
  5
E00
  8
LAYER_1
 10
-36.52704478581771
 20
57.42518762607179
 30
0.0
  0
VERTEX
  5
E01
  8
LAYER_1
 10
-36.37776617507523
 20
57.22846761433422
 30
0.0
  0
VERTEX
  5
E02
  8
LAYER_1
 10
-36.25707854762611
 20
57.06976448575035
 30
0.0
  0
VERTEX
  5
E03
  8
LAYER_1
 10
-36.15141518087188
 20
56.91459348837212
 30
0.0
  0
VERTEX
  5
E04
  8
LAYER_1
 10
-36.06108807944607
 20
56.76362506488158
 30
0.0
  0
VERTEX
  5
E05
  8
LAYER_1
 10
-35.98640924798217
 20
56.61752965796077
 30
0.0
  0
VERTEX
  5
E06
  8
LAYER_1
 10
-35.92769069111367
 20
56.47697771029176
 30
0.0
  0
VERTEX
  5
E07
  8
LAYER_1
 10
-35.88524441347407
 20
56.34263966455657
 30
0.0
  0
VERTEX
  5
E08
  8
LAYER_1
 10
-35.85938241969689
 20
56.21518596343729
 30
0.0
  0
VERTEX
  5
E09
  8
LAYER_1
 10
-35.85041671441559
 20
56.09528704961593
 30
0.0
  0
VERTEX
  5
E0A
  8
LAYER_1
 10
-35.83478597211709
 20
56.02842311275506
 30
0.0
  0
VERTEX
  5
E0B
  8
LAYER_1
 10
-35.7901145568905
 20
55.95048725466751
 30
0.0
  0
VERTEX
  5
E0C
  8
LAYER_1
 10
-35.71908579871771
 20
55.8638960711119
 30
0.0
  0
VERTEX
  5
E0D
  8
LAYER_1
 10
-35.6243830275806
 20
55.77106615784685
 30
0.0
  0
VERTEX
  5
E0E
  8
LAYER_1
 10
-35.50868957346103
 20
55.67441411063093
 30
0.0
  0
VERTEX
  5
E0F
  8
LAYER_1
 10
-35.37468876634088
 20
55.57635652522281
 30
0.0
  0
VERTEX
  5
E10
  8
LAYER_1
 10
-35.22506393620202
 20
55.47930999738104
 30
0.0
  0
VERTEX
  5
E11
  8
LAYER_1
 10
-35.06249841302633
 20
55.38569112286427
 30
0.0
  0
VERTEX
  5
E12
  8
LAYER_1
 10
-34.88932172880895
 20
55.28013484343161
 30
0.0
  0
VERTEX
  5
E13
  8
LAYER_1
 10
-34.69501331745032
 20
55.14292354618168
 30
0.0
  0
VERTEX
  5
E14
  8
LAYER_1
 10
-34.50334312245052
 20
54.99181311470196
 30
0.0
  0
VERTEX
  5
E15
  8
LAYER_1
 10
-34.33808108730963
 20
54.84455943257987
 30
0.0
  0
VERTEX
  5
E16
  8
LAYER_1
 10
-34.15260960548531
 20
54.67993607611548
 30
0.0
  0
VERTEX
  5
E17
  8
LAYER_1
 10
-34.06484188681362
 20
54.61477514043523
 30
0.0
  0
VERTEX
  5
E18
  8
LAYER_1
 10
-33.97746610102384
 20
54.55935486630983
 30
0.0
  0
VERTEX
  5
E19
  8
LAYER_1
 10
-33.88829218665714
 20
54.51240537862942
 30
0.0
  0
VERTEX
  5
E1A
  8
LAYER_1
 10
-33.79513008225469
 20
54.47265680228418
 30
0.0
  0
SEQEND
  5
E48
  8
LAYER_1
  0
POLYLINE
  5
87
  8
LAYER_1
 66
     1
 10
0.0
 20
0.0
 30
0.0
 70
     1
  0
VERTEX
  5
E1B
  8
LAYER_1
 10
-35.54999843239784
 20
61.19557913734775
 30
0.0
  0
VERTEX
  5
E1C
  8
LAYER_1
 10
-35.55566436696849
 20
61.28472552271761
 30
0.0
  0
VERTEX
  5
E1D
  8
LAYER_1
 10
-35.57109141654202
 20
61.36439551824235
 30
0.0
  0
VERTEX
  5
E1E
  8
LAYER_1
 10
-35.59392344991083
 20
61.42589537910074
 30
0.0
  0
VERTEX
  5
E1F
  8
LAYER_1
 10
-35.62180433586735
 20
61.46053136047149
 30
0.0
  0
VERTEX
  5
E20
  8
LAYER_1
 10
-35.63858996195805
 20
61.46487974492528
 30
0.0
  0
VERTEX
  5
E21
  8
LAYER_1
 10
-35.65881420971611
 20
61.4601091796729
 30
0.0
  0
VERTEX
  5
E22
  8
LAYER_1
 10
-35.70650239823712
 20
61.42615364848604
 30
0.0
  0
VERTEX
  5
E23
  8
LAYER_1
 10
-35.75871655743587
 20
61.36454966378383
 30
0.0
  0
VERTEX
  5
E24
  8
LAYER_1
 10
-35.80930434331793
 20
61.28118212243922
 30
0.0
  0
VERTEX
  5
E25
  8
LAYER_1
 10
-35.89298823797917
 20
61.10971625570164
 30
0.0
  0
VERTEX
  5
E26
  8
LAYER_1
 10
-35.91125422649381
 20
61.05552906740682
 30
0.0
  0
VERTEX
  5
E27
  8
LAYER_1
 10
-35.91282537109584
 20
61.01820420337759
 30
0.0
  0
VERTEX
  5
E28
  8
LAYER_1
 10
-35.89696851825879
 20
60.99461553427618
 30
0.0
  0
VERTEX
  5
E29
  8
LAYER_1
 10
-35.86295051445618
 20
60.98163693076481
 30
0.0
  0
VERTEX
  5
E2A
  8
LAYER_1
 10
-35.73749843984842
 20
60.97500540316105
 30
0.0
  0
VERTEX
  5
E2B
  8
LAYER_1
 10
-35.64175742800215
 20
60.98341523927911
 30
0.0
  0
VERTEX
  5
E2C
  8
LAYER_1
 10
-35.60895962428047
 20
60.99594354277743
 30
0.0
  0
VERTEX
  5
E2D
  8
LAYER_1
 10
-35.58468698218347
 20
61.01581277732478
 30
0.0
  0
VERTEX
  5
E2E
  8
LAYER_1
 10
-35.56779702182894
 20
61.04436694848835
 30
0.0
  0
VERTEX
  5
E2F
  8
LAYER_1
 10
-35.55714726333463
 20
61.08295006183526
 30
0.0
  0
SEQEND
  5
E49
  8
LAYER_1
  0
ENDSEC
  0
EOF
