  0
SECTION
  2
HEADER
  9
$ACADVER
  1
AC1009
  9
$DWGCODEPAGE
  3
ansi_1252
  9
$INSBASE
 10
0.0
 20
0.0
 30
0.0
  9
$EXTMIN
 10
-73.58078879575281
 20
-72.13945709694069
 30
0.0
  9
$EXTMAX
 10
72.81844563130682
 20
72.34745214226993
 30
0.0
  9
$LIMMIN
 10
0.0
 20
0.0
  9
$LIMMAX
 10
12.0
 20
9.0
  9
$ORTHOMODE
 70
     0
  9
$REGENMODE
 70
     1
  9
$FILLMODE
 70
     1
  9
$QTEXTMODE
 70
     0
  9
$MIRRTEXT
 70
     1
  9
$DRAGMODE
 70
     2
  9
$LTSCALE
 40
1.0
  9
$OSMODE
 70
    37
  9
$ATTMODE
 70
     1
  9
$TEXTSIZE
 40
0.2
  9
$TRACEWID
 40
0.05
  9
$TEXTSTYLE
  7
STANDARD
  9
$CLAYER
  8
0
  9
$CELTYPE
  6
BYLAYER
  9
$CECOLOR
 62
   256
  9
$DIMSCALE
 40
1.0
  9
$DIMASZ
 40
0.18
  9
$DIMEXO
 40
0.0625
  9
$DIMDLI
 40
0.38
  9
$DIMRND
 40
0.0
  9
$DIMDLE
 40
0.0
  9
$DIMEXE
 40
0.18
  9
$DIMTP
 40
0.0
  9
$DIMTM
 40
0.0
  9
$DIMTXT
 40
0.18
  9
$DIMCEN
 40
0.09
  9
$DIMTSZ
 40
0.0
  9
$DIMTOL
 70
     0
  9
$DIMLIM
 70
     0
  9
$DIMTIH
 70
     1
  9
$DIMTOH
 70
     1
  9
$DIMSE1
 70
     0
  9
$DIMSE2
 70
     0
  9
$DIMTAD
 70
     0
  9
$DIMZIN
 70
     0
  9
$DIMBLK
  1

  9
$DIMASO
 70
     1
  9
$DIMSHO
 70
     1
  9
$DIMPOST
  1

  9
$DIMAPOST
  1

  9
$DIMALT
 70
     0
  9
$DIMALTD
 70
     2
  9
$DIMALTF
 40
25.4
  9
$DIMLFAC
 40
1.0
  9
$DIMTOFL
 70
     0
  9
$DIMTVP
 40
0.0
  9
$DIMTIX
 70
     0
  9
$DIMSOXD
 70
     0
  9
$DIMSAH
 70
     0
  9
$DIMBLK1
  1

  9
$DIMBLK2
  1

  9
$DIMSTYLE
  2
STANDARD
  9
$DIMCLRD
 70
     0
  9
$DIMCLRE
 70
     0
  9
$DIMCLRT
 70
     0
  9
$DIMTFAC
 40
1.0
  9
$DIMGAP
 40
0.09
  9
$LUNITS
 70
     2
  9
$LUPREC
 70
     4
  9
$SKETCHINC
 40
0.1
  9
$FILLETRAD
 40
0.5
  9
$AUNITS
 70
     0
  9
$AUPREC
 70
     0
  9
$MENU
  1
.
  9
$ELEVATION
 40
0.0
  9
$PELEVATION
 40
0.0
  9
$THICKNESS
 40
0.0
  9
$LIMCHECK
 70
     0
  9
$CHAMFERA
 40
0.0
  9
$CHAMFERB
 40
0.0
  9
$SKPOLY
 70
     0
  9
$TDCREATE
 40
2454910.5
  9
$TDUPDATE
 40
2457695.651116482
  9
$TDINDWG
 40
0.0000000116
  9
$TDUSRTIMER
 40
0.0000000116
  9
$USRTIMER
 70
     1
  9
$ANGBASE
 50
0.0
  9
$ANGDIR
 70
     0
  9
$PDMODE
 70
     0
  9
$PDSIZE
 40
0.0
  9
$PLINEWID
 40
0.0
  9
$COORDS
 70
     1
  9
$SPLFRAME
 70
     0
  9
$SPLINETYPE
 70
     6
  9
$SPLINESEGS
 70
     8
  9
$ATTDIA
 70
     0
  9
$ATTREQ
 70
     1
  9
$HANDLING
 70
     1
  9
$HANDSEED
  5
EA8
  9
$SURFTAB1
 70
     6
  9
$SURFTAB2
 70
     6
  9
$SURFTYPE
 70
     6
  9
$SURFU
 70
     6
  9
$SURFV
 70
     6
  9
$UCSNAME
  2

  9
$UCSORG
 10
0.0
 20
0.0
 30
0.0
  9
$UCSXDIR
 10
1.0
 20
0.0
 30
0.0
  9
$UCSYDIR
 10
0.0
 20
1.0
 30
0.0
  9
$PUCSNAME
  2

  9
$PUCSORG
 10
0.0
 20
0.0
 30
0.0
  9
$PUCSXDIR
 10
1.0
 20
0.0
 30
0.0
  9
$PUCSYDIR
 10
0.0
 20
1.0
 30
0.0
  9
$USERI1
 70
     0
  9
$USERI2
 70
     0
  9
$USERI3
 70
     0
  9
$USERI4
 70
     0
  9
$USERI5
 70
     0
  9
$USERR1
 40
0.0
  9
$USERR2
 40
0.0
  9
$USERR3
 40
0.0
  9
$USERR4
 40
0.0
  9
$USERR5
 40
0.0
  9
$WORLDVIEW
 70
     1
  9
$SHADEDGE
 70
     3
  9
$SHADEDIF
 70
    70
  9
$TILEMODE
 70
     1
  9
$MAXACTVP
 70
    64
  9
$PLIMCHECK
 70
     0
  9
$PEXTMIN
 10
1.000000000000000E+20
 20
1.000000000000000E+20
 30
1.000000000000000E+20
  9
$PEXTMAX
 10
-1.000000000000000E+20
 20
-1.000000000000000E+20
 30
-1.000000000000000E+20
  9
$PLIMMIN
 10
0.0
 20
0.0
  9
$PLIMMAX
 10
12.0
 20
9.0
  9
$UNITMODE
 70
     0
  9
$VISRETAIN
 70
     1
  9
$PLINEGEN
 70
     0
  9
$PSLTSCALE
 70
     1
  0
ENDSEC
  0
SECTION
  2
TABLES
  0
TABLE
  2
VPORT
 70
     1
  0
VPORT
  2
*ACTIVE
 70
     0
 10
0.0
 20
0.0
 11
1.0
 21
1.0
 12
10.42990654205607
 22
4.5
 13
0.0
 23
0.0
 14
0.5
 24
0.5
 15
0.5
 25
0.5
 16
0.0
 26
0.0
 36
1.0
 17
0.0
 27
0.0
 37
0.0
 40
9.0
 41
1.972972972850329
 42
50.0
 43
0.0
 44
0.0
 50
0.0
 51
0.0
 71
     0
 72
   100
 73
     1
 74
     3
 75
     0
 76
     0
 77
     0
 78
     0
  0
ENDTAB
  0
TABLE
  2
LTYPE
 70
     2
  0
LTYPE
  2
CONTINUOUS
 70
     0
  3
Solid line
 72
    65
 73
     0
 40
0.0
  0
LTYPE
  2
CONTINUOUS2
 70
     0
  3
Solid Line
 72
    65
 73
     0
 40
0.0
  0
ENDTAB
  0
TABLE
  2
LAYER
 70
     2
  0
LAYER
  2
0
 70
     0
 62
     7
  6
CONTINUOUS
  0
LAYER
  2
LAYER_1
 70
     0
 62
    18
  6
CONTINUOUS
  0
ENDTAB
  0
TABLE
  2
STYLE
 70
     1
  0
STYLE
  2
STANDARD
 70
     0
 40
0.0
 41
1.0
 50
0.0
 71
     0
 42
0.2
  3
txt
  4

  0
ENDTAB
  0
TABLE
  2
VIEW
 70
     0
  0
ENDTAB
  0
TABLE
  2
UCS
 70
     0
  0
ENDTAB
  0
TABLE
  2
APPID
 70
     1
  0
APPID
  2
ACAD
 70
     0
  0
ENDTAB
  0
TABLE
  2
DIMSTYLE
 70
     1
  0
DIMSTYLE
  2
STANDARD
 70
     0
  3

  4

  5

  6

  7

 40
1.0
 41
0.18
 42
0.0625
 43
0.38
 44
0.18
 45
0.0
 46
0.0
 47
0.0
 48
0.0
140
0.18
141
0.09
142
0.0
143
25.4
144
1.0
145
0.0
146
1.0
147
0.09
 71
     0
 72
     0
 73
     1
 74
     1
 75
     0
 76
     0
 77
     0
 78
     0
170
     0
171
     2
172
     0
173
     0
174
     0
175
     0
176
     0
177
     0
178
     0
  0
ENDTAB
  0
ENDSEC
  0
SECTION
  2
BLOCKS
  0
BLOCK
  8
0
  2
$MODEL_SPACE
 70
     0
 10
0.0
 20
0.0
 30
0.0
  3
$MODEL_SPACE
  1

  0
ENDBLK
  5
21
  8
0
  0
BLOCK
 67
     1
  8
0
  2
$PAPER_SPACE
 70
     0
 10
0.0
 20
0.0
 30
0.0
  3
$PAPER_SPACE
  1

  0
ENDBLK
  5
1D
 67
     1
  8
0
  0
ENDSEC
  0
SECTION
  2
ENTITIES
  0
POLYLINE
  5
70
  8
LAYER_1
 66
     1
 10
0.0
 20
0.0
 30
0.0
 70
     1
  0
VERTEX
  5
85
  8
LAYER_1
 10
-71.7025227599972
 20
-72.08847848961075
 30
0.0
  0
VERTEX
  5
86
  8
LAYER_1
 10
-71.58749986439943
 20
-72.13945709694069
 30
0.0
  0
VERTEX
  5
87
  8
LAYER_1
 10
-61.23749945312738
 20
-72.13795205891186
 30
0.0
  0
VERTEX
  5
88
  8
LAYER_1
 10
-50.96460841991939
 20
-72.11871760584076
 30
0.0
  0
VERTEX
  5
89
  8
LAYER_1
 10
-40.7999986410141
 20
-72.07458652739109
 30
0.0
  0
VERTEX
  5
8A
  8
LAYER_1
 10
-30.71249824017286
 20
-72.01272603389913
 30
0.0
  0
VERTEX
  5
8B
  8
LAYER_1
 10
-18.78749776631594
 20
-71.85623434673404
 30
0.0
  0
VERTEX
  5
8C
  8
LAYER_1
 10
-11.06249745935202
 20
-71.68167087945041
 30
0.0
  0
VERTEX
  5
8D
  8
LAYER_1
 10
8.512503318488598
 20
-71.6488950443656
 30
0.0
  0
VERTEX
  5
8E
  8
LAYER_1
 10
8.714830913118604
 20
-71.5652950647305
 30
0.0
  0
VERTEX
  5
8F
  8
LAYER_1
 10
8.803814667469396
 20
-71.51629619787325
 30
0.0
  0
VERTEX
  5
90
  8
LAYER_1
 10
8.89652999828528
 20
-71.44468327800945
 30
0.0
  0
VERTEX
  5
91
  8
LAYER_1
 10
8.982003405566154
 20
-71.36007685140272
 30
0.0
  0
VERTEX
  5
92
  8
LAYER_1
 10
9.049261389311923
 20
-71.27209746431662
 30
0.0
  0
VERTEX
  5
93
  8
LAYER_1
 10
9.12594803515194
 20
-71.16614966239725
 30
0.0
  0
VERTEX
  5
94
  8
LAYER_1
 10
9.237093542194357
 20
-71.03261933401677
 30
0.0
  0
VERTEX
  5
95
  8
LAYER_1
 10
9.367803580657318
 20
-70.88859903952783
 30
0.0
  0
VERTEX
  5
96
  8
LAYER_1
 10
9.503183820758963
 20
-70.75118133928311
 30
0.0
  0
VERTEX
  5
97
  8
LAYER_1
 10
9.825003370642662
 20
-70.4398628350284
 30
0.0
  0
VERTEX
  5
98
  8
LAYER_1
 10
9.825003370642662
 20
-68.61670118735053
 30
0.0
  0
VERTEX
  5
99
  8
LAYER_1
 10
9.431253354996443
 20
-68.43718490130223
 30
0.0
  0
VERTEX
  5
9A
  8
LAYER_1
 10
9.207584745461217
 20
-68.35235950598243
 30
0.0
  0
VERTEX
  5
9B
  8
LAYER_1
 10
8.937136346446717
 20
-68.2815031863156
 30
0.0
  0
VERTEX
  5
9C
  8
LAYER_1
 10
8.613620115872973
 20
-68.22324910734358
 30
0.0
  0
VERTEX
  5
9D
  8
LAYER_1
 10
8.230748011660012
 20
-68.17623043410828
 30
0.0
  0
VERTEX
  5
9E
  8
LAYER_1
 10
7.423992683969814
 20
-68.0947922529626
 30
0.0
  0
VERTEX
  5
9F
  8
LAYER_1
 10
7.097588101493542
 20
-67.97404733931889
 30
0.0
  0
VERTEX
  5
A0
  8
LAYER_1
 10
9.285654544569056
 20
-67.87066113284838
 30
0.0
  0
VERTEX
  5
A1
  8
LAYER_1
 10
9.5177715569761
 20
-67.75486591705108
 30
0.0
  0
VERTEX
  5
A2
  8
LAYER_1
 10
9.613773510783156
 20
-67.69744805814794
 30
0.0
  0
VERTEX
  5
A3
  8
LAYER_1
 10
9.690156515941435
 20
-67.63000814767938
 30
0.0
  0
VERTEX
  5
A4
  8
LAYER_1
 10
9.747314558634763
 20
-67.55121306243315
 30
0.0
  0
VERTEX
  5
A5
  8
LAYER_1
 10
9.785641625046962
 20
-67.45972967919698
 30
0.0
  0
VERTEX
  5
A6
  8
LAYER_1
 10
9.805531701361858
 20
-67.35422487475867
 30
0.0
  0
VERTEX
  5
A7
  8
LAYER_1
 10
9.807378773763274
 20
-67.23336552590592
 30
0.0
  0
VERTEX
  5
A8
  8
LAYER_1
 10
9.791576828435034
 20
-67.09581850942655
 30
0.0
  0
VERTEX
  5
A9
  8
LAYER_1
 10
9.758519851560962
 20
-66.94025070210823
 30
0.0
  0
VERTEX
  5
AA
  8
LAYER_1
 10
9.675003364682198
 20
-66.60857665857655
 30
0.0
  0
VERTEX
  5
AB
  8
LAYER_1
 10
9.675003364682198
 20
-63.73831308263996
 30
0.0
  0
VERTEX
  5
AC
  8
LAYER_1
 10
9.746386460210928
 20
-62.86290628278483
 30
0.0
  0
VERTEX
  5
AD
  8
LAYER_1
 10
9.807078394918355
 20
-61.98555622486585
 30
0.0
  0
VERTEX
  5
AE
  8
LAYER_1
 10
9.852757210174573
 20
-61.10547733647419
 30
0.0
  0
VERTEX
  5
AF
  8
LAYER_1
 10
9.887744864609488
 20
-60.22345519001869
 30
0.0
  0
VERTEX
  5
B0
  8
LAYER_1
 10
9.8001241153909
 20
-60.12933314902743
 30
0.0
  0
VERTEX
  5
B1
  8
LAYER_1
 10
9.697932271411917
 20
-59.98376156968213
 30
0.0
  0
VERTEX
  5
B2
  8
LAYER_1
 10
9.575278890109828
 20
-59.76594170243538
 30
0.0
  0
VERTEX
  5
B3
  8
LAYER_1
 10
9.438054414047343
 20
-59.49667229683458
 30
0.0
  0
VERTEX
  5
B4
  8
LAYER_1
 10
9.892674056976048
 20
-58.75782119663261
 30
0.0
  0
VERTEX
  5
B5
  8
LAYER_1
 10
9.717444020147425
 20
-56.66249927133322
 30
0.0
  0
VERTEX
  5
B6
  8
LAYER_1
 10
9.698102555991312
 20
-50.13749901205301
 30
0.0
  0
VERTEX
  5
B7
  8
LAYER_1
 10
9.611235288443524
 20
-49.78124899789691
 30
0.0
  0
VERTEX
  5
B8
  8
LAYER_1
 10
9.575539555840809
 20
-49.59799901937162
 30
0.0
  0
VERTEX
  5
B9
  8
LAYER_1
 10
9.562329436269247
 20
-49.42638485867823
 30
0.0
  0
VERTEX
  5
BA
  8
LAYER_1
 10
9.571476545860188
 20
-49.25558690368376
 30
0.0
  0
VERTEX
  5
BB
  8
LAYER_1
 10
9.602852500744987
 20
-49.07478554225522
 30
0.0
  0
VERTEX
  5
BC
  8
LAYER_1
 10
9.62721804861602
 20
-48.94052540367316
 30
0.0
  0
VERTEX
  5
BD
  8
LAYER_1
 10
9.640658482557416
 20
-48.8066921690948
 30
0.0
  0
VERTEX
  5
BE
  8
LAYER_1
 10
9.643467677242901
 20
-48.67609837965237
 30
0.0
  0
VERTEX
  5
BF
  8
LAYER_1
 10
9.635939507346198
 20
-48.55155657647809
 30
0.0
  0
VERTEX
  5
C0
  8
LAYER_1
 10
9.61836784754103
 20
-48.43587930070417
 30
0.0
  0
VERTEX
  5
C1
  8
LAYER_1
 10
9.59104657250112
 20
-48.33187909346285
 30
0.0
  0
VERTEX
  5
C2
  8
LAYER_1
 10
9.554269556900199
 20
-48.24236849588632
 30
0.0
  0
VERTEX
  5
C3
  8
LAYER_1
 10
9.508330675411983
 20
-48.17016004910681
 30
0.0
  0
VERTEX
  5
C4
  8
LAYER_1
 10
9.48268011550201
 20
-48.10918043790869
 30
0.0
  0
VERTEX
  5
C5
  8
LAYER_1
 10
9.46997675115273
 20
-48.01282133279382
 30
0.0
  0
VERTEX
  5
C6
  8
LAYER_1
 10
9.47081728300325
 20
-47.89200658173762
 30
0.0
  0
VERTEX
  5
C7
  8
LAYER_1
 10
9.48579841169267
 20
-47.75766003271553
 30
0.0
  0
VERTEX
  5
C8
  8
LAYER_1
 10
9.53761793235141
 20
-47.43749890476465
 30
0.0
  0
VERTEX
  5
C9
  8
LAYER_1
 10
9.610963380767515
 20
-44.73749879747629
 30
0.0
  0
VERTEX
  5
CA
  8
LAYER_1
 10
9.48597995540321
 20
-44.2736442624909
 30
0.0
  0
VERTEX
  5
CB
  8
LAYER_1
 10
9.412473491343814
 20
-44.02729020989177
 30
0.0
  0
VERTEX
  5
CC
  8
LAYER_1
 10
9.378080515932677
 20
-43.94138645241932
 30
0.0
  0
VERTEX
  5
CD
  8
LAYER_1
 10
9.341745435822304
 20
-43.87499431703583
 30
0.0
  0
VERTEX
  5
CE
  8
LAYER_1
 10
9.300831544178989
 20
-43.82411088589444
 30
0.0
  0
VERTEX
  5
CF
  8
LAYER_1
 10
9.252702134169024
 20
-43.78473324114833
 30
0.0
  0
VERTEX
  5
D0
  8
LAYER_1
 10
9.194720498958702
 20
-43.75285846495066
 30
0.0
  0
VERTEX
  5
D1
  8
LAYER_1
 10
9.124249931714317
 20
-43.72448363945456
 30
0.0
  0
VERTEX
  5
D2
  8
LAYER_1
 10
8.887503333389759
 20
-43.6391775514036
 30
0.0
  0
VERTEX
  5
D3
  8
LAYER_1
 10
4.387503154575825
 20
-43.50674845916708
 30
0.0
  0
VERTEX
  5
D4
  8
LAYER_1
 10
-12.56249751895666
 20
-43.31249874085188
 30
0.0
  0
VERTEX
  5
D5
  8
LAYER_1
 10
-54.18749917298555
 20
-43.31981052646088
 30
0.0
  0
VERTEX
  5
D6
  8
LAYER_1
 10
-69.187499769032
 20
-43.40737154637893
 30
0.0
  0
VERTEX
  5
D7
  8
LAYER_1
 10
-70.13703274044465
 20
-43.72260029192306
 30
0.0
  0
VERTEX
  5
D8
  8
LAYER_1
 10
-72.30605125530663
 20
-44.78115013919881
 30
0.0
  0
VERTEX
  5
D9
  8
LAYER_1
 10
-72.37802557698936
 20
-44.9704569513153
 30
0.0
  0
VERTEX
  5
DA
  8
LAYER_1
 10
-72.41442199807419
 20
-45.10651724983805
 30
0.0
  0
VERTEX
  5
DB
  8
LAYER_1
 10
-72.43733427835357
 20
-45.28185345713489
 30
0.0
  0
VERTEX
  5
DC
  8
LAYER_1
 10
-72.44707994850143
 20
-45.48842220299524
 30
0.0
  0
VERTEX
  5
DD
  8
LAYER_1
 10
-72.44397653919165
 20
-45.71818011720855
 30
0.0
  0
VERTEX
  5
DE
  8
LAYER_1
 10
-72.42834158109815
 20
-45.96308382956423
 30
0.0
  0
VERTEX
  5
DF
  8
LAYER_1
 10
-72.4004926048949
 20
-46.21508996985172
 30
0.0
  0
VERTEX
  5
E0
  8
LAYER_1
 10
-72.36074714125576
 20
-46.46615516786045
 30
0.0
  0
VERTEX
  5
E1
  8
LAYER_1
 10
-72.30942272085466
 20
-46.70823605337985
 30
0.0
  0
VERTEX
  5
E2
  8
LAYER_1
 10
-72.07224328344347
 20
-47.69999891519547
 30
0.0
  0
VERTEX
  5
E3
  8
LAYER_1
 10
-71.97564102384975
 20
-48.11249893158674
 30
0.0
  0
VERTEX
  5
E4
  8
LAYER_1
 10
-71.98859593411922
 20
-50.8124990388751
 30
0.0
  0
VERTEX
  5
E5
  8
LAYER_1
 10
-72.11170668712398
 20
-51.33285179860293
 30
0.0
  0
VERTEX
  5
E6
  8
LAYER_1
 10
-72.22111629796474
 20
-51.74232276478911
 30
0.0
  0
VERTEX
  5
E7
  8
LAYER_1
 10
-72.27188048844172
 20
-51.8995495760405
 30
0.0
  0
VERTEX
  5
E8
  8
LAYER_1
 10
-72.3112860070433
 20
-51.99608738259765
 30
0.0
  0
VERTEX
  5
E9
  8
LAYER_1
 10
-72.34289032120311
 20
-52.07622573734946
 30
0.0
  0
VERTEX
  5
EA
  8
LAYER_1
 10
-72.35641365880147
 20
-52.16118015949355
 30
0.0
  0
VERTEX
  5
EB
  8
LAYER_1
 10
-72.35294204649415
 20
-52.24762546939313
 30
0.0
  0
VERTEX
  5
EC
  8
LAYER_1
 10
-72.33356151093693
 20
-52.33223648741139
 30
0.0
  0
VERTEX
  5
ED
  8
LAYER_1
 10
-72.29935807878559
 20
-52.41168803391154
 30
0.0
  0
VERTEX
  5
EE
  8
LAYER_1
 10
-72.2514177766959
 20
-52.48265492925677
 30
0.0
  0
VERTEX
  5
EF
  8
LAYER_1
 10
-72.19082663132369
 20
-52.54181199381028
 30
0.0
  0
VERTEX
  5
F0
  8
LAYER_1
 10
-72.11867066932471
 20
-52.58583404793529
 30
0.0
  0
VERTEX
  5
F1
  8
LAYER_1
 10
-72.04273383399833
 20
-52.63051676218095
 30
0.0
  0
VERTEX
  5
F2
  8
LAYER_1
 10
-71.96696055843287
 20
-52.69249665988667
 30
0.0
  0
VERTEX
  5
F3
  8
LAYER_1
 10
-71.90013272886802
 20
-52.76357927542733
 30
0.0
  0
VERTEX
  5
F4
  8
LAYER_1
 10
-71.8510322315435
 20
-52.83557014317779
 30
0.0
  0
VERTEX
  5
F5
  8
LAYER_1
 10
-71.8201444563229
 20
-52.91781368514602
 30
0.0
  0
VERTEX
  5
F6
  8
LAYER_1
 10
-71.81204416740817
 20
-53.00650803395676
 30
0.0
  0
VERTEX
  5
F7
  8
LAYER_1
 10
-71.82672060199378
 20
-53.10163010370259
 30
0.0
  0
VERTEX
  5
F8
  8
LAYER_1
 10
-71.86416299727416
 20
-53.20315680847607
 30
0.0
  0
VERTEX
  5
F9
  8
LAYER_1
 10
-71.92436059044378
 20
-53.31106506236977
 30
0.0
  0
VERTEX
  5
FA
  8
LAYER_1
 10
-72.00730261869708
 20
-53.42533177947627
 30
0.0
  0
VERTEX
  5
FB
  8
LAYER_1
 10
-72.11297831922852
 20
-53.54593387388812
 30
0.0
  0
VERTEX
  5
FC
  8
LAYER_1
 10
-72.24137692923257
 20
-53.6728482596979
 30
0.0
  0
VERTEX
  5
FD
  8
LAYER_1
 10
-72.49426671989946
 20
-53.90819737621257
 30
0.0
  0
VERTEX
  5
FE
  8
LAYER_1
 10
-72.52775917649488
 20
-56.81249927729368
 30
0.0
  0
VERTEX
  5
FF
  8
LAYER_1
 10
-72.42074848174578
 20
-57.22499929368496
 30
0.0
  0
VERTEX
  5
100
  8
LAYER_1
 10
-72.14911447770294
 20
-58.21561549716164
 30
0.0
  0
VERTEX
  5
101
  8
LAYER_1
 10
-71.98449116840919
 20
-58.79373168424705
 30
0.0
  0
VERTEX
  5
102
  8
LAYER_1
 10
-72.37499989569187
 20
-59.81568123777502
 30
0.0
  0
VERTEX
  5
103
  8
LAYER_1
 10
-72.37499989569187
 20
-63.17432089827207
 30
0.0
  0
VERTEX
  5
104
  8
LAYER_1
 10
-72.56566144122702
 20
-63.49966022710873
 30
0.0
  0
VERTEX
  5
105
  8
LAYER_1
 10
-72.64536024832502
 20
-63.6259833883836
 30
0.0
  0
VERTEX
  5
106
  8
LAYER_1
 10
-72.72141870682432
 20
-63.72943112809963
 30
0.0
  0
VERTEX
  5
107
  8
LAYER_1
 10
-72.7852235351327
 20
-63.79932824952937
 30
0.0
  0
VERTEX
  5
108
  8
LAYER_1
 10
-72.80983918746769
 20
-63.81835932940957
 30
0.0
  0
VERTEX
  5
109
  8
LAYER_1
 10
-72.82816145165785
 20
-63.8249995559454
 30
0.0
  0
VERTEX
  5
10A
  8
LAYER_1
 10
-72.85946163582855
 20
-63.83391529747148
 30
0.0
  0
VERTEX
  5
10B
  8
LAYER_1
 10
-72.88171009350248
 20
-63.85957061695956
 30
0.0
  0
VERTEX
  5
10C
  8
LAYER_1
 10
-72.89535249180284
 20
-63.90032765677444
 30
0.0
  0
VERTEX
  5
10D
  8
LAYER_1
 10
-72.90083449785286
 20
-63.95454855928089
 30
0.0
  0
VERTEX
  5
10E
  8
LAYER_1
 10
-72.8891000016946
 20
-64.09683052182773
 30
0.0
  0
VERTEX
  5
10F
  8
LAYER_1
 10
-72.85007194201334
 20
-64.27331364351834
 30
0.0
  0
VERTEX
  5
110
  8
LAYER_1
 10
-72.78731565579471
 20
-64.470895063271
 30
0.0
  0
VERTEX
  5
111
  8
LAYER_1
 10
-72.70439648002434
 20
-64.67647192000405
 30
0.0
  0
VERTEX
  5
112
  8
LAYER_1
 10
-72.60487975168782
 20
-64.87694135263575
 30
0.0
  0
VERTEX
  5
113
  8
LAYER_1
 10
-72.49233080777081
 20
-65.05920050008443
 30
0.0
  0
VERTEX
  5
114
  8
LAYER_1
 10
-72.32493277188573
 20
-65.2828189879517
 30
0.0
  0
VERTEX
  5
115
  8
LAYER_1
 10
-72.1187391103915
 20
-65.53284531506084
 30
0.0
  0
VERTEX
  5
116
  8
LAYER_1
 10
-71.89079068693599
 20
-65.78939543767106
 30
0.0
  0
VERTEX
  5
117
  8
LAYER_1
 10
-71.65812836516699
 20
-66.0325853120415
 30
0.0
  0
VERTEX
  5
118
  8
LAYER_1
 10
-71.56489441568542
 20
-66.13290503804808
 30
0.0
  0
VERTEX
  5
119
  8
LAYER_1
 10
-71.48059851810183
 20
-66.23609261413426
 30
0.0
  0
VERTEX
  5
11A
  8
LAYER_1
 10
-71.4145023536556
 20
-66.33000963409211
 30
0.0
  0
VERTEX
  5
11B
  8
LAYER_1
 10
-71.37586760358612
 20
-66.4025176917136
 30
0.0
  0
VERTEX
  5
11C
  8
LAYER_1
 10
-71.36162535614929
 20
-66.44559210000719
 30
0.0
  0
VERTEX
  5
11D
  8
LAYER_1
 10
-71.35803135654228
 20
-66.47791656940372
 30
0.0
  0
VERTEX
  5
11E
  8
LAYER_1
 10
-71.36857057900389
 20
-66.50031587543879
 30
0.0
  0
VERTEX
  5
11F
  8
LAYER_1
 10
-71.39672799777293
 20
-66.51361479364805
 30
0.0
  0
VERTEX
  5
120
  8
LAYER_1
 10
-71.44598858708824
 20
-66.51863809956711
 30
0.0
  0
VERTEX
  5
121
  8
LAYER_1
 10
-71.51983732118865
 20
-66.51621056873165
 30
0.0
  0
VERTEX
  5
122
  8
LAYER_1
 10
-71.75523912069995
 20
-66.49230209893956
 30
0.0
  0
VERTEX
  5
123
  8
LAYER_1
 10
-72.41249989718199
 20
-66.40434958519509
 30
0.0
  0
VERTEX
  5
124
  8
LAYER_1
 10
-72.5140742321474
 20
-66.39692387507007
 30
0.0
  0
VERTEX
  5
125
  8
LAYER_1
 10
-72.61490326448325
 20
-66.40690201396521
 30
0.0
  0
VERTEX
  5
126
  8
LAYER_1
 10
-72.70681905898553
 20
-66.43276515812015
 30
0.0
  0
VERTEX
  5
127
  8
LAYER_1
 10
-72.78165368045022
 20
-66.47299446377455
 30
0.0
  0
VERTEX
  5
128
  8
LAYER_1
 10
-72.826979690299
 20
-66.5084203278688
 30
0.0
  0
VERTEX
  5
129
  8
LAYER_1
 10
-72.85976377478596
 20
-66.54214083758461
 30
0.0
  0
VERTEX
  5
12A
  8
LAYER_1
 10
-72.88027650223177
 20
-66.57973237700261
 30
0.0
  0
VERTEX
  5
12B
  8
LAYER_1
 10
-72.88878844095714
 20
-66.62677133020355
 30
0.0
  0
VERTEX
  5
12C
  8
LAYER_1
 10
-72.88557015928276
 20
-66.6888340812681
 30
0.0
  0
VERTEX
  5
12D
  8
LAYER_1
 10
-72.87089222552933
 20
-66.77149701427693
 30
0.0
  0
VERTEX
  5
12E
  8
LAYER_1
 10
-72.80823967506808
 20
-67.02092896245021
 30
0.0
  0
VERTEX
  5
12F
  8
LAYER_1
 10
-72.69082574495326
 20
-67.42091329969023
 30
0.0
  0
VERTEX
  5
130
  8
LAYER_1
 10
-72.5736278589504
 20
-67.76249971240759
 30
0.0
  0
VERTEX
  5
131
  8
LAYER_1
 10
-72.4565838225424
 20
-68.06249972432852
 30
0.0
  0
VERTEX
  5
132
  8
LAYER_1
 10
-72.44670559846756
 20
-71.13749984651804
 30
0.0
  0
VERTEX
  5
133
  8
LAYER_1
 10
-72.2960708812817
 20
-71.46953684549351
 30
0.0
  0
VERTEX
  5
134
  8
LAYER_1
 10
-72.24131400884988
 20
-71.58032355489752
 30
0.0
  0
VERTEX
  5
135
  8
LAYER_1
 10
-72.18227374846995
 20
-71.68023770767664
 30
0.0
  0
VERTEX
  5
136
  8
LAYER_1
 10
-72.11831513086901
 20
-71.76994143873057
 30
0.0
  0
VERTEX
  5
137
  8
LAYER_1
 10
-72.04880318677415
 20
-71.85009688295895
 30
0.0
  0
VERTEX
  5
138
  8
LAYER_1
 10
-71.97310294691245
 20
-71.92136617526148
 30
0.0
  0
VERTEX
  5
139
  8
LAYER_1
 10
-71.89057944201099
 20
-71.98441145053783
 30
0.0
  0
VERTEX
  5
13A
  8
LAYER_1
 10
-71.80059770279688
 20
-72.0398948436877
 30
0.0
  0
SEQEND
  5
E9A
  8
LAYER_1
  0
POLYLINE
  5
71
  8
LAYER_1
 66
     1
 10
0.0
 20
0.0
 30
0.0
 70
     1
  0
VERTEX
  5
13B
  8
LAYER_1
 10
24.63750395923853
 20
-67.94719979136865
 30
0.0
  0
VERTEX
  5
13C
  8
LAYER_1
 10
25.2750039845705
 20
-67.96939660616371
 30
0.0
  0
VERTEX
  5
13D
  8
LAYER_1
 10
25.96758213709109
 20
-67.97746954925543
 30
0.0
  0
VERTEX
  5
13E
  8
LAYER_1
 10
26.73750404268503
 20
-67.96570897038072
 30
0.0
  0
VERTEX
  5
13F
  8
LAYER_1
 10
27.56250407546759
 20
-67.93982451980264
 30
0.0
  0
VERTEX
  5
140
  8
LAYER_1
 10
33.03750429302454
 20
-67.54176832984648
 30
0.0
  0
VERTEX
  5
141
  8
LAYER_1
 10
49.98750496655703
 20
-67.53749970346689
 30
0.0
  0
VERTEX
  5
142
  8
LAYER_1
 10
53.13750509172678
 20
-67.87847482982654
 30
0.0
  0
VERTEX
  5
143
  8
LAYER_1
 10
71.88750583678484
 20
-67.83749971538782
 30
0.0
  0
VERTEX
  5
144
  8
LAYER_1
 10
72.01658707281229
 20
-67.573718201256
 30
0.0
  0
VERTEX
  5
145
  8
LAYER_1
 10
72.07344382918535
 20
-67.4299721209773
 30
0.0
  0
VERTEX
  5
146
  8
LAYER_1
 10
72.13283076203382
 20
-67.23358019248447
 30
0.0
  0
VERTEX
  5
147
  8
LAYER_1
 10
72.18771089653552
 20
-67.0103822605543
 30
0.0
  0
VERTEX
  5
148
  8
LAYER_1
 10
72.23104725786831
 20
-66.78621816996356
 30
0.0
  0
VERTEX
  5
149
  8
LAYER_1
 10
72.31642620689689
 20
-66.26249965280294
 30
0.0
  0
VERTEX
  5
14A
  8
LAYER_1
 10
72.43348852121517
 20
-52.76249911636114
 30
0.0
  0
VERTEX
  5
14B
  8
LAYER_1
 10
72.5218149855406
 20
-52.46249910444021
 30
0.0
  0
VERTEX
  5
14C
  8
LAYER_1
 10
72.59885168206813
 20
-50.69999903440475
 30
0.0
  0
VERTEX
  5
14D
  8
LAYER_1
 10
72.74716700495125
 20
-47.62499891221523
 30
0.0
  0
VERTEX
  5
14E
  8
LAYER_1
 10
72.81844563130682
 20
-46.31249886006117
 30
0.0
  0
VERTEX
  5
14F
  8
LAYER_1
 10
72.63434127708663
 20
-45.48749882727861
 30
0.0
  0
VERTEX
  5
150
  8
LAYER_1
 10
70.76250579208136
 20
-45.3869892810944
 30
0.0
  0
VERTEX
  5
151
  8
LAYER_1
 10
52.61250507086515
 20
-45.22971171368779
 30
0.0
  0
VERTEX
  5
152
  8
LAYER_1
 10
48.82951107564763
 20
-44.81619249232681
 30
0.0
  0
VERTEX
  5
153
  8
LAYER_1
 10
43.23750469833612
 20
-45.22951124205889
 30
0.0
  0
VERTEX
  5
154
  8
LAYER_1
 10
40.76250459998846
 20
-45.40163763585699
 30
0.0
  0
VERTEX
  5
155
  8
LAYER_1
 10
12.86250349134207
 20
-45.44864840612783
 30
0.0
  0
VERTEX
  5
156
  8
LAYER_1
 10
12.69712608770431
 20
-45.4874060501346
 30
0.0
  0
VERTEX
  5
157
  8
LAYER_1
 10
12.61747155833226
 20
-45.52269987736734
 30
0.0
  0
VERTEX
  5
158
  8
LAYER_1
 10
12.5228427941916
 20
-45.59014601492521
 30
0.0
  0
VERTEX
  5
159
  8
LAYER_1
 10
12.4250874942438
 20
-45.68005403105614
 30
0.0
  0
VERTEX
  5
15A
  8
LAYER_1
 10
12.33605335745031
 20
-45.78273349400803
 30
0.0
  0
VERTEX
  5
15B
  8
LAYER_1
 10
12.27777705714531
 20
-45.87101121258904
 30
0.0
  0
VERTEX
  5
15C
  8
LAYER_1
 10
12.22353674950694
 20
-45.97937612154337
 30
0.0
  0
VERTEX
  5
15D
  8
LAYER_1
 10
12.17299348262193
 20
-46.11071993376238
 30
0.0
  0
VERTEX
  5
15E
  8
LAYER_1
 10
12.12580830457705
 20
-46.26793436213745
 30
0.0
  0
VERTEX
  5
15F
  8
LAYER_1
 10
12.08164226345905
 20
-46.45391111955994
 30
0.0
  0
VERTEX
  5
160
  8
LAYER_1
 10
12.04015640735467
 20
-46.67154191892121
 30
0.0
  0
VERTEX
  5
161
  8
LAYER_1
 10
11.96386944253379
 20
-47.21333249502553
 30
0.0
  0
VERTEX
  5
162
  8
LAYER_1
 10
11.89423579480843
 20
-47.9164397935813
 30
0.0
  0
VERTEX
  5
163
  8
LAYER_1
 10
11.82854384887259
 20
-48.80399751771944
 30
0.0
  0
VERTEX
  5
164
  8
LAYER_1
 10
11.76408198942029
 20
-49.89913937057084
 30
0.0
  0
VERTEX
  5
165
  8
LAYER_1
 10
11.69813860114553
 20
-51.22499905526638
 30
0.0
  0
VERTEX
  5
166
  8
LAYER_1
 10
11.62292053942052
 20
-52.83749911934137
 30
0.0
  0
VERTEX
  5
167
  8
LAYER_1
 10
11.4017198273789
 20
-58.61249934881926
 30
0.0
  0
VERTEX
  5
168
  8
LAYER_1
 10
11.40422065669792
 20
-62.73749951273203
 30
0.0
  0
VERTEX
  5
169
  8
LAYER_1
 10
11.61390555110785
 20
-65.66249962896109
 30
0.0
  0
VERTEX
  5
16A
  8
LAYER_1
 10
11.74121397884907
 20
-66.22499965131283
 30
0.0
  0
VERTEX
  5
16B
  8
LAYER_1
 10
11.79821156389893
 20
-66.45591066500684
 30
0.0
  0
VERTEX
  5
16C
  8
LAYER_1
 10
11.85990269705303
 20
-66.66695064059104
 30
0.0
  0
VERTEX
  5
16D
  8
LAYER_1
 10
11.92544602883746
 20
-66.85627058729298
 30
0.0
  0
VERTEX
  5
16E
  8
LAYER_1
 10
11.99400020977834
 20
-67.02202151434024
 30
0.0
  0
VERTEX
  5
16F
  8
LAYER_1
 10
12.06472389040178
 20
-67.16235443096036
 30
0.0
  0
VERTEX
  5
170
  8
LAYER_1
 10
12.13677572123388
 20
-67.27542034638095
 30
0.0
  0
VERTEX
  5
171
  8
LAYER_1
 10
12.20931435280075
 20
-67.35937026982955
 30
0.0
  0
VERTEX
  5
172
  8
LAYER_1
 10
12.28149843562851
 20
-67.41235521053375
 30
0.0
  0
VERTEX
  5
173
  8
LAYER_1
 10
12.41250347346067
 20
-67.47972608390437
 30
0.0
  0
VERTEX
  5
174
  8
LAYER_1
 10
15.56250359863043
 20
-67.52496729734226
 30
0.0
  0
VERTEX
  5
175
  8
LAYER_1
 10
17.10430873298891
 20
-67.55671600181793
 30
0.0
  0
VERTEX
  5
176
  8
LAYER_1
 10
18.66397352519297
 20
-67.60728672683587
 30
0.0
  0
VERTEX
  5
177
  8
LAYER_1
 10
20.20102841483799
 20
-67.67513195054003
 30
0.0
  0
VERTEX
  5
178
  8
LAYER_1
 10
21.67500384151936
 20
-67.75870415107438
 30
0.0
  0
SEQEND
  5
E9B
  8
LAYER_1
  0
POLYLINE
  5
72
  8
LAYER_1
 66
     1
 10
0.0
 20
0.0
 30
0.0
 70
     1
  0
VERTEX
  5
179
  8
LAYER_1
 10
47.70916092406206
 20
-35.88749844580889
 30
0.0
  0
VERTEX
  5
17A
  8
LAYER_1
 10
47.70000487565994
 20
-42.29999870061874
 30
0.0
  0
VERTEX
  5
17B
  8
LAYER_1
 10
50.7090221473082
 20
-42.29999870061874
 30
0.0
  0
VERTEX
  5
17C
  8
LAYER_1
 10
50.62619818791272
 20
-39.03749857097864
 30
0.0
  0
VERTEX
  5
17D
  8
LAYER_1
 10
50.53987920619143
 20
-29.30506423636326
 30
0.0
  0
VERTEX
  5
17E
  8
LAYER_1
 10
50.80592496313025
 20
-29.40715557233982
 30
0.0
  0
VERTEX
  5
17F
  8
LAYER_1
 10
51.70921501699769
 20
-29.55247080689081
 30
0.0
  0
VERTEX
  5
180
  8
LAYER_1
 10
53.1750050932169
 20
-29.78967963351373
 30
0.0
  0
VERTEX
  5
181
  8
LAYER_1
 10
53.73750511556864
 20
-29.88157322558565
 30
0.0
  0
VERTEX
  5
182
  8
LAYER_1
 10
54.97500516474247
 20
-29.88453571648799
 30
0.0
  0
VERTEX
  5
183
  8
LAYER_1
 10
55.42229427350232
 20
-29.88749903455242
 30
0.0
  0
VERTEX
  5
184
  8
LAYER_1
 10
55.75456907089365
 20
-29.88623026873512
 30
0.0
  0
VERTEX
  5
185
  8
LAYER_1
 10
56.01528381033449
 20
-29.86922070925849
 30
0.0
  0
VERTEX
  5
186
  8
LAYER_1
 10
56.13238561251661
 20
-29.85121666009243
 30
0.0
  0
VERTEX
  5
187
  8
LAYER_1
 10
56.24789274524287
 20
-29.82496164634492
 30
0.0
  0
VERTEX
  5
188
  8
LAYER_1
 10
56.49585012903685
 20
-29.74194437021682
 30
0.0
  0
VERTEX
  5
189
  8
LAYER_1
 10
56.80261021513448
 20
-29.60866017109657
 30
0.0
  0
VERTEX
  5
18A
  8
LAYER_1
 10
57.76635550791281
 20
-29.14525616476922
 30
0.0
  0
VERTEX
  5
18B
  8
LAYER_1
 10
58.01549057807973
 20
-29.03454262348084
 30
0.0
  0
VERTEX
  5
18C
  8
LAYER_1
 10
58.27908075966759
 20
-28.93258057202936
 30
0.0
  0
VERTEX
  5
18D
  8
LAYER_1
 10
58.52570521022741
 20
-28.85069217857608
 30
0.0
  0
VERTEX
  5
18E
  8
LAYER_1
 10
58.7239430873102
 20
-28.80019961128227
 30
0.0
  0
VERTEX
  5
18F
  8
LAYER_1
 10
59.12047878717593
 20
-28.72499816119671
 30
0.0
  0
VERTEX
  5
190
  8
LAYER_1
 10
60.99510247005094
 20
-28.72499816119671
 30
0.0
  0
VERTEX
  5
191
  8
LAYER_1
 10
61.29014948973688
 20
-28.63659992395798
 30
0.0
  0
VERTEX
  5
192
  8
LAYER_1
 10
61.41557128510892
 20
-28.589897887939
 30
0.0
  0
VERTEX
  5
193
  8
LAYER_1
 10
61.5288999904502
 20
-28.52937305277184
 30
0.0
  0
VERTEX
  5
194
  8
LAYER_1
 10
61.62870860767271
 20
-28.45665824826988
 30
0.0
  0
VERTEX
  5
195
  8
LAYER_1
 10
61.71357013868845
 20
-28.37338630424652
 30
0.0
  0
VERTEX
  5
196
  8
LAYER_1
 10
61.78205758540944
 20
-28.28119005051513
 30
0.0
  0
VERTEX
  5
197
  8
LAYER_1
 10
61.83274394974766
 20
-28.18170231688909
 30
0.0
  0
VERTEX
  5
198
  8
LAYER_1
 10
61.86420223361512
 20
-28.0765559331818
 30
0.0
  0
VERTEX
  5
199
  8
LAYER_1
 10
61.87500543892384
 20
-27.96738372920664
 30
0.0
  0
VERTEX
  5
19A
  8
LAYER_1
 10
61.8595824797503
 20
-27.86710444463841
 30
0.0
  0
VERTEX
  5
19B
  8
LAYER_1
 10
61.81353517285613
 20
-27.75805286158029
 30
0.0
  0
VERTEX
  5
19C
  8
LAYER_1
 10
61.73719587418097
 20
-27.64058403592231
 30
0.0
  0
VERTEX
  5
19D
  8
LAYER_1
 10
61.63089693966444
 20
-27.5150530235545
 30
0.0
  0
VERTEX
  5
19E
  8
LAYER_1
 10
61.49497072524619
 20
-27.38181488036691
 30
0.0
  0
VERTEX
  5
19F
  8
LAYER_1
 10
61.32974958686586
 20
-27.24122466224956
 30
0.0
  0
VERTEX
  5
1A0
  8
LAYER_1
 10
61.13556588046309
 20
-27.0936374250925
 30
0.0
  0
VERTEX
  5
1A1
  8
LAYER_1
 10
60.91275196197751
 20
-26.93940822478576
 30
0.0
  0
VERTEX
  5
1A2
  8
LAYER_1
 10
60.62308562076889
 20
-26.7339941811424
 30
0.0
  0
VERTEX
  5
1A3
  8
LAYER_1
 10
60.32572021186284
 20
-26.50026430979093
 30
0.0
  0
VERTEX
  5
1A4
  8
LAYER_1
 10
60.0348843044849
 20
-26.25190369274607
 30
0.0
  0
VERTEX
  5
1A5
  8
LAYER_1
 10
59.76480646786058
 20
-26.0025974120225
 30
0.0
  0
VERTEX
  5
1A6
  8
LAYER_1
 10
59.5297152712154
 20
-25.76603054963492
 30
0.0
  0
VERTEX
  5
1A7
  8
LAYER_1
 10
59.34383928377489
 20
-25.55588818759803
 30
0.0
  0
VERTEX
  5
1A8
  8
LAYER_1
 10
59.27380342138936
 20
-25.46500278234069
 30
0.0
  0
VERTEX
  5
1A9
  8
LAYER_1
 10
59.22140707476456
 20
-25.38585540792653
 30
0.0
  0
VERTEX
  5
1AA
  8
LAYER_1
 10
59.18842881505368
 20
-25.3201566996074
 30
0.0
  0
VERTEX
  5
1AB
  8
LAYER_1
 10
59.17664721340992
 20
-25.26961729263512
 30
0.0
  0
VERTEX
  5
1AC
  8
LAYER_1
 10
59.18313006673469
 20
-25.24165671324395
 30
0.0
  0
VERTEX
  5
1AD
  8
LAYER_1
 10
59.20261559734922
 20
-25.21005601906326
 30
0.0
  0
VERTEX
  5
1AE
  8
LAYER_1
 10
59.27649212085811
 20
-25.13914589367029
 30
0.0
  0
VERTEX
  5
1AF
  8
LAYER_1
 10
59.39007164475761
 20
-25.06331013113012
 30
0.0
  0
VERTEX
  5
1B0
  8
LAYER_1
 10
59.53514902986879
 20
-24.98897194611671
 30
0.0
  0
VERTEX
  5
1B1
  8
LAYER_1
 10
59.69480602489213
 20
-24.90649238864365
 30
0.0
  0
VERTEX
  5
1B2
  8
LAYER_1
 10
59.86328567600182
 20
-24.80224025430827
 30
0.0
  0
VERTEX
  5
1B3
  8
LAYER_1
 10
60.020528808821
 20
-24.68957414464701
 30
0.0
  0
VERTEX
  5
1B4
  8
LAYER_1
 10
60.14647624897282
 20
-24.58185266119634
 30
0.0
  0
VERTEX
  5
1B5
  8
LAYER_1
 10
60.23885361518212
 20
-24.48170478501503
 30
0.0
  0
VERTEX
  5
1B6
  8
LAYER_1
 10
60.33100353161785
 20
-24.36322612013419
 30
0.0
  0
VERTEX
  5
1B7
  8
LAYER_1
 10
60.41925156356841
 20
-24.23300895545198
 30
0.0
  0
VERTEX
  5
1B8
  8
LAYER_1
 10
60.49992327632221
 20
-24.09764557986655
 30
0.0
  0
VERTEX
  5
1B9
  8
LAYER_1
 10
60.56934423516763
 20
-23.96372828227607
 30
0.0
  0
VERTEX
  5
1BA
  8
LAYER_1
 10
60.62384000539311
 20
-23.83784935157871
 30
0.0
  0
VERTEX
  5
1BB
  8
LAYER_1
 10
60.65973615228703
 20
-23.72660107667262
 30
0.0
  0
VERTEX
  5
1BC
  8
LAYER_1
 10
60.67335824113781
 20
-23.63657574645597
 30
0.0
  0
VERTEX
  5
1BD
  8
LAYER_1
 10
60.66736744683898
 20
-23.57762699505658
 30
0.0
  0
VERTEX
  5
1BE
  8
LAYER_1
 10
60.64774649903158
 20
-23.514691485124
 30
0.0
  0
VERTEX
  5
1BF
  8
LAYER_1
 10
60.61480707735767
 20
-23.44802511522961
 30
0.0
  0
VERTEX
  5
1C0
  8
LAYER_1
 10
60.56886086145927
 20
-23.37788378394475
 30
0.0
  0
VERTEX
  5
1C1
  8
LAYER_1
 10
60.43919476555723
 20
-23.22819983148908
 30
0.0
  0
VERTEX
  5
1C2
  8
LAYER_1
 10
60.26124164846183
 20
-23.06768681632788
 30
0.0
  0
VERTEX
  5
1C3
  8
LAYER_1
 10
60.03749494730944
 20
-22.89839192703202
 30
0.0
  0
VERTEX
  5
1C4
  8
LAYER_1
 10
59.77044809923643
 20
-22.72236235217239
 30
0.0
  0
VERTEX
  5
1C5
  8
LAYER_1
 10
59.46259454137918
 20
-22.54164528031987
 30
0.0
  0
VERTEX
  5
1C6
  8
LAYER_1
 10
59.11642771087404
 20
-22.35828790004533
 30
0.0
  0
VERTEX
  5
1C7
  8
LAYER_1
 10
58.87624468181016
 20
-22.23147140494527
 30
0.0
  0
VERTEX
  5
1C8
  8
LAYER_1
 10
58.63822377944426
 20
-22.09453140941602
 30
0.0
  0
VERTEX
  5
1C9
  8
LAYER_1
 10
58.40182040070925
 20
-21.94708805428005
 30
0.0
  0
VERTEX
  5
1CA
  8
LAYER_1
 10
58.16648994253806
 20
-21.78876148035984
 30
0.0
  0
VERTEX
  5
1CB
  8
LAYER_1
 10
57.93168780186357
 20
-21.61917182847788
 30
0.0
  0
VERTEX
  5
1CC
  8
LAYER_1
 10
57.6968693756187
 20
-21.43793923945665
 30
0.0
  0
VERTEX
  5
1CD
  8
LAYER_1
 10
57.46149006073635
 20
-21.24468385411864
 30
0.0
  0
VERTEX
  5
1CE
  8
LAYER_1
 10
57.22500525414944
 20
-21.03902581328632
 30
0.0
  0
VERTEX
  5
1CF
  8
LAYER_1
 10
56.73961460986175
 20
-20.62543473313779
 30
0.0
  0
VERTEX
  5
1D0
  8
LAYER_1
 10
56.52337436689413
 20
-20.45402722379281
 30
0.0
  0
VERTEX
  5
1D1
  8
LAYER_1
 10
56.36250521987677
 20
-20.33692849270926
 30
0.0
  0
VERTEX
  5
1D2
  8
LAYER_1
 10
56.18926157650101
 20
-20.21995566509681
 30
0.0
  0
VERTEX
  5
1D3
  8
LAYER_1
 10
56.05799259846755
 20
-20.12391578777942
 30
0.0
  0
VERTEX
  5
1D4
  8
LAYER_1
 10
55.96363512542536
 20
-20.04040481076192
 30
0.0
  0
VERTEX
  5
1D5
  8
LAYER_1
 10
55.9011259970234
 20
-19.96101868404911
 30
0.0
  0
VERTEX
  5
1D6
  8
LAYER_1
 10
55.86540205291067
 20
-19.87735335764582
 30
0.0
  0
VERTEX
  5
1D7
  8
LAYER_1
 10
55.85140013273615
 20
-19.78100478155684
 30
0.0
  0
VERTEX
  5
1D8
  8
LAYER_1
 10
55.85405707614881
 20
-19.66356890578701
 30
0.0
  0
VERTEX
  5
1D9
  8
LAYER_1
 10
55.86830972279762
 20
-19.51664168034113
 30
0.0
  0
VERTEX
  5
1DA
  8
LAYER_1
 10
55.91250520199537
 20
-19.12078554966285
 30
0.0
  0
VERTEX
  5
1DB
  8
LAYER_1
 10
56.3210387439243
 20
-19.42834127637727
 30
0.0
  0
VERTEX
  5
1DC
  8
LAYER_1
 10
56.5088578309787
 20
-19.56419189389245
 30
0.0
  0
VERTEX
  5
1DD
  8
LAYER_1
 10
56.69394803932895
 20
-19.6869694692001
 30
0.0
  0
VERTEX
  5
1DE
  8
LAYER_1
 10
56.87610653534454
 20
-19.79662818476233
 30
0.0
  0
VERTEX
  5
1DF
  8
LAYER_1
 10
57.05513048539491
 20
-19.89312222304124
 30
0.0
  0
VERTEX
  5
1E0
  8
LAYER_1
 10
57.23081705584953
 20
-19.97640576649892
 30
0.0
  0
VERTEX
  5
1E1
  8
LAYER_1
 10
57.40296341307786
 20
-20.04643299759748
 30
0.0
  0
VERTEX
  5
1E2
  8
LAYER_1
 10
57.57136672344936
 20
-20.10315809879904
 30
0.0
  0
VERTEX
  5
1E3
  8
LAYER_1
 10
57.73582415333347
 20
-20.14653525256568
 30
0.0
  0
VERTEX
  5
1E4
  8
LAYER_1
 10
57.89613286909967
 20
-20.17651864135951
 30
0.0
  0
VERTEX
  5
1E5
  8
LAYER_1
 10
58.05209003711741
 20
-20.19306244764263
 30
0.0
  0
VERTEX
  5
1E6
  8
LAYER_1
 10
58.20349282375614
 20
-20.19612085387715
 30
0.0
  0
VERTEX
  5
1E7
  8
LAYER_1
 10
58.35013839538533
 20
-20.18564804252517
 30
0.0
  0
VERTEX
  5
1E8
  8
LAYER_1
 10
58.49182391837445
 20
-20.1615981960488
 30
0.0
  0
VERTEX
  5
1E9
  8
LAYER_1
 10
58.62834655909293
 20
-20.12392549691013
 30
0.0
  0
VERTEX
  5
1EA
  8
LAYER_1
 10
58.75950348391024
 20
-20.07258412757126
 30
0.0
  0
VERTEX
  5
1EB
  8
LAYER_1
 10
58.88509185919585
 20
-20.00752827049431
 30
0.0
  0
VERTEX
  5
1EC
  8
LAYER_1
 10
59.03574624761588
 20
-19.91056324643902
 30
0.0
  0
VERTEX
  5
1ED
  8
LAYER_1
 10
59.18116225920247
 20
-19.80047376370866
 30
0.0
  0
VERTEX
  5
1EE
  8
LAYER_1
 10
59.3178262113403
 20
-19.68105446554358
 30
0.0
  0
VERTEX
  5
1EF
  8
LAYER_1
 10
59.44222442141407
 20
-19.55609999518417
 30
0.0
  0
VERTEX
  5
1F0
  8
LAYER_1
 10
59.55084320680843
 20
-19.42940499587079
 30
0.0
  0
VERTEX
  5
1F1
  8
LAYER_1
 10
59.64016888490808
 20
-19.30476411084381
 30
0.0
  0
VERTEX
  5
1F2
  8
LAYER_1
 10
59.70668777309768
 20
-19.1859719833436
 30
0.0
  0
VERTEX
  5
1F3
  8
LAYER_1
 10
59.74688618876192
 20
-19.07682325661052
 30
0.0
  0
VERTEX
  5
1F4
  8
LAYER_1
 10
59.7674360155811
 20
-18.92373297453317
 30
0.0
  0
VERTEX
  5
1F5
  8
LAYER_1
 10
59.77367471606303
 20
-18.70456826287882
 30
0.0
  0
VERTEX
  5
1F6
  8
LAYER_1
 10
59.76730846610329
 20
-18.44152917868425
 30
0.0
  0
VERTEX
  5
1F7
  8
LAYER_1
 10
59.75004344159746
 20
-18.15681577898621
 30
0.0
  0
VERTEX
  5
1F8
  8
LAYER_1
 10
59.72358581844114
 20
-17.87262812082147
 30
0.0
  0
VERTEX
  5
1F9
  8
LAYER_1
 10
59.6896417725299
 20
-17.61116626122681
 30
0.0
  0
VERTEX
  5
1FA
  8
LAYER_1
 10
59.64991747975932
 20
-17.39463025723899
 30
0.0
  0
VERTEX
  5
1FB
  8
LAYER_1
 10
59.60611911602501
 20
-17.24522016589478
 30
0.0
  0
VERTEX
  5
1FC
  8
LAYER_1
 10
59.51413599844979
 20
-16.97772467076625
 30
0.0
  0
VERTEX
  5
1FD
  8
LAYER_1
 10
59.44404838985417
 20
-16.69650535466769
 30
0.0
  0
VERTEX
  5
1FE
  8
LAYER_1
 10
59.4160815620443
 20
-16.52964973077536
 30
0.0
  0
VERTEX
  5
1FF
  8
LAYER_1
 10
59.41436333261829
 20
-16.47987552958358
 30
0.0
  0
VERTEX
  5
200
  8
LAYER_1
 10
59.42324206507932
 20
-16.4488379343878
 30
0.0
  0
VERTEX
  5
201
  8
LAYER_1
 10
59.44453288860322
 20
-16.43376259430782
 30
0.0
  0
VERTEX
  5
202
  8
LAYER_1
 10
59.4800509323658
 20
-16.43187515846346
 30
0.0
  0
VERTEX
  5
203
  8
LAYER_1
 10
59.60102919731031
 20
-16.45656659596082
 30
0.0
  0
VERTEX
  5
204
  8
LAYER_1
 10
59.86054048944538
 20
-16.50437672263175
 30
0.0
  0
VERTEX
  5
205
  8
LAYER_1
 10
60.18750537186861
 20
-16.54763221072479
 30
0.0
  0
VERTEX
  5
206
  8
LAYER_1
 10
60.4004685976759
 20
-16.5629907977469
 30
0.0
  0
VERTEX
  5
207
  8
LAYER_1
 10
60.47949876998484
 20
-16.55817792956147
 30
0.0
  0
VERTEX
  5
208
  8
LAYER_1
 10
60.54834865430942
 20
-16.54231241045602
 30
0.0
  0
VERTEX
  5
209
  8
LAYER_1
 10
60.61310875495872
 20
-16.51335083308877
 30
0.0
  0
VERTEX
  5
20A
  8
LAYER_1
 10
60.67986957624181
 20
-16.46924979011794
 30
0.0
  0
VERTEX
  5
20B
  8
LAYER_1
 10
60.84375539794564
 20
-16.32745567799844
 30
0.0
  0
VERTEX
  5
20C
  8
LAYER_1
 10
60.95549066388355
 20
-16.21699578531745
 30
0.0
  0
VERTEX
  5
20D
  8
LAYER_1
 10
61.03667897222847
 20
-16.11802059870952
 30
0.0
  0
VERTEX
  5
20E
  8
LAYER_1
 10
61.08760504178687
 20
-16.02638042457254
 30
0.0
  0
VERTEX
  5
20F
  8
LAYER_1
 10
61.1085535913652
 20
-15.93792556930438
 30
0.0
  0
VERTEX
  5
210
  8
LAYER_1
 10
61.09980933976993
 20
-15.84850633930295
 30
0.0
  0
VERTEX
  5
211
  8
LAYER_1
 10
61.06165700580754
 20
-15.75397304096613
 30
0.0
  0
VERTEX
  5
212
  8
LAYER_1
 10
60.99438130828447
 20
-15.6501759806918
 30
0.0
  0
VERTEX
  5
213
  8
LAYER_1
 10
60.89826696600718
 20
-15.53296546487786
 30
0.0
  0
VERTEX
  5
214
  8
LAYER_1
 10
60.78384445640289
 20
-15.37835634352978
 30
0.0
  0
VERTEX
  5
215
  8
LAYER_1
 10
60.6381393041852
 20
-15.14554941961826
 30
0.0
  0
VERTEX
  5
216
  8
LAYER_1
 10
60.47987126595088
 20
-14.86609177783422
 30
0.0
  0
VERTEX
  5
217
  8
LAYER_1
 10
60.32776009829666
 20
-14.57153050286858
 30
0.0
  0
VERTEX
  5
218
  8
LAYER_1
 10
60.16046183380671
 20
-14.23709289111964
 30
0.0
  0
VERTEX
  5
219
  8
LAYER_1
 10
60.01841025189208
 20
-13.97459822142082
 30
0.0
  0
VERTEX
  5
21A
  8
LAYER_1
 10
59.8925892542113
 20
-13.77460749547921
 30
0.0
  0
VERTEX
  5
21B
  8
LAYER_1
 10
59.7739827424229
 20
-13.62768171500192
 30
0.0
  0
VERTEX
  5
21C
  8
LAYER_1
 10
59.71456738800664
 20
-13.57116849234588
 30
0.0
  0
VERTEX
  5
21D
  8
LAYER_1
 10
59.65357461818542
 20
-13.52438188169608
 30
0.0
  0
VERTEX
  5
21E
  8
LAYER_1
 10
59.58987742066655
 20
-13.48614200826592
 30
0.0
  0
VERTEX
  5
21F
  8
LAYER_1
 10
59.52234878315736
 20
-13.45526899726878
 30
0.0
  0
VERTEX
  5
220
  8
LAYER_1
 10
59.37128913899727
 20
-13.41090406342714
 30
0.0
  0
VERTEX
  5
221
  8
LAYER_1
 10
59.19137958736366
 20
-13.38184808187825
 30
0.0
  0
VERTEX
  5
222
  8
LAYER_1
 10
58.96042278546825
 20
-13.34659805038199
 30
0.0
  0
VERTEX
  5
223
  8
LAYER_1
 10
58.73583123114724
 20
-13.29844879753255
 30
0.0
  0
VERTEX
  5
224
  8
LAYER_1
 10
58.51386692610255
 20
-13.23596018892741
 30
0.0
  0
VERTEX
  5
225
  8
LAYER_1
 10
58.29079187203609
 20
-13.15769209016401
 30
0.0
  0
VERTEX
  5
226
  8
LAYER_1
 10
58.06286807064977
 20
-13.0622043668398
 30
0.0
  0
VERTEX
  5
227
  8
LAYER_1
 10
57.82635752364551
 20
-12.94805688455226
 30
0.0
  0
VERTEX
  5
228
  8
LAYER_1
 10
57.57752223272525
 20
-12.81380950889883
 30
0.0
  0
VERTEX
  5
229
  8
LAYER_1
 10
57.31262419959089
 20
-12.65802210547697
 30
0.0
  0
VERTEX
  5
22A
  8
LAYER_1
 10
56.66340985525866
 20
-12.26249750703573
 30
0.0
  0
VERTEX
  5
22B
  8
LAYER_1
 10
56.55045753905785
 20
-12.17017152857007
 30
0.0
  0
VERTEX
  5
22C
  8
LAYER_1
 10
56.28750521689653
 20
-11.96630677335943
 30
0.0
  0
VERTEX
  5
22D
  8
LAYER_1
 10
56.20669638188694
 20
-11.90317480179446
 30
0.0
  0
VERTEX
  5
22E
  8
LAYER_1
 10
56.18840802951006
 20
-11.88331156413191
 30
0.0
  0
VERTEX
  5
22F
  8
LAYER_1
 10
56.18562421570453
 20
-11.86962882143635
 30
0.0
  0
VERTEX
  5
230
  8
LAYER_1
 10
56.19891531183487
 20
-11.86091057087305
 30
0.0
  0
VERTEX
  5
231
  8
LAYER_1
 10
56.22885168926564
 20
-11.85594080960729
 30
0.0
  0
VERTEX
  5
232
  8
LAYER_1
 10
56.34094177348663
 20
-11.85238274362945
 30
0.0
  0
VERTEX
  5
233
  8
LAYER_1
 10
56.4476945376103
 20
-11.86330671821465
 30
0.0
  0
VERTEX
  5
234
  8
LAYER_1
 10
56.59363980970302
 20
-11.89486952828493
 30
0.0
  0
VERTEX
  5
235
  8
LAYER_1
 10
56.94776241699458
 20
-12.00104317554146
 30
0.0
  0
VERTEX
  5
236
  8
LAYER_1
 10
57.12826702179293
 20
-12.0662197730581
 30
0.0
  0
VERTEX
  5
237
  8
LAYER_1
 10
57.29261867375932
 20
-12.13316672672058
 30
0.0
  0
VERTEX
  5
238
  8
LAYER_1
 10
57.42698100769352
 20
-12.19716691669409
 30
0.0
  0
VERTEX
  5
239
  8
LAYER_1
 10
57.51751765839526
 20
-12.25350322314382
 30
0.0
  0
VERTEX
  5
23A
  8
LAYER_1
 10
57.59734962053506
 20
-12.2859633612843
 30
0.0
  0
VERTEX
  5
23B
  8
LAYER_1
 10
57.73708527907684
 20
-12.31257840932607
 30
0.0
  0
VERTEX
  5
23C
  8
LAYER_1
 10
57.9170371332383
 20
-12.3305995133308
 30
0.0
  0
VERTEX
  5
23D
  8
LAYER_1
 10
58.11751768223712
 20
-12.33727781936015
 30
0.0
  0
VERTEX
  5
23E
  8
LAYER_1
 10
58.38688472781554
 20
-12.32946529454543
 30
0.0
  0
VERTEX
  5
23F
  8
LAYER_1
 10
58.49184231486697
 20
-12.31723573874548
 30
0.0
  0
VERTEX
  5
240
  8
LAYER_1
 10
58.58465224606368
 20
-12.29736202114823
 30
0.0
  0
VERTEX
  5
241
  8
LAYER_1
 10
58.67106674738353
 20
-12.26827266710199
 30
0.0
  0
VERTEX
  5
242
  8
LAYER_1
 10
58.75683804480439
 20
-12.22839620195506
 30
0.0
  0
VERTEX
  5
243
  8
LAYER_1
 10
58.94945993186053
 20
-12.10999603975237
 30
0.0
  0
VERTEX
  5
244
  8
LAYER_1
 10
59.08233969528224
 20
-12.0110343382182
 30
0.0
  0
VERTEX
  5
245
  8
LAYER_1
 10
59.19505316491423
 20
-11.90976068080887
 30
0.0
  0
VERTEX
  5
246
  8
LAYER_1
 10
59.27569295524558
 20
-11.81805916886298
 30
0.0
  0
VERTEX
  5
247
  8
LAYER_1
 10
59.30026416270134
 20
-11.77951174910713
 30
0.0
  0
VERTEX
  5
248
  8
LAYER_1
 10
59.31235168076535
 20
-11.74781390371911
 30
0.0
  0
VERTEX
  5
249
  8
LAYER_1
 10
59.32351435105993
 20
-11.61171188040236
 30
0.0
  0
VERTEX
  5
24A
  8
LAYER_1
 10
59.30505233849444
 20
-11.47634755832914
 30
0.0
  0
VERTEX
  5
24B
  8
LAYER_1
 10
59.25768606068037
 20
-11.3427605650616
 30
0.0
  0
VERTEX
  5
24C
  8
LAYER_1
 10
59.18213593522921
 20
-11.21199052816191
 30
0.0
  0
VERTEX
  5
24D
  8
LAYER_1
 10
59.07912237975247
 20
-11.08507707519223
 30
0.0
  0
VERTEX
  5
24E
  8
LAYER_1
 10
58.94936581186164
 20
-10.96305983371475
 30
0.0
  0
VERTEX
  5
24F
  8
LAYER_1
 10
58.79358664916823
 20
-10.84697843129162
 30
0.0
  0
VERTEX
  5
250
  8
LAYER_1
 10
58.61250530928373
 20
-10.73787249548502
 30
0.0
  0
VERTEX
  5
251
  8
LAYER_1
 10
58.3125052973628
 20
-10.57465410902446
 30
0.0
  0
VERTEX
  5
252
  8
LAYER_1
 10
57.22500525414944
 20
-10.19538969115857
 30
0.0
  0
VERTEX
  5
253
  8
LAYER_1
 10
56.68854539078661
 20
-9.99867187361809
 30
0.0
  0
VERTEX
  5
254
  8
LAYER_1
 10
56.26047487179223
 20
-9.81806967603448
 30
0.0
  0
VERTEX
  5
255
  8
LAYER_1
 10
56.07698767200411
 20
-9.72915171489028
 30
0.0
  0
VERTEX
  5
256
  8
LAYER_1
 10
55.9084802749932
 20
-9.638670394931836
 30
0.0
  0
VERTEX
  5
257
  8
LAYER_1
 10
55.75091350298787
 20
-9.544761628224661
 30
0.0
  0
VERTEX
  5
258
  8
LAYER_1
 10
55.60024817821648
 20
-9.445561326834266
 30
0.0
  0
VERTEX
  5
259
  8
LAYER_1
 10
55.06299114549691
 20
-9.074997380375862
 30
0.0
  0
VERTEX
  5
25A
  8
LAYER_1
 10
55.01182594228968
 20
-9.074997380375862
 30
0.0
  0
VERTEX
  5
25B
  8
LAYER_1
 10
54.9762509709413
 20
-9.064194694630284
 30
0.0
  0
VERTEX
  5
25C
  8
LAYER_1
 10
54.91721141513591
 20
-9.034781441362629
 30
0.0
  0
VERTEX
  5
25D
  8
LAYER_1
 10
54.7615829437168
 20
-8.938092056075504
 30
0.0
  0
VERTEX
  5
25E
  8
LAYER_1
 10
54.54387487267579
 20
-8.811947320707578
 30
0.0
  0
VERTEX
  5
25F
  8
LAYER_1
 10
54.30000513792038
 20
-8.700913199585187
 30
0.0
  0
VERTEX
  5
260
  8
LAYER_1
 10
53.83316873864162
 20
-8.513354305406805
 30
0.0
  0
VERTEX
  5
261
  8
LAYER_1
 10
53.38229206165416
 20
-8.313079229448364
 30
0.0
  0
VERTEX
  5
262
  8
LAYER_1
 10
52.94447901468985
 20
-8.098452642771282
 30
0.0
  0
VERTEX
  5
263
  8
LAYER_1
 10
52.51683350548052
 20
-7.867839216436971
 30
0.0
  0
VERTEX
  5
264
  8
LAYER_1
 10
52.096459441758
 20
-7.619603621506852
 30
0.0
  0
VERTEX
  5
265
  8
LAYER_1
 10
51.68046073125413
 20
-7.352110529042339
 30
0.0
  0
VERTEX
  5
266
  8
LAYER_1
 10
51.26594128170075
 20
-7.063724610104849
 30
0.0
  0
VERTEX
  5
267
  8
LAYER_1
 10
50.8500050008297
 20
-6.752810535755799
 30
0.0
  0
VERTEX
  5
268
  8
LAYER_1
 10
50.60677056127581
 20
-6.560593715423907
 30
0.0
  0
VERTEX
  5
269
  8
LAYER_1
 10
50.40879826999198
 20
-6.393672111905189
 30
0.0
  0
VERTEX
  5
26A
  8
LAYER_1
 10
50.25213340071227
 20
-6.247211311252364
 30
0.0
  0
VERTEX
  5
26B
  8
LAYER_1
 10
50.13282122717072
 20
-6.116376899518153
 30
0.0
  0
VERTEX
  5
26C
  8
LAYER_1
 10
50.04690702310137
 20
-5.996334462755272
 30
0.0
  0
VERTEX
  5
26D
  8
LAYER_1
 10
49.99043606223826
 20
-5.882249587016442
 30
0.0
  0
VERTEX
  5
26E
  8
LAYER_1
 10
49.95945361831542
 20
-5.76928785835438
 30
0.0
  0
VERTEX
  5
26F
  8
LAYER_1
 10
49.95000496506691
 20
-5.652614862821807
 30
0.0
  0
VERTEX
  5
270
  8
LAYER_1
 10
49.95000496506691
 20
-5.382598951900889
 30
0.0
  0
VERTEX
  5
271
  8
LAYER_1
 10
50.51250498741865
 20
-5.861502457294691
 30
0.0
  0
VERTEX
  5
272
  8
LAYER_1
 10
52.38750506192446
 20
-7.21001900890424
 30
0.0
  0
VERTEX
  5
273
  8
LAYER_1
 10
52.91250508278608
 20
-7.461030670308105
 30
0.0
  0
VERTEX
  5
274
  8
LAYER_1
 10
53.1861617714834
 20
-7.575651982914723
 30
0.0
  0
VERTEX
  5
275
  8
LAYER_1
 10
53.51495167168186
 20
-7.686808461072983
 30
0.0
  0
VERTEX
  5
276
  8
LAYER_1
 10
53.87596572488576
 20
-7.787465570065756
 30
0.0
  0
VERTEX
  5
277
  8
LAYER_1
 10
54.24629487259941
 20
-7.870588775175904
 30
0.0
  0
VERTEX
  5
278
  8
LAYER_1
 10
54.59251292961732
 20
-7.946380977958512
 30
0.0
  0
VERTEX
  5
279
  8
LAYER_1
 10
54.9373020341279
 20
-8.035543175286126
 30
0.0
  0
VERTEX
  5
27A
  8
LAYER_1
 10
55.24074192539413
 20
-8.126954974415087
 30
0.0
  0
VERTEX
  5
27B
  8
LAYER_1
 10
55.46291234267906
 20
-8.209495982601737
 30
0.0
  0
VERTEX
  5
27C
  8
LAYER_1
 10
55.79026249209786
 20
-8.374830693290406
 30
0.0
  0
VERTEX
  5
27D
  8
LAYER_1
 10
56.15135222662589
 20
-8.58591348637452
 30
0.0
  0
VERTEX
  5
27E
  8
LAYER_1
 10
56.45874524108764
 20
-8.788621315087509
 30
0.0
  0
VERTEX
  5
27F
  8
LAYER_1
 10
56.5649816329263
 20
-8.869921165690275
 30
0.0
  0
VERTEX
  5
280
  8
LAYER_1
 10
56.62500523030758
 20
-8.928831132662793
 30
0.0
  0
VERTEX
  5
281
  8
LAYER_1
 10
56.6625052317977
 20
-8.98006468397719
 30
0.0
  0
VERTEX
  5
282
  8
LAYER_1
 10
57.17326049688558
 20
-9.36543478726243
 30
0.0
  0
VERTEX
  5
283
  8
LAYER_1
 10
57.59324392705103
 20
-9.66795832727645
 30
0.0
  0
VERTEX
  5
284
  8
LAYER_1
 10
57.76712503371625
 20
-9.783611337424103
 30
0.0
  0
VERTEX
  5
285
  8
LAYER_1
 10
57.88576052519778
 20
-9.854144140143632
 30
0.0
  0
VERTEX
  5
286
  8
LAYER_1
 10
58.0080615421501
 20
-9.909934612697295
 30
0.0
  0
VERTEX
  5
287
  8
LAYER_1
 10
58.14305384211692
 20
-9.959220699085913
 30
0.0
  0
VERTEX
  5
288
  8
LAYER_1
 10
58.28853191934334
 20
-10.00193133599733
 30
0.0
  0
VERTEX
  5
289
  8
LAYER_1
 10
58.44229026807444
 20
-10.0379954601194
 30
0.0
  0
VERTEX
  5
28A
  8
LAYER_1
 10
58.76582575703101
 20
-10.08989991674688
 30
0.0
  0
VERTEX
  5
28B
  8
LAYER_1
 10
59.09601626294729
 20
-10.11436556247115
 30
0.0
  0
VERTEX
  5
28C
  8
LAYER_1
 10
59.41521773978398
 20
-10.11082389079499
 30
0.0
  0
VERTEX
  5
28D
  8
LAYER_1
 10
59.56518382791018
 20
-10.09837265265138
 30
0.0
  0
VERTEX
  5
28E
  8
LAYER_1
 10
59.70578614150173
 20
-10.07870639522121
 30
0.0
  0
VERTEX
  5
28F
  8
LAYER_1
 10
59.83481917480373
 20
-10.05175405519232
 30
0.0
  0
VERTEX
  5
290
  8
LAYER_1
 10
59.95007742206123
 20
-10.01744456925258
 30
0.0
  0
VERTEX
  5
291
  8
LAYER_1
 10
60.04935537751935
 20
-9.97570687408982
 30
0.0
  0
VERTEX
  5
292
  8
LAYER_1
 10
60.13044753542314
 20
-9.926469906391901
 30
0.0
  0
VERTEX
  5
293
  8
LAYER_1
 10
60.21305695224981
 20
-9.856261978798965
 30
0.0
  0
VERTEX
  5
294
  8
LAYER_1
 10
60.27742134542486
 20
-9.781678904429
 30
0.0
  0
VERTEX
  5
295
  8
LAYER_1
 10
60.32370976847076
 20
-9.701949685824356
 30
0.0
  0
VERTEX
  5
296
  8
LAYER_1
 10
60.35209127491001
 20
-9.616303325527383
 30
0.0
  0
VERTEX
  5
297
  8
LAYER_1
 10
60.36273491826512
 20
-9.52396882608043
 30
0.0
  0
VERTEX
  5
298
  8
LAYER_1
 10
60.35580975205857
 20
-9.42417519002585
 30
0.0
  0
VERTEX
  5
299
  8
LAYER_1
 10
60.33148482981285
 20
-9.316151419905989
 30
0.0
  0
VERTEX
  5
29A
  8
LAYER_1
 10
60.28992920505047
 20
-9.1991265182632
 30
0.0
  0
VERTEX
  5
29B
  8
LAYER_1
 10
60.24383863684562
 20
-9.099920861191428
 30
0.0
  0
VERTEX
  5
29C
  8
LAYER_1
 10
60.1899126091083
 20
-9.009296965312563
 30
0.0
  0
VERTEX
  5
29D
  8
LAYER_1
 10
60.12610993533003
 20
-8.925334291187529
 30
0.0
  0
VERTEX
  5
29E
  8
LAYER_1
 10
60.05038942900229
 20
-8.846112299377253
 30
0.0
  0
VERTEX
  5
29F
  8
LAYER_1
 10
59.96070990361659
 20
-8.769710450442668
 30
0.0
  0
VERTEX
  5
2A0
  8
LAYER_1
 10
59.85503017266443
 20
-8.694208204944703
 30
0.0
  0
VERTEX
  5
2A1
  8
LAYER_1
 10
59.58750534802675
 20
-8.538220366502344
 30
0.0
  0
VERTEX
  5
2A2
  8
LAYER_1
 10
59.36461471416987
 20
-8.410184564346714
 30
0.0
  0
VERTEX
  5
2A3
  8
LAYER_1
 10
59.28823775800993
 20
-8.358639939681915
 30
0.0
  0
VERTEX
  5
2A4
  8
LAYER_1
 10
59.25000533461571
 20
-8.324750154405052
 30
0.0
  0
VERTEX
  5
2A5
  8
LAYER_1
 10
59.20289595774375
 20
-8.283644964494098
 30
0.0
  0
VERTEX
  5
2A6
  8
LAYER_1
 10
59.10234907874838
 20
-8.212454436122613
 30
0.0
  0
VERTEX
  5
2A7
  8
LAYER_1
 10
58.80000531673431
 20
-8.019837190509364
 30
0.0
  0
VERTEX
  5
2A8
  8
LAYER_1
 10
58.49766155472025
 20
-7.830561037972812
 30
0.0
  0
VERTEX
  5
2A9
  8
LAYER_1
 10
58.35000529885292
 20
-7.726298160491766
 30
0.0
  0
VERTEX
  5
2AA
  8
LAYER_1
 10
58.20234904298559
 20
-7.619667758320663
 30
0.0
  0
VERTEX
  5
2AB
  8
LAYER_1
 10
57.90000528097153
 20
-7.424699471954781
 30
0.0
  0
VERTEX
  5
2AC
  8
LAYER_1
 10
57.46089809737609
 20
-7.130389482569254
 30
0.0
  0
VERTEX
  5
2AD
  8
LAYER_1
 10
57.00359468114724
 20
-6.792736510995885
 30
0.0
  0
VERTEX
  5
2AE
  8
LAYER_1
 10
56.60692493936573
 20
-6.472472591817208
 30
0.0
  0
VERTEX
  5
2AF
  8
LAYER_1
 10
56.45596204235545
 20
-6.337840287682921
 30
0.0
  0
VERTEX
  5
2B0
  8
LAYER_1
 10
56.34971877911229
 20
-6.230329759615756
 30
0.0
  0
VERTEX
  5
2B1
  8
LAYER_1
 10
56.27221866142371
 20
-6.131784639558067
 30
0.0
  0
VERTEX
  5
2B2
  8
LAYER_1
 10
56.1868797347563
 20
-6.006016803031855
 30
0.0
  0
VERTEX
  5
2B3
  8
LAYER_1
 10
56.10405793808407
 20
-5.869197316832537
 30
0.0
  0
VERTEX
  5
2B4
  8
LAYER_1
 10
56.03410921038102
 20
-5.737497247755527
 30
0.0
  0
VERTEX
  5
2B5
  8
LAYER_1
 10
55.88850869265872
 20
-5.437497235834599
 30
0.0
  0
VERTEX
  5
2B6
  8
LAYER_1
 10
55.22550692050496
 20
-4.760275345651777
 30
0.0
  0
VERTEX
  5
2B7
  8
LAYER_1
 10
54.85599585012873
 20
-4.396298359471706
 30
0.0
  0
VERTEX
  5
2B8
  8
LAYER_1
 10
54.70116448106956
 20
-4.25889846561965
 30
0.0
  0
VERTEX
  5
2B9
  8
LAYER_1
 10
54.55374108352888
 20
-4.141905464061317
 30
0.0
  0
VERTEX
  5
2BA
  8
LAYER_1
 10
54.40431955308109
 20
-4.038330224398013
 30
0.0
  0
VERTEX
  5
2BB
  8
LAYER_1
 10
54.24349378530059
 20
-3.941183616231045
 30
0.0
  0
VERTEX
  5
2BC
  8
LAYER_1
 10
53.85000512003899
 20
-3.738219772791325
 30
0.0
  0
VERTEX
  5
2BD
  8
LAYER_1
 10
53.13750509172678
 20
-3.393386090113694
 30
0.0
  0
VERTEX
  5
2BE
  8
LAYER_1
 10
52.9500050842762
 20
-3.338919377789551
 30
0.0
  0
VERTEX
  5
2BF
  8
LAYER_1
 10
52.73695144530604
 20
-3.267580160052368
 30
0.0
  0
VERTEX
  5
2C0
  8
LAYER_1
 10
52.54584277274365
 20
-3.185085512690351
 30
0.0
  0
VERTEX
  5
2C1
  8
LAYER_1
 10
52.38062964061079
 20
-3.094636089417297
 30
0.0
  0
VERTEX
  5
2C2
  8
LAYER_1
 10
52.2452626229292
 20
-2.999432543947004
 30
0.0
  0
VERTEX
  5
2C3
  8
LAYER_1
 10
52.14369229372064
 20
-2.902675529993269
 30
0.0
  0
VERTEX
  5
2C4
  8
LAYER_1
 10
52.10681544167554
 20
-2.854714676620672
 30
0.0
  0
VERTEX
  5
2C5
  8
LAYER_1
 10
52.07986922700685
 20
-2.807565701269889
 30
0.0
  0
VERTEX
  5
2C6
  8
LAYER_1
 10
52.0633474714673
 20
-2.761628685655144
 30
0.0
  0
VERTEX
  5
2C7
  8
LAYER_1
 10
52.0577439968096
 20
-2.717303711490662
 30
0.0
  0
VERTEX
  5
2C8
  8
LAYER_1
 10
52.06355262478647
 20
-2.674990860490667
 30
0.0
  0
VERTEX
  5
2C9
  8
LAYER_1
 10
52.08126717715062
 20
-2.635090214369384
 30
0.0
  0
VERTEX
  5
2CA
  8
LAYER_1
 10
52.11033622271052
 20
-2.615057943936087
 30
0.0
  0
VERTEX
  5
2CB
  8
LAYER_1
 10
52.16339816336765
 20
-2.605930869739036
 30
0.0
  0
VERTEX
  5
2CC
  8
LAYER_1
 10
52.23709918069683
 20
-2.606718058060955
 30
0.0
  0
VERTEX
  5
2CD
  8
LAYER_1
 10
52.32808545627292
 20
-2.616428575184562
 30
0.0
  0
VERTEX
  5
2CE
  8
LAYER_1
 10
52.54849850846512
 20
-2.658655860967734
 30
0.0
  0
VERTEX
  5
2CF
  8
LAYER_1
 10
52.79780677254293
 20
-2.724685257350323
 30
0.0
  0
VERTEX
  5
2D0
  8
LAYER_1
 10
53.04917970110502
 20
-2.806589294594103
 30
0.0
  0
VERTEX
  5
2D1
  8
LAYER_1
 10
53.27578674675008
 20
-2.896440502960845
 30
0.0
  0
VERTEX
  5
2D2
  8
LAYER_1
 10
53.45079736207678
 20
-2.986311412712321
 30
0.0
  0
VERTEX
  5
2D3
  8
LAYER_1
 10
53.51056946230784
 20
-3.028776921314138
 30
0.0
  0
VERTEX
  5
2D4
  8
LAYER_1
 10
53.54738099968381
 20
-3.068274554110303
 30
0.0
  0
VERTEX
  5
2D5
  8
LAYER_1
 10
53.58750510960817
 20
-3.130720036526043
 30
0.0
  0
VERTEX
  5
2D6
  8
LAYER_1
 10
54.23116971256573
 20
-3.47785860414281
 30
0.0
  0
VERTEX
  5
2D7
  8
LAYER_1
 10
54.57586007707761
 20
-3.652134376477525
 30
0.0
  0
VERTEX
  5
2D8
  8
LAYER_1
 10
54.72565399293559
 20
-3.717029425738981
 30
0.0
  0
VERTEX
  5
2D9
  8
LAYER_1
 10
54.86195387080646
 20
-3.766713509240059
 30
0.0
  0
VERTEX
  5
2DA
  8
LAYER_1
 10
54.98591481539884
 20
-3.800899821113425
 30
0.0
  0
VERTEX
  5
2DB
  8
LAYER_1
 10
55.09869193142138
 20
-3.819301555491746
 30
0.0
  0
VERTEX
  5
2DC
  8
LAYER_1
 10
55.20144032358272
 20
-3.821631906507689
 30
0.0
  0
VERTEX
  5
2DD
  8
LAYER_1
 10
55.29531509659149
 20
-3.807604068293921
 30
0.0
  0
VERTEX
  5
2DE
  8
LAYER_1
 10
55.38147135515633
 20
-3.776931234983109
 30
0.0
  0
VERTEX
  5
2DF
  8
LAYER_1
 10
55.46106420398588
 20
-3.729326600707919
 30
0.0
  0
VERTEX
  5
2E0
  8
LAYER_1
 10
55.5352487477888
 20
-3.664503359601019
 30
0.0
  0
VERTEX
  5
2E1
  8
LAYER_1
 10
55.6051800912737
 20
-3.582174705795075
 30
0.0
  0
VERTEX
  5
2E2
  8
LAYER_1
 10
55.67201333914923
 20
-3.482053833422754
 30
0.0
  0
VERTEX
  5
2E3
  8
LAYER_1
 10
55.73690359612402
 20
-3.363853936616724
 30
0.0
  0
VERTEX
  5
2E4
  8
LAYER_1
 10
55.86547555620595
 20
-3.0720698462342
 30
0.0
  0
VERTEX
  5
2E5
  8
LAYER_1
 10
55.93511555182923
 20
-2.913437969603242
 30
0.0
  0
VERTEX
  5
2E6
  8
LAYER_1
 10
56.01087440485836
 20
-2.7808949950839
 30
0.0
  0
VERTEX
  5
2E7
  8
LAYER_1
 10
56.09799464586803
 20
-2.670564945889105
 30
0.0
  0
VERTEX
  5
2E8
  8
LAYER_1
 10
56.20171880543292
 20
-2.578571845231785
 30
0.0
  0
VERTEX
  5
2E9
  8
LAYER_1
 10
56.32728941412772
 20
-2.501039716324873
 30
0.0
  0
VERTEX
  5
2EA
  8
LAYER_1
 10
56.4799490025271
 20
-2.434092582381298
 30
0.0
  0
VERTEX
  5
2EB
  8
LAYER_1
 10
56.66494010120576
 20
-2.373854466613991
 30
0.0
  0
VERTEX
  5
2EC
  8
LAYER_1
 10
56.88750524073839
 20
-2.316449392235882
 30
0.0
  0
VERTEX
  5
2ED
  8
LAYER_1
 10
57.21303740527583
 20
-2.223597396861644
 30
0.0
  0
VERTEX
  5
2EE
  8
LAYER_1
 10
57.35929578396527
 20
-2.171655554555221
 30
0.0
  0
VERTEX
  5
2EF
  8
LAYER_1
 10
57.46910407781314
 20
-2.124437023629142
 30
0.0
  0
VERTEX
  5
2F0
  8
LAYER_1
 10
57.58129048641894
 20
-2.062797243390704
 30
0.0
  0
VERTEX
  5
2F1
  8
LAYER_1
 10
57.61282468047346
 20
-2.036850274037469
 30
0.0
  0
VERTEX
  5
2F2
  8
LAYER_1
 10
57.62919717267817
 20
-2.010493222774757
 30
0.0
  0
VERTEX
  5
2F3
  8
LAYER_1
 10
57.63131619176991
 20
-1.980982067787466
 30
0.0
  0
VERTEX
  5
2F4
  8
LAYER_1
 10
57.62008996648552
 20
-1.945572787260495
 30
0.0
  0
VERTEX
  5
2F5
  8
LAYER_1
 10
57.56123469773564
 20
-1.846083762327112
 30
0.0
  0
VERTEX
  5
2F6
  8
LAYER_1
 10
57.44676649548458
 20
-1.671383203944558
 30
0.0
  0
VERTEX
  5
2F7
  8
LAYER_1
 10
55.68750519305468
 20
-0.7874970510601997
 30
0.0
  0
VERTEX
  5
2F8
  8
LAYER_1
 10
55.83750519901514
 20
-0.7798515292967352
 30
0.0
  0
VERTEX
  5
2F9
  8
LAYER_1
 10
56.06029112902566
 20
-0.7630524749676226
 30
0.0
  0
VERTEX
  5
2FA
  8
LAYER_1
 10
56.13692573087412
 20
-0.7501302564581578
 30
0.0
  0
VERTEX
  5
2FB
  8
LAYER_1
 10
56.19576503542412
 20
-0.7319529690639399
 30
0.0
  0
VERTEX
  5
2FC
  8
LAYER_1
 10
56.24084175128019
 20
-0.7068406567938585
 30
0.0
  0
VERTEX
  5
2FD
  8
LAYER_1
 10
56.27618858704689
 20
-0.6731133636568032
 30
0.0
  0
VERTEX
  5
2FE
  8
LAYER_1
 10
56.33382345273031
 20
-0.5730940108173286
 30
0.0
  0
VERTEX
  5
2FF
  8
LAYER_1
 10
56.35425263250411
 20
-0.520211773489826
 30
0.0
  0
VERTEX
  5
300
  8
LAYER_1
 10
56.36595020335399
 20
-0.4675099556010278
 30
0.0
  0
VERTEX
  5
301
  8
LAYER_1
 10
56.36832587416939
 20
-0.4119442584386959
 30
0.0
  0
VERTEX
  5
302
  8
LAYER_1
 10
56.36078935383975
 20
-0.3504703832905918
 30
0.0
  0
VERTEX
  5
303
  8
LAYER_1
 10
56.31361857530318
 20
-0.197620904188113
 30
0.0
  0
VERTEX
  5
304
  8
LAYER_1
 10
56.21971553885987
 20
0.0153928714043161
 30
0.0
  0
VERTEX
  5
305
  8
LAYER_1
 10
56.13973917483675
 20
0.1988892335166071
 30
0.0
  0
VERTEX
  5
306
  8
LAYER_1
 10
56.08105335809271
 20
0.3654897896311475
 30
0.0
  0
VERTEX
  5
307
  8
LAYER_1
 10
56.04371410358613
 20
0.513918572316214
 30
0.0
  0
VERTEX
  5
308
  8
LAYER_1
 10
56.02777742627535
 20
0.6428996141400827
 30
0.0
  0
VERTEX
  5
309
  8
LAYER_1
 10
56.03329934111875
 20
0.7511569476710303
 30
0.0
  0
VERTEX
  5
30A
  8
LAYER_1
 10
56.0603358630747
 20
0.8374146054773328
 30
0.0
  0
VERTEX
  5
30B
  8
LAYER_1
 10
56.08193960639436
 20
0.8718948161613287
 30
0.0
  0
VERTEX
  5
30C
  8
LAYER_1
 10
56.10894300710155
 20
0.9003966201272671
 30
0.0
  0
VERTEX
  5
30D
  8
LAYER_1
 10
56.14135306706605
 20
0.9227605214461824
 30
0.0
  0
VERTEX
  5
30E
  8
LAYER_1
 10
56.17917678815766
 20
0.9388270241891092
 30
0.0
  0
VERTEX
  5
30F
  8
LAYER_1
 10
56.25031310585381
 20
0.9502791944334739
 30
0.0
  0
VERTEX
  5
310
  8
LAYER_1
 10
56.3283632777117
 20
0.9445417322386795
 30
0.0
  0
VERTEX
  5
311
  8
LAYER_1
 10
56.40460750604405
 20
0.9231479343334623
 30
0.0
  0
VERTEX
  5
312
  8
LAYER_1
 10
56.47032599316353
 20
0.8876310974465582
 30
0.0
  0
VERTEX
  5
313
  8
LAYER_1
 10
56.88935161231736
 20
0.587789595763947
 30
0.0
  0
VERTEX
  5
314
  8
LAYER_1
 10
57.16711154905639
 20
0.408635993323113
 30
0.0
  0
VERTEX
  5
315
  8
LAYER_1
 10
57.26644583538503
 20
0.3566142087029895
 30
0.0
  0
VERTEX
  5
316
  8
LAYER_1
 10
57.34657843974759
 20
0.3255208641548628
 30
0.0
  0
VERTEX
  5
317
  8
LAYER_1
 10
57.41288094168994
 20
0.3122747814325837
 30
0.0
  0
VERTEX
  5
318
  8
LAYER_1
 10
57.47072492075796
 20
0.3137947822900031
 30
0.0
  0
VERTEX
  5
319
  8
LAYER_1
 10
57.52350421189119
 20
0.3236515728250376
 30
0.0
  0
VERTEX
  5
31A
  8
LAYER_1
 10
57.56340519676405
 20
0.3405452363428128
 30
0.0
  0
VERTEX
  5
31B
  8
LAYER_1
 10
57.5918676030567
 20
0.3709194865902667
 30
0.0
  0
VERTEX
  5
31C
  8
LAYER_1
 10
57.61033115844929
 20
0.4212180373143379
 30
0.0
  0
VERTEX
  5
31D
  8
LAYER_1
 10
57.62023559062199
 20
0.4978846022619648
 30
0.0
  0
VERTEX
  5
31E
  8
LAYER_1
 10
57.62302062725497
 20
0.6073628951800856
 30
0.0
  0
VERTEX
  5
31F
  8
LAYER_1
 10
57.61299142462238
 20
0.9505295199155626
 30
0.0
  0
VERTEX
  5
320
  8
LAYER_1
 10
57.60626471525295
 20
1.19766754763514
 30
0.0
  0
VERTEX
  5
321
  8
LAYER_1
 10
57.61440986393991
 20
1.385784080553165
 30
0.0
  0
VERTEX
  5
322
  8
LAYER_1
 10
57.62686517161368
 20
1.460220286247025
 30
0.0
  0
VERTEX
  5
323
  8
LAYER_1
 10
57.6464053876725
 20
1.522914317983011
 30
0.0
  0
VERTEX
  5
324
  8
LAYER_1
 10
57.67415282674003
 20
1.574870575675295
 30
0.0
  0
VERTEX
  5
325
  8
LAYER_1
 10
57.71122980343991
 20
1.617093459238049
 30
0.0
  0
VERTEX
  5
326
  8
LAYER_1
 10
57.75875863239581
 20
1.650587368585444
 30
0.0
  0
VERTEX
  5
327
  8
LAYER_1
 10
57.81786162823138
 20
1.676356703631653
 30
0.0
  0
VERTEX
  5
328
  8
LAYER_1
 10
57.88966110557027
 20
1.695405864290845
 30
0.0
  0
VERTEX
  5
329
  8
LAYER_1
 10
57.97527937903612
 20
1.708739250477194
 30
0.0
  0
VERTEX
  5
32A
  8
LAYER_1
 10
58.19246157284333
 20
1.722276299088046
 30
0.0
  0
VERTEX
  5
32B
  8
LAYER_1
 10
58.47838672664224
 20
1.72500304877758
 30
0.0
  0
VERTEX
  5
32C
  8
LAYER_1
 10
58.67827202518012
 20
1.729527934773808
 30
0.0
  0
VERTEX
  5
32D
  8
LAYER_1
 10
58.85401386321496
 20
1.743227941997323
 30
0.0
  0
VERTEX
  5
32E
  8
LAYER_1
 10
59.005660463922
 20
1.766291094300376
 30
0.0
  0
VERTEX
  5
32F
  8
LAYER_1
 10
59.13326005047648
 20
1.798905415535216
 30
0.0
  0
VERTEX
  5
330
  8
LAYER_1
 10
59.23686084605363
 20
1.841258929554092
 30
0.0
  0
VERTEX
  5
331
  8
LAYER_1
 10
59.31651107382869
 20
1.893539660209255
 30
0.0
  0
VERTEX
  5
332
  8
LAYER_1
 10
59.3722589569769
 20
1.955935631352952
 30
0.0
  0
VERTEX
  5
333
  8
LAYER_1
 10
59.40415271867349
 20
2.028634866837434
 30
0.0
  0
VERTEX
  5
334
  8
LAYER_1
 10
59.4122405820937
 20
2.111825390514951
 30
0.0
  0
VERTEX
  5
335
  8
LAYER_1
 10
59.39657077041277
 20
2.20569522623775
 30
0.0
  0
VERTEX
  5
336
  8
LAYER_1
 10
59.35719150680593
 20
2.310432397858083
 30
0.0
  0
VERTEX
  5
337
  8
LAYER_1
 10
59.29415101444842
 20
2.426224929228199
 30
0.0
  0
VERTEX
  5
338
  8
LAYER_1
 10
59.20749751651547
 20
2.553260844200347
 30
0.0
  0
VERTEX
  5
339
  8
LAYER_1
 10
59.09727923618233
 20
2.691728166626776
 30
0.0
  0
VERTEX
  5
33A
  8
LAYER_1
 10
58.96354439662422
 20
2.841814920359735
 30
0.0
  0
VERTEX
  5
33B
  8
LAYER_1
 10
58.8063412210164
 20
3.003709129251476
 30
0.0
  0
VERTEX
  5
33C
  8
LAYER_1
 10
58.38750530034304
 20
3.419915175452701
 30
0.0
  0
VERTEX
  5
33D
  8
LAYER_1
 10
56.55624785695699
 20
5.37902161781372
 30
0.0
  0
VERTEX
  5
33E
  8
LAYER_1
 10
56.02511505272349
 20
5.699936836632702
 30
0.0
  0
VERTEX
  5
33F
  8
LAYER_1
 10
55.73914125159286
 20
5.854165494039645
 30
0.0
  0
VERTEX
  5
340
  8
LAYER_1
 10
55.39233622668149
 20
6.009984030726576
 30
0.0
  0
VERTEX
  5
341
  8
LAYER_1
 10
55.00020277174506
 20
6.160956037372321
 30
0.0
  0
VERTEX
  5
342
  8
LAYER_1
 10
54.57824368053917
 20
6.3006451046557
 30
0.0
  0
VERTEX
  5
343
  8
LAYER_1
 10
53.66250511258841
 20
6.580438153859745
 30
0.0
  0
VERTEX
  5
344
  8
LAYER_1
 10
53.38125510141253
 20
6.703727204251493
 30
0.0
  0
VERTEX
  5
345
  8
LAYER_1
 10
53.27205099551065
 20
6.75776935051784
 30
0.0
  0
VERTEX
  5
346
  8
LAYER_1
 10
53.18262228101958
 20
6.813774513868058
 30
0.0
  0
VERTEX
  5
347
  8
LAYER_1
 10
53.12219747393101
 20
6.86513098098869
 30
0.0
  0
VERTEX
  5
348
  8
LAYER_1
 10
53.10574544691008
 20
6.886999793052457
 30
0.0
  0
VERTEX
  5
349
  8
LAYER_1
 10
53.10000509023666
 20
6.905227038566281
 30
0.0
  0
VERTEX
  5
34A
  8
LAYER_1
 10
53.10704357950152
 20
6.924051393758294
 30
0.0
  0
VERTEX
  5
34B
  8
LAYER_1
 10
53.12721609179651
 20
6.947631539301665
 30
0.0
  0
VERTEX
  5
34C
  8
LAYER_1
 10
53.20130545247928
 20
7.00527337145591
 30
0.0
  0
VERTEX
  5
34D
  8
LAYER_1
 10
53.31095770628975
 20
7.070580875055879
 30
0.0
  0
VERTEX
  5
34E
  8
LAYER_1
 10
53.44485738723276
 20
7.135982390128433
 30
0.0
  0
VERTEX
  5
34F
  8
LAYER_1
 10
53.78970968422885
 20
7.288526957767559
 30
0.0
  0
VERTEX
  5
350
  8
LAYER_1
 10
55.46250518411398
 20
6.878810390791742
 30
0.0
  0
VERTEX
  5
351
  8
LAYER_1
 10
55.61250519007444
 20
6.803583041779049
 30
0.0
  0
VERTEX
  5
352
  8
LAYER_1
 10
55.69258666890158
 20
6.754849247179903
 30
0.0
  0
VERTEX
  5
353
  8
LAYER_1
 10
55.79974539397521
 20
6.677768736594691
 30
0.0
  0
VERTEX
  5
354
  8
LAYER_1
 10
56.03928034391978
 20
6.480917429126706
 30
0.0
  0
VERTEX
  5
355
  8
LAYER_1
 10
56.12597350149904
 20
6.409702267128226
 30
0.0
  0
VERTEX
  5
356
  8
LAYER_1
 10
56.2159754723426
 20
6.347367901841277
 30
0.0
  0
VERTEX
  5
357
  8
LAYER_1
 10
56.30798630448044
 20
6.293968066215388
 30
0.0
  0
VERTEX
  5
358
  8
LAYER_1
 10
56.40070604594254
 20
6.249556493200087
 30
0.0
  0
VERTEX
  5
359
  8
LAYER_1
 10
56.49283474475887
 20
6.214186915744898
 30
0.0
  0
VERTEX
  5
35A
  8
LAYER_1
 10
56.58307244895939
 20
6.18791306679935
 30
0.0
  0
VERTEX
  5
35B
  8
LAYER_1
 10
56.6701192065741
 20
6.170788679312969
 30
0.0
  0
VERTEX
  5
35C
  8
LAYER_1
 10
56.75267506563295
 20
6.162867486235282
 30
0.0
  0
VERTEX
  5
35D
  8
LAYER_1
 10
56.82944007416593
 20
6.164203220515815
 30
0.0
  0
VERTEX
  5
35E
  8
LAYER_1
 10
56.899114280203
 20
6.174849615104096
 30
0.0
  0
VERTEX
  5
35F
  8
LAYER_1
 10
56.96039773177414
 20
6.194860402949651
 30
0.0
  0
VERTEX
  5
360
  8
LAYER_1
 10
57.01199047690934
 20
6.224289317002007
 30
0.0
  0
VERTEX
  5
361
  8
LAYER_1
 10
57.05259256363856
 20
6.263190090210691
 30
0.0
  0
VERTEX
  5
362
  8
LAYER_1
 10
57.08090403999175
 20
6.311616455525231
 30
0.0
  0
VERTEX
  5
363
  8
LAYER_1
 10
57.09562495399892
 20
6.369622145895153
 30
0.0
  0
VERTEX
  5
364
  8
LAYER_1
 10
57.09545535369003
 20
6.437260894269983
 30
0.0
  0
VERTEX
  5
365
  8
LAYER_1
 10
57.07064162624057
 20
6.522686300427567
 30
0.0
  0
VERTEX
  5
366
  8
LAYER_1
 10
57.01568333723746
 20
6.641783626926141
 30
0.0
  0
VERTEX
  5
367
  8
LAYER_1
 10
56.93870558041208
 20
6.77878160846156
 30
0.0
  0
VERTEX
  5
368
  8
LAYER_1
 10
56.84783344949579
 20
6.917908979729674
 30
0.0
  0
VERTEX
  5
369
  8
LAYER_1
 10
56.73873755775605
 20
7.092712174322862
 30
0.0
  0
VERTEX
  5
36A
  8
LAYER_1
 10
56.6595630954193
 20
7.269257567938661
 30
0.0
  0
VERTEX
  5
36B
  8
LAYER_1
 10
56.60569375153815
 20
7.460299589801753
 30
0.0
  0
VERTEX
  5
36C
  8
LAYER_1
 10
56.57251321516526
 20
7.678592669136819
 30
0.0
  0
VERTEX
  5
36D
  8
LAYER_1
 10
56.54057521971495
 20
7.920570070136448
 30
0.0
  0
VERTEX
  5
36E
  8
LAYER_1
 10
56.51942414324817
 20
8.005440256537465
 30
0.0
  0
VERTEX
  5
36F
  8
LAYER_1
 10
56.49076682922786
 20
8.073732179098736
 30
0.0
  0
VERTEX
  5
370
  8
LAYER_1
 10
56.45156463885964
 20
8.13107139698985
 30
0.0
  0
VERTEX
  5
371
  8
LAYER_1
 10
56.39877893334917
 20
8.183083469380392
 30
0.0
  0
VERTEX
  5
372
  8
LAYER_1
 10
56.24030242172412
 20
8.29362841433813
 30
0.0
  0
VERTEX
  5
373
  8
LAYER_1
 10
56.13577762973932
 20
8.365750268035466
 30
0.0
  0
VERTEX
  5
374
  8
LAYER_1
 10
56.05134801207161
 20
8.438897917808799
 30
0.0
  0
VERTEX
  5
375
  8
LAYER_1
 10
55.98565403598601
 20
8.51608183658822
 30
0.0
  0
VERTEX
  5
376
  8
LAYER_1
 10
55.93733616874746
 20
8.600312497303817
 30
0.0
  0
VERTEX
  5
377
  8
LAYER_1
 10
55.90503487762096
 20
8.694600372885677
 30
0.0
  0
VERTEX
  5
378
  8
LAYER_1
 10
55.88739062987149
 20
8.80195593626389
 30
0.0
  0
VERTEX
  5
379
  8
LAYER_1
 10
55.88304389276401
 20
8.925389660368547
 30
0.0
  0
VERTEX
  5
37A
  8
LAYER_1
 10
55.89063513356351
 20
9.067912018129732
 30
0.0
  0
VERTEX
  5
37B
  8
LAYER_1
 10
55.91250520199537
 20
9.323320705849937
 30
0.0
  0
VERTEX
  5
37C
  8
LAYER_1
 10
55.38750518113375
 20
9.336155381032029
 30
0.0
  0
VERTEX
  5
37D
  8
LAYER_1
 10
55.17238237004288
 20
9.345330676319055
 30
0.0
  0
VERTEX
  5
37E
  8
LAYER_1
 10
54.99513124293154
 20
9.365273771122668
 30
0.0
  0
VERTEX
  5
37F
  8
LAYER_1
 10
54.84508706317099
 20
9.402037294903415
 30
0.0
  0
VERTEX
  5
380
  8
LAYER_1
 10
54.71158509413246
 20
9.461673877121848
 30
0.0
  0
VERTEX
  5
381
  8
LAYER_1
 10
54.58396059918721
 20
9.550236147238511
 30
0.0
  0
VERTEX
  5
382
  8
LAYER_1
 10
54.45154884170648
 20
9.67377673471395
 30
0.0
  0
VERTEX
  5
383
  8
LAYER_1
 10
54.30368508506154
 20
9.838348269008717
 30
0.0
  0
VERTEX
  5
384
  8
LAYER_1
 10
54.12970459262363
 20
10.05000337958336
 30
0.0
  0
VERTEX
  5
385
  8
LAYER_1
 10
53.81995195860991
 20
10.42296859055477
 30
0.0
  0
VERTEX
  5
386
  8
LAYER_1
 10
53.62525996961855
 20
10.63509768760264
 30
0.0
  0
VERTEX
  5
387
  8
LAYER_1
 10
53.50505092384878
 20
10.73090073044322
 30
0.0
  0
VERTEX
  5
388
  8
LAYER_1
 10
53.35805307341347
 20
10.83452255354122
 30
0.0
  0
VERTEX
  5
389
  8
LAYER_1
 10
53.00683410019902
 20
11.0519005130523
 30
0.0
  0
VERTEX
  5
38A
  8
LAYER_1
 10
52.6178893332807
 20
11.26058751122149
 30
0.0
  0
VERTEX
  5
38B
  8
LAYER_1
 10
52.42373424071555
 20
11.35334563264214
 30
0.0
  0
VERTEX
  5
38C
  8
LAYER_1
 10
52.23750505596399
 20
11.43393949313442
 30
0.0
  0
VERTEX
  5
38D
  8
LAYER_1
 10
52.02499179417129
 20
11.52489457665363
 30
0.0
  0
VERTEX
  5
38E
  8
LAYER_1
 10
51.8344637453058
 20
11.61458009208378
 30
0.0
  0
VERTEX
  5
38F
  8
LAYER_1
 10
51.68675098832026
 20
11.69266418661218
 30
0.0
  0
VERTEX
  5
390
  8
LAYER_1
 10
51.60268360216735
 20
11.74881500742613
 30
0.0
  0
VERTEX
  5
391
  8
LAYER_1
 10
51.55522716055233
 20
11.80109927832277
 30
0.0
  0
VERTEX
  5
392
  8
LAYER_1
 10
51.5502485316016
 20
11.81875544175589
 30
0.0
  0
VERTEX
  5
393
  8
LAYER_1
 10
51.55909737397912
 20
11.8316384451957
 30
0.0
  0
VERTEX
  5
394
  8
LAYER_1
 10
51.62226070299013
 20
11.84573743614586
 30
0.0
  0
VERTEX
  5
395
  8
LAYER_1
 10
51.75268360812781
 20
11.84870117927419
 30
0.0
  0
VERTEX
  5
396
  8
LAYER_1
 10
51.8929883135935
 20
11.84063203332991
 30
0.0
  0
VERTEX
  5
397
  8
LAYER_1
 10
52.07027186228628
 20
11.81896030823183
 30
0.0
  0
VERTEX
  5
398
  8
LAYER_1
 10
52.49661364879164
 20
11.74289296154101
 30
0.0
  0
VERTEX
  5
399
  8
LAYER_1
 10
52.95338528652098
 20
11.63666682113512
 30
0.0
  0
VERTEX
  5
39A
  8
LAYER_1
 10
53.16870614924373
 20
11.57729660389322
 30
0.0
  0
VERTEX
  5
39B
  8
LAYER_1
 10
53.36226309435139
 20
11.51644956894758
 30
0.0
  0
VERTEX
  5
39C
  8
LAYER_1
 10
53.53989756943876
 20
11.46871984364484
 30
0.0
  0
VERTEX
  5
39D
  8
LAYER_1
 10
53.76354171920085
 20
11.4270397480036
 30
0.0
  0
VERTEX
  5
39E
  8
LAYER_1
 10
54.00457881032776
 20
11.39589414885822
 30
0.0
  0
VERTEX
  5
39F
  8
LAYER_1
 10
54.2343921095096
 20
11.37976791304307
 30
0.0
  0
VERTEX
  5
3A0
  8
LAYER_1
 10
54.42338572577459
 20
11.37685095681167
 30
0.0
  0
VERTEX
  5
3A1
  8
LAYER_1
 10
54.57378558749912
 20
11.38360485366148
 30
0.0
  0
VERTEX
  5
3A2
  8
LAYER_1
 10
54.68975492309625
 20
11.4024180262149
 30
0.0
  0
VERTEX
  5
3A3
  8
LAYER_1
 10
54.77545696097903
 20
11.43567889709433
 30
0.0
  0
VERTEX
  5
3A4
  8
LAYER_1
 10
54.83505492956052
 20
11.48577588892217
 30
0.0
  0
VERTEX
  5
3A5
  8
LAYER_1
 10
54.87271205725378
 20
11.55509742432084
 30
0.0
  0
VERTEX
  5
3A6
  8
LAYER_1
 10
54.89259157247186
 20
11.64603192591272
 30
0.0
  0
VERTEX
  5
3A7
  8
LAYER_1
 10
54.89885670362781
 20
11.76096781632023
 30
0.0
  0
VERTEX
  5
3A8
  8
LAYER_1
 10
54.90711833268534
 20
11.83787807842559
 30
0.0
  0
VERTEX
  5
3A9
  8
LAYER_1
 10
54.93132541426014
 20
11.88945883518451
 30
0.0
  0
VERTEX
  5
3AA
  8
LAYER_1
 10
54.97239775635623
 20
11.916822437927
 30
0.0
  0
VERTEX
  5
3AB
  8
LAYER_1
 10
55.03125516697764
 20
11.92108123798305
 30
0.0
  0
VERTEX
  5
3AC
  8
LAYER_1
 10
55.1862035102371
 20
11.91389319741177
 30
0.0
  0
VERTEX
  5
3AD
  8
LAYER_1
 10
55.24532995202222
 20
11.92064746694952
 30
0.0
  0
VERTEX
  5
3AE
  8
LAYER_1
 10
55.29572433257529
 20
11.9357683923704
 30
0.0
  0
VERTEX
  5
3AF
  8
LAYER_1
 10
55.34001147089457
 20
11.96035682067504
 30
0.0
  0
VERTEX
  5
3B0
  8
LAYER_1
 10
55.38081618597831
 20
11.99551359886411
 30
0.0
  0
VERTEX
  5
3B1
  8
LAYER_1
 10
55.46247762243229
 20
12.1019355928981
 30
0.0
  0
VERTEX
  5
3B2
  8
LAYER_1
 10
55.50589456650113
 20
12.17927852613919
 30
0.0
  0
VERTEX
  5
3B3
  8
LAYER_1
 10
55.53170211823646
 20
12.25185212414181
 30
0.0
  0
VERTEX
  5
3B4
  8
LAYER_1
 10
55.53991714680264
 20
12.31960022072331
 30
0.0
  0
VERTEX
  5
3B5
  8
LAYER_1
 10
55.530556521364
 20
12.38246664970102
 30
0.0
  0
VERTEX
  5
3B6
  8
LAYER_1
 10
55.50363711108486
 20
12.44039524489229
 30
0.0
  0
VERTEX
  5
3B7
  8
LAYER_1
 10
55.45917578512955
 20
12.49332984011446
 30
0.0
  0
VERTEX
  5
3B8
  8
LAYER_1
 10
55.3971894126624
 20
12.54121426918485
 30
0.0
  0
VERTEX
  5
3B9
  8
LAYER_1
 10
55.31769486284776
 20
12.58399236592082
 30
0.0
  0
VERTEX
  5
3BA
  8
LAYER_1
 10
55.14363630587391
 20
12.66329875181304
 30
0.0
  0
VERTEX
  5
3BB
  8
LAYER_1
 10
53.36250510066748
 20
13.05741433285699
 30
0.0
  0
VERTEX
  5
3BC
  8
LAYER_1
 10
53.23125509545207
 20
13.09626299280754
 30
0.0
  0
VERTEX
  5
3BD
  8
LAYER_1
 10
53.18029317936453
 20
13.11887247579168
 30
0.0
  0
VERTEX
  5
3BE
  8
LAYER_1
 10
53.13855977926869
 20
13.15171475051524
 30
0.0
  0
VERTEX
  5
3BF
  8
LAYER_1
 10
53.11036153596069
 20
13.19038577232376
 30
0.0
  0
VERTEX
  5
3C0
  8
LAYER_1
 10
53.10000509023666
 20
13.23048149656276
 30
0.0
  0
VERTEX
  5
3C1
  8
LAYER_1
 10
53.10000509023666
 20
13.32585134036741
 30
0.0
  0
VERTEX
  5
3C2
  8
LAYER_1
 10
53.74423546797394
 20
13.42169691638424
 30
0.0
  0
VERTEX
  5
3C3
  8
LAYER_1
 10
54.0229456025714
 20
13.45512233586282
 30
0.0
  0
VERTEX
  5
3C4
  8
LAYER_1
 10
54.30557368610107
 20
13.47527995999405
 30
0.0
  0
VERTEX
  5
3C5
  8
LAYER_1
 10
54.55910133061869
 20
13.48060073764199
 30
0.0
  0
VERTEX
  5
3C6
  8
LAYER_1
 10
54.75051014817998
 20
13.46951561767065
 30
0.0
  0
VERTEX
  5
3C7
  8
LAYER_1
 10
54.94483940263154
 20
13.45068518300379
 30
0.0
  0
VERTEX
  5
3C8
  8
LAYER_1
 10
55.01852236364764
 20
13.45157024659065
 30
0.0
  0
VERTEX
  5
3C9
  8
LAYER_1
 10
55.08148749003607
 20
13.46042208950085
 30
0.0
  0
VERTEX
  5
3CA
  8
LAYER_1
 10
55.13743723893093
 20
13.47806565576677
 30
0.0
  0
VERTEX
  5
3CB
  8
LAYER_1
 10
55.19007406746631
 20
13.50532588942079
 30
0.0
  0
VERTEX
  5
3CC
  8
LAYER_1
 10
55.30021879199504
 20
13.59199613502255
 30
0.0
  0
VERTEX
  5
3CD
  8
LAYER_1
 10
55.39708679025681
 20
13.68877744170812
 30
0.0
  0
VERTEX
  5
3CE
  8
LAYER_1
 10
55.46930569574337
 20
13.7810949994069
 30
0.0
  0
VERTEX
  5
3CF
  8
LAYER_1
 10
55.51696287294394
 20
13.86961794999045
 30
0.0
  0
VERTEX
  5
3D0
  8
LAYER_1
 10
55.54014568634774
 20
13.95501543533029
 30
0.0
  0
VERTEX
  5
3D1
  8
LAYER_1
 10
55.53894150044402
 20
14.03795659729797
 30
0.0
  0
VERTEX
  5
3D2
  8
LAYER_1
 10
55.51343767972198
 20
14.11911057776504
 30
0.0
  0
VERTEX
  5
3D3
  8
LAYER_1
 10
55.46372158867086
 20
14.19914651860302
 30
0.0
  0
VERTEX
  5
3D4
  8
LAYER_1
 10
55.3898805917799
 20
14.27873356168347
 30
0.0
  0
VERTEX
  5
3D5
  8
LAYER_1
 10
55.32781568452938
 20
14.33137029340372
 30
0.0
  0
VERTEX
  5
3D6
  8
LAYER_1
 10
55.26279514866718
 20
14.37414911401407
 30
0.0
  0
VERTEX
  5
3D7
  8
LAYER_1
 10
55.18854041785336
 20
14.40864240865866
 30
0.0
  0
VERTEX
  5
3D8
  8
LAYER_1
 10
55.09877292574797
 20
14.43642256248163
 30
0.0
  0
VERTEX
  5
3D9
  8
LAYER_1
 10
54.98721410601109
 20
14.4590619606271
 30
0.0
  0
VERTEX
  5
3DA
  8
LAYER_1
 10
54.8475853923028
 20
14.47813298823921
 30
0.0
  0
VERTEX
  5
3DB
  8
LAYER_1
 10
54.45900401761216
 20
14.51185947243987
 30
0.0
  0
VERTEX
  5
3DC
  8
LAYER_1
 10
53.72281927436759
 20
14.56455108389598
 30
0.0
  0
VERTEX
  5
3DD
  8
LAYER_1
 10
53.62903270579639
 20
14.6225143709612
 30
0.0
  0
VERTEX
  5
3DE
  8
LAYER_1
 10
53.59473332664443
 20
14.65614723226425
 30
0.0
  0
VERTEX
  5
3DF
  8
LAYER_1
 10
53.57067402376479
 20
14.70487349897545
 30
0.0
  0
VERTEX
  5
3E0
  8
LAYER_1
 10
53.55905217041503
 20
14.7621642630411
 30
0.0
  0
VERTEX
  5
3E1
  8
LAYER_1
 10
53.56206513985265
 20
14.82149061640749
 30
0.0
  0
VERTEX
  5
3E2
  8
LAYER_1
 10
53.57405545034169
 20
14.86116482965062
 30
0.0
  0
VERTEX
  5
3E3
  8
LAYER_1
 10
53.59536479774896
 20
14.8939330479471
 30
0.0
  0
VERTEX
  5
3E4
  8
LAYER_1
 10
53.62879271757338
 20
14.92076825544752
 30
0.0
  0
VERTEX
  5
3E5
  8
LAYER_1
 10
53.67713874531388
 20
14.94264343630245
 30
0.0
  0
VERTEX
  5
3E6
  8
LAYER_1
 10
53.82978326653895
 20
14.97540565467811
 30
0.0
  0
VERTEX
  5
3E7
  8
LAYER_1
 10
54.07569464541567
 20
15.00000357627869
 30
0.0
  0
VERTEX
  5
3E8
  8
LAYER_1
 10
54.2732803153316
 20
15.02198259620983
 30
0.0
  0
VERTEX
  5
3E9
  8
LAYER_1
 10
54.45137599752678
 20
15.0562420300209
 30
0.0
  0
VERTEX
  5
3EA
  8
LAYER_1
 10
54.61091528920994
 20
15.10325066164858
 30
0.0
  0
VERTEX
  5
3EB
  8
LAYER_1
 10
54.75283178758981
 20
15.16347727502952
 30
0.0
  0
VERTEX
  5
3EC
  8
LAYER_1
 10
54.87805908987511
 20
15.23739065410041
 30
0.0
  0
VERTEX
  5
3ED
  8
LAYER_1
 10
54.98753079327462
 20
15.32545958279792
 30
0.0
  0
VERTEX
  5
3EE
  8
LAYER_1
 10
55.08218049499703
 20
15.4281528450587
 30
0.0
  0
VERTEX
  5
3EF
  8
LAYER_1
 10
55.1629417922511
 20
15.54593922481943
 30
0.0
  0
VERTEX
  5
3F0
  8
LAYER_1
 10
55.29620961358856
 20
15.77154366462476
 30
0.0
  0
VERTEX
  5
3F1
  8
LAYER_1
 10
55.07935738693035
 20
15.71792269601413
 30
0.0
  0
VERTEX
  5
3F2
  8
LAYER_1
 10
54.89890412233208
 20
15.67624754957512
 30
0.0
  0
VERTEX
  5
3F3
  8
LAYER_1
 10
54.7393345113833
 20
15.6470594641403
 30
0.0
  0
VERTEX
  5
3F4
  8
LAYER_1
 10
54.5925772946668
 20
15.63051102064875
 30
0.0
  0
VERTEX
  5
3F5
  8
LAYER_1
 10
54.45056121276538
 20
15.62675480003953
 30
0.0
  0
VERTEX
  5
3F6
  8
LAYER_1
 10
54.30521500626179
 20
15.6359433832517
 30
0.0
  0
VERTEX
  5
3F7
  8
LAYER_1
 10
54.14846741573884
 20
15.65822935122433
 30
0.0
  0
VERTEX
  5
3F8
  8
LAYER_1
 10
53.7684830449659
 20
15.74270376520724
 30
0.0
  0
VERTEX
  5
3F9
  8
LAYER_1
 10
53.4874539870454
 20
15.80378034636084
 30
0.0
  0
VERTEX
  5
3FA
  8
LAYER_1
 10
53.18210558245179
 20
15.85379678203392
 30
0.0
  0
VERTEX
  5
3FB
  8
LAYER_1
 10
52.88927578497808
 20
15.88759167100221
 30
0.0
  0
VERTEX
  5
3FC
  8
LAYER_1
 10
52.64580254841728
 20
15.90000361204147
 30
0.0
  0
VERTEX
  5
3FD
  8
LAYER_1
 10
52.37057570518117
 20
15.9098530896714
 30
0.0
  0
VERTEX
  5
3FE
  8
LAYER_1
 10
52.25363710614367
 20
15.92451040740837
 30
0.0
  0
VERTEX
  5
3FF
  8
LAYER_1
 10
52.14225303740696
 20
15.94774097393739
 30
0.0
  0
VERTEX
  5
400
  8
LAYER_1
 10
52.03025198540635
 20
15.98110843639149
 30
0.0
  0
VERTEX
  5
401
  8
LAYER_1
 10
51.91146243657715
 20
16.02617644190371
 30
0.0
  0
VERTEX
  5
402
  8
LAYER_1
 10
51.62883179417425
 20
16.15766867063468
 30
0.0
  0
VERTEX
  5
403
  8
LAYER_1
 10
51.36917209564443
 20
16.27094754015851
 30
0.0
  0
VERTEX
  5
404
  8
LAYER_1
 10
51.04386349498699
 20
16.38890567562226
 30
0.0
  0
VERTEX
  5
405
  8
LAYER_1
 10
50.69445734074416
 20
16.49758587737339
 30
0.0
  0
VERTEX
  5
406
  8
LAYER_1
 10
50.36250498145819
 20
16.58303094575938
 30
0.0
  0
VERTEX
  5
407
  8
LAYER_1
 10
49.61250495165586
 20
16.75072816229086
 30
0.0
  0
VERTEX
  5
408
  8
LAYER_1
 10
49.51875494793057
 20
16.82204926056075
 30
0.0
  0
VERTEX
  5
409
  8
LAYER_1
 10
49.49778744552574
 20
16.84685015650018
 30
0.0
  0
VERTEX
  5
40A
  8
LAYER_1
 10
49.47921628333579
 20
16.88707594167493
 30
0.0
  0
VERTEX
  5
40B
  8
LAYER_1
 10
49.44975530027885
 20
17.01071887251639
 30
0.0
  0
VERTEX
  5
40C
  8
LAYER_1
 10
49.43135664011646
 20
17.18681143865713
 30
0.0
  0
VERTEX
  5
40D
  8
LAYER_1
 10
49.42500494420528
 20
17.4091870256692
 30
0.0
  0
VERTEX
  5
40E
  8
LAYER_1
 10
49.42932196311489
 20
17.58816580111431
 30
0.0
  0
VERTEX
  5
40F
  8
LAYER_1
 10
49.44177716370296
 20
17.7304199564307
 30
0.0
  0
VERTEX
  5
410
  8
LAYER_1
 10
49.46162676175834
 20
17.83480566039272
 30
0.0
  0
VERTEX
  5
411
  8
LAYER_1
 10
49.48812697306987
 20
17.9001790817747
 30
0.0
  0
VERTEX
  5
412
  8
LAYER_1
 10
49.50363862613071
 20
17.91787873924015
 30
0.0
  0
VERTEX
  5
413
  8
LAYER_1
 10
49.52053401342641
 20
17.92539638935098
 30
0.0
  0
VERTEX
  5
414
  8
LAYER_1
 10
49.53872016193057
 20
17.92258905320396
 30
0.0
  0
VERTEX
  5
415
  8
LAYER_1
 10
49.55810409861681
 20
17.90931375189591
 30
0.0
  0
VERTEX
  5
416
  8
LAYER_1
 10
49.60009344442992
 20
17.85078733818383
 30
0.0
  0
VERTEX
  5
417
  8
LAYER_1
 10
49.6457582666546
 20
17.74867331698908
 30
0.0
  0
VERTEX
  5
418
  8
LAYER_1
 10
49.66815438748611
 20
17.699150389404
 30
0.0
  0
VERTEX
  5
419
  8
LAYER_1
 10
49.69580312753841
 20
17.65817817705972
 30
0.0
  0
VERTEX
  5
41A
  8
LAYER_1
 10
49.73121611895773
 20
17.6245498101735
 30
0.0
  0
VERTEX
  5
41B
  8
LAYER_1
 10
49.77690499389029
 20
17.59705841896255
 30
0.0
  0
VERTEX
  5
41C
  8
LAYER_1
 10
49.83538138448233
 20
17.57449713364412
 30
0.0
  0
VERTEX
  5
41D
  8
LAYER_1
 10
49.90915692288006
 20
17.55565908443542
 30
0.0
  0
VERTEX
  5
41E
  8
LAYER_1
 10
50.11265197167749
 20
17.52432521521615
 30
0.0
  0
VERTEX
  5
41F
  8
LAYER_1
 10
50.52253052986241
 20
17.48672834170609
 30
0.0
  0
VERTEX
  5
420
  8
LAYER_1
 10
50.88091784134254
 20
17.4797006145102
 30
0.0
  0
VERTEX
  5
421
  8
LAYER_1
 10
51.04447707054151
 20
17.48774139659604
 30
0.0
  0
VERTEX
  5
422
  8
LAYER_1
 10
51.19957323723212
 20
17.50353392423958
 30
0.0
  0
VERTEX
  5
423
  8
LAYER_1
 10
51.34767625780366
 20
17.52711468376719
 30
0.0
  0
VERTEX
  5
424
  8
LAYER_1
 10
51.49025604864541
 20
17.55852016150529
 30
0.0
  0
VERTEX
  5
425
  8
LAYER_1
 10
51.64924271599445
 20
17.59259939225452
 30
0.0
  0
VERTEX
  5
426
  8
LAYER_1
 10
51.79001094749215
 20
17.60761859772047
 30
0.0
  0
VERTEX
  5
427
  8
LAYER_1
 10
51.91903128342727
 20
17.6013604440401
 30
0.0
  0
VERTEX
  5
428
  8
LAYER_1
 10
52.0427742640886
 20
17.57160759735037
 30
0.0
  0
VERTEX
  5
429
  8
LAYER_1
 10
52.16771042976492
 20
17.51614272378823
 30
0.0
  0
VERTEX
  5
42A
  8
LAYER_1
 10
52.30031032074498
 20
17.43274848949062
 30
0.0
  0
VERTEX
  5
42B
  8
LAYER_1
 10
52.44704447731759
 20
17.31920756059452
 30
0.0
  0
VERTEX
  5
42C
  8
LAYER_1
 10
52.61438343977152
 20
17.17330260323688
 30
0.0
  0
VERTEX
  5
42D
  8
LAYER_1
 10
52.78697242477106
 20
17.02835761819781
 30
0.0
  0
VERTEX
  5
42E
  8
LAYER_1
 10
52.95217407718823
 20
16.90966021596259
 30
0.0
  0
VERTEX
  5
42F
  8
LAYER_1
 10
53.09124990139516
 20
16.82945926850636
 30
0.0
  0
VERTEX
  5
430
  8
LAYER_1
 10
53.14513484803607
 20
16.8076227378126
 30
0.0
  0
VERTEX
  5
431
  8
LAYER_1
 10
53.18546140176394
 20
16.80000364780426
 30
0.0
  0
VERTEX
  5
432
  8
LAYER_1
 10
53.23456915163706
 20
16.80186701459808
 30
0.0
  0
VERTEX
  5
433
  8
LAYER_1
 10
53.27148747545851
 20
16.80990795909419
 30
0.0
  0
VERTEX
  5
434
  8
LAYER_1
 10
53.29722521975158
 20
16.82780274746458
 30
0.0
  0
VERTEX
  5
435
  8
LAYER_1
 10
53.31279123103958
 20
16.85922764588125
 30
0.0
  0
VERTEX
  5
436
  8
LAYER_1
 10
53.31919435584578
 20
16.90785892051619
 30
0.0
  0
VERTEX
  5
437
  8
LAYER_1
 10
53.31744344069348
 20
16.97737283754138
 30
0.0
  0
VERTEX
  5
438
  8
LAYER_1
 10
53.29351487660651
 20
17.19375366345048
 30
0.0
  0
VERTEX
  5
439
  8
LAYER_1
 10
53.25953179161358
 20
17.43046733165454
 30
0.0
  0
VERTEX
  5
43A
  8
LAYER_1
 10
53.22208463973305
 20
17.63368422170362
 30
0.0
  0
VERTEX
  5
43B
  8
LAYER_1
 10
53.17910405333001
 20
17.80876655349016
 30
0.0
  0
VERTEX
  5
43C
  8
LAYER_1
 10
53.12852066476956
 20
17.96107654690663
 30
0.0
  0
VERTEX
  5
43D
  8
LAYER_1
 10
53.06826510641681
 20
18.09597642184547
 30
0.0
  0
VERTEX
  5
43E
  8
LAYER_1
 10
52.99626801063688
 20
18.21882839819915
 30
0.0
  0
VERTEX
  5
43F
  8
LAYER_1
 10
52.91046000979485
 20
18.33499469586012
 30
0.0
  0
VERTEX
  5
440
  8
LAYER_1
 10
52.80877173625585
 20
18.44983753472083
 30
0.0
  0
VERTEX
  5
441
  8
LAYER_1
 10
52.64628182115619
 20
18.60909918707427
 30
0.0
  0
VERTEX
  5
442
  8
LAYER_1
 10
52.57830023634731
 20
18.6618543737442
 30
0.0
  0
VERTEX
  5
443
  8
LAYER_1
 10
52.51259729101725
 20
18.69979679451842
 30
0.0
  0
VERTEX
  5
444
  8
LAYER_1
 10
52.44425027840464
 20
18.72525469472853
 30
0.0
  0
VERTEX
  5
445
  8
LAYER_1
 10
52.36833649174811
 20
18.74055631970614
 30
0.0
  0
VERTEX
  5
446
  8
LAYER_1
 10
52.17411776925785
 20
18.7500037252903
 30
0.0
  0
VERTEX
  5
447
  8
LAYER_1
 10
52.03856384218479
 20
18.75592169427546
 30
0.0
  0
VERTEX
  5
448
  8
LAYER_1
 10
51.92755690391773
 20
18.77203497616574
 30
0.0
  0
VERTEX
  5
449
  8
LAYER_1
 10
51.85255221589944
 20
18.79588263336336
 30
0.0
  0
VERTEX
  5
44A
  8
LAYER_1
 10
51.83213048493445
 20
18.80993780970311
 30
0.0
  0
VERTEX
  5
44B
  8
LAYER_1
 10
51.82500503957272
 20
18.82500372827053
 30
0.0
  0
VERTEX
  5
44C
  8
LAYER_1
 10
51.83082193433508
 20
18.84006964683795
 30
0.0
  0
VERTEX
  5
44D
  8
LAYER_1
 10
51.84749332171617
 20
18.8541248231777
 30
0.0
  0
VERTEX
  5
44E
  8
LAYER_1
 10
51.90872379289885
 20
18.87797248037532
 30
0.0
  0
VERTEX
  5
44F
  8
LAYER_1
 10
51.9993448902492
 20
18.8940857622656
 30
0.0
  0
VERTEX
  5
450
  8
LAYER_1
 10
52.11000505089571
 20
18.90000373125076
 30
0.0
  0
VERTEX
  5
451
  8
LAYER_1
 10
52.22628728207826
 20
18.9051849101071
 30
0.0
  0
VERTEX
  5
452
  8
LAYER_1
 10
52.33221599722479
 20
18.91929208026049
 30
0.0
  0
VERTEX
  5
453
  8
LAYER_1
 10
52.41610174274581
 20
18.94017069208751
 30
0.0
  0
VERTEX
  5
454
  8
LAYER_1
 10
52.46625506505181
 20
18.96566619596473
 30
0.0
  0
VERTEX
  5
455
  8
LAYER_1
 10
52.53750506788492
 20
19.03132866067871
 30
0.0
  0
VERTEX
  5
456
  8
LAYER_1
 10
54.56250514835119
 20
19.52341744355085
 30
0.0
  0
VERTEX
  5
457
  8
LAYER_1
 10
54.79766390877131
 20
19.99848325456101
 30
0.0
  0
VERTEX
  5
458
  8
LAYER_1
 10
54.92541217226298
 20
20.26294396274049
 30
0.0
  0
VERTEX
  5
459
  8
LAYER_1
 10
54.96014815573677
 20
20.34544143671067
 30
0.0
  0
VERTEX
  5
45A
  8
LAYER_1
 10
54.97646595107474
 20
20.40067914023064
 30
0.0
  0
VERTEX
  5
45B
  8
LAYER_1
 10
54.97512099131104
 20
20.43307868552252
 30
0.0
  0
VERTEX
  5
45C
  8
LAYER_1
 10
54.95686870947985
 20
20.44706168480842
 30
0.0
  0
VERTEX
  5
45D
  8
LAYER_1
 10
54.87266391175154
 20
20.43746449425076
 30
0.0
  0
VERTEX
  5
45E
  8
LAYER_1
 10
54.59397727786568
 20
20.37873536157023
 30
0.0
  0
VERTEX
  5
45F
  8
LAYER_1
 10
54.31142041037329
 20
20.32769292567784
 30
0.0
  0
VERTEX
  5
460
  8
LAYER_1
 10
54.01934957276612
 20
20.28372255315504
 30
0.0
  0
VERTEX
  5
461
  8
LAYER_1
 10
53.71212102853588
 20
20.24620961058324
 30
0.0
  0
VERTEX
  5
462
  8
LAYER_1
 10
53.02961587417314
 20
20.18809748161837
 30
0.0
  0
VERTEX
  5
463
  8
LAYER_1
 10
52.21875505521894
 20
20.14843947143467
 30
0.0
  0
VERTEX
  5
464
  8
LAYER_1
 10
51.37500502169132
 20
20.11803908147975
 30
0.0
  0
VERTEX
  5
465
  8
LAYER_1
 10
51.37500502169132
 20
20.25902143616759
 30
0.0
  0
VERTEX
  5
466
  8
LAYER_1
 10
51.37797419959158
 20
20.29830224536112
 30
0.0
  0
VERTEX
  5
467
  8
LAYER_1
 10
51.38803104246244
 20
20.32989929643026
 30
0.0
  0
VERTEX
  5
468
  8
LAYER_1
 10
51.40689951405903
 20
20.3545814497388
 30
0.0
  0
VERTEX
  5
469
  8
LAYER_1
 10
51.43630357813649
 20
20.37311756565054
 30
0.0
  0
VERTEX
  5
46A
  8
LAYER_1
 10
51.53361433875444
 20
20.39482712673887
 30
0.0
  0
VERTEX
  5
46B
  8
LAYER_1
 10
51.69375503435731
 20
20.40117886260568
 30
0.0
  0
VERTEX
  5
46C
  8
LAYER_1
 10
51.8560313066896
 20
20.40652707943538
 30
0.0
  0
VERTEX
  5
46D
  8
LAYER_1
 10
52.02736012134989
 20
20.42094714377266
 30
0.0
  0
VERTEX
  5
46E
  8
LAYER_1
 10
52.38838921442827
 20
20.47420145140652
 30
0.0
  0
VERTEX
  5
46F
  8
LAYER_1
 10
52.75926998713994
 20
20.55533905838042
 30
0.0
  0
VERTEX
  5
470
  8
LAYER_1
 10
53.12243011303244
 20
20.65875723756752
 30
0.0
  0
VERTEX
  5
471
  8
LAYER_1
 10
53.46029726565326
 20
20.778853261841
 30
0.0
  0
VERTEX
  5
472
  8
LAYER_1
 10
53.75529911854991
 20
20.91002440407401
 30
0.0
  0
VERTEX
  5
473
  8
LAYER_1
 10
53.88123420558527
 20
20.97801229219821
 30
0.0
  0
VERTEX
  5
474
  8
LAYER_1
 10
53.98986334526992
 20
21.04666793713973
 30
0.0
  0
VERTEX
  5
475
  8
LAYER_1
 10
54.07898999679728
 20
21.11529099800772
 30
0.0
  0
VERTEX
  5
476
  8
LAYER_1
 10
54.14641761936079
 20
21.18318113391132
 30
0.0
  0
VERTEX
  5
477
  8
LAYER_1
 10
54.24337184298631
 20
21.30000382661819
 30
0.0
  0
VERTEX
  5
478
  8
LAYER_1
 10
52.2661525079461
 20
21.30000382661819
 30
0.0
  0
VERTEX
  5
479
  8
LAYER_1
 10
52.30737014910513
 20
21.36669537094961
 30
0.0
  0
VERTEX
  5
47A
  8
LAYER_1
 10
52.33801866514224
 20
21.39626597735599
 30
0.0
  0
VERTEX
  5
47B
  8
LAYER_1
 10
52.39099816788648
 20
21.42747943609967
 30
0.0
  0
VERTEX
  5
47C
  8
LAYER_1
 10
52.45886642022153
 20
21.45661899257754
 30
0.0
  0
VERTEX
  5
47D
  8
LAYER_1
 10
52.53418118503107
 20
21.47996789218654
 30
0.0
  0
VERTEX
  5
47E
  8
LAYER_1
 10
52.62430703207414
 20
21.51064866334775
 30
0.0
  0
VERTEX
  5
47F
  8
LAYER_1
 10
52.72738787550857
 20
21.55965583863879
 30
0.0
  0
VERTEX
  5
480
  8
LAYER_1
 10
52.96270698934306
 20
21.70393491900969
 30
0.0
  0
VERTEX
  5
481
  8
LAYER_1
 10
53.22072340211764
 20
21.89537616809792
 30
0.0
  0
VERTEX
  5
482
  8
LAYER_1
 10
53.4820219894154
 20
22.11655062070215
 30
0.0
  0
VERTEX
  5
483
  8
LAYER_1
 10
53.72718762681944
 20
22.35002931162109
 30
0.0
  0
VERTEX
  5
484
  8
LAYER_1
 10
53.93680518991285
 20
22.57838327565339
 30
0.0
  0
VERTEX
  5
485
  8
LAYER_1
 10
54.02221621721278
 20
22.68519193346165
 30
0.0
  0
VERTEX
  5
486
  8
LAYER_1
 10
54.09145955427871
 20
22.78418354759776
 30
0.0
  0
VERTEX
  5
487
  8
LAYER_1
 10
54.14210831055854
 20
22.87317949741155
 30
0.0
  0
VERTEX
  5
488
  8
LAYER_1
 10
54.17173559550014
 20
22.95000116225286
 30
0.0
  0
VERTEX
  5
489
  8
LAYER_1
 10
54.18251512390616
 20
23.00934269972976
 30
0.0
  0
VERTEX
  5
48A
  8
LAYER_1
 10
54.17551673521767
 20
23.04904587046622
 30
0.0
  0
VERTEX
  5
48B
  8
LAYER_1
 10
54.1637927878248
 20
23.0612485948607
 30
0.0
  0
VERTEX
  5
48C
  8
LAYER_1
 10
54.14575472019253
 20
23.06820035943476
 30
0.0
  0
VERTEX
  5
48D
  8
LAYER_1
 10
54.08824336958861
 20
23.06589585160789
 30
0.0
  0
VERTEX
  5
48E
  8
LAYER_1
 10
53.99799697416378
 20
23.04122203195813
 30
0.0
  0
VERTEX
  5
48F
  8
LAYER_1
 10
53.87002982467593
 20
22.99326858545799
 30
0.0
  0
VERTEX
  5
490
  8
LAYER_1
 10
53.4809904265426
 20
22.82388155179663
 30
0.0
  0
VERTEX
  5
491
  8
LAYER_1
 10
53.30541183048332
 20
22.74971682917067
 30
0.0
  0
VERTEX
  5
492
  8
LAYER_1
 10
53.11810234871336
 20
22.68020577615929
 30
0.0
  0
VERTEX
  5
493
  8
LAYER_1
 10
52.92110855592727
 20
22.61589515772922
 30
0.0
  0
VERTEX
  5
494
  8
LAYER_1
 10
52.71647702681955
 20
22.55733173884719
 30
0.0
  0
VERTEX
  5
495
  8
LAYER_1
 10
52.29248705841731
 20
22.45963355959423
 30
0.0
  0
VERTEX
  5
496
  8
LAYER_1
 10
52.07722176851183
 20
22.42159232915678
 30
0.0
  0
VERTEX
  5
497
  8
LAYER_1
 10
51.86250504106283
 20
22.39148535813432
 30
0.0
  0
VERTEX
  5
498
  8
LAYER_1
 10
51.65909200624067
 20
22.36923118476204
 30
0.0
  0
VERTEX
  5
499
  8
LAYER_1
 10
51.56525249008641
 20
22.3703110613535
 30
0.0
  0
VERTEX
  5
49A
  8
LAYER_1
 10
51.55404866231759
 20
22.38135539866738
 30
0.0
  0
VERTEX
  5
49B
  8
LAYER_1
 10
51.56378924718518
 20
22.40033820481028
 30
0.0
  0
VERTEX
  5
49C
  8
LAYER_1
 10
51.63750503212214
 20
22.4649258320339
 30
0.0
  0
VERTEX
  5
49D
  8
LAYER_1
 10
51.72178613484493
 20
22.51815436474031
 30
0.0
  0
VERTEX
  5
49E
  8
LAYER_1
 10
51.84037947943648
 20
22.57513117491051
 30
0.0
  0
VERTEX
  5
49F
  8
LAYER_1
 10
51.97753512790757
 20
22.62902825189838
 30
0.0
  0
VERTEX
  5
4A0
  8
LAYER_1
 10
52.11750314226902
 20
22.67301758505783
 30
0.0
  0
VERTEX
  5
4A1
  8
LAYER_1
 10
52.27779368307582
 20
22.73418866962559
 30
0.0
  0
VERTEX
  5
4A2
  8
LAYER_1
 10
52.45149848082594
 20
22.83034998939221
 30
0.0
  0
VERTEX
  5
4A3
  8
LAYER_1
 10
52.62789572177083
 20
22.95200088550283
 30
0.0
  0
VERTEX
  5
4A4
  8
LAYER_1
 10
52.79626359216191
 20
23.08964069910256
 30
0.0
  0
VERTEX
  5
4A5
  8
LAYER_1
 10
52.94588027825063
 20
23.23376877133651
 30
0.0
  0
VERTEX
  5
4A6
  8
LAYER_1
 10
53.0660239662884
 20
23.37488444334981
 30
0.0
  0
VERTEX
  5
4A7
  8
LAYER_1
 10
53.11169286924176
 20
23.44134367338157
 30
0.0
  0
VERTEX
  5
4A8
  8
LAYER_1
 10
53.14597284252667
 20
23.50348705628758
 30
0.0
  0
VERTEX
  5
4A9
  8
LAYER_1
 10
53.16752365942458
 20
23.56012700971099
 30
0.0
  0
VERTEX
  5
4AA
  8
LAYER_1
 10
53.1750050932169
 20
23.61007595129493
 30
0.0
  0
VERTEX
  5
4AB
  8
LAYER_1
 10
53.16624610837529
 20
23.67747629982706
 30
0.0
  0
VERTEX
  5
4AC
  8
LAYER_1
 10
53.14093801974474
 20
23.72703872782992
 30
0.0
  0
VERTEX
  5
4AD
  8
LAYER_1
 10
53.10053412616656
 20
23.75865496664312
 30
0.0
  0
VERTEX
  5
4AE
  8
LAYER_1
 10
53.04648772648214
 20
23.77221674760626
 30
0.0
  0
VERTEX
  5
4AF
  8
LAYER_1
 10
52.98025211953281
 20
23.76761580205895
 30
0.0
  0
VERTEX
  5
4B0
  8
LAYER_1
 10
52.90328060415994
 20
23.74474386134081
 30
0.0
  0
VERTEX
  5
4B1
  8
LAYER_1
 10
52.81702647920487
 20
23.70349265679144
 30
0.0
  0
VERTEX
  5
4B2
  8
LAYER_1
 10
52.72294304350898
 20
23.64375391975045
 30
0.0
  0
VERTEX
  5
4B3
  8
LAYER_1
 10
52.66911802768713
 20
23.61026101289717
 30
0.0
  0
VERTEX
  5
4B4
  8
LAYER_1
 10
52.60979057766193
 20
23.58274380557161
 30
0.0
  0
VERTEX
  5
4B5
  8
LAYER_1
 10
52.54310391430093
 20
23.5608827389195
 30
0.0
  0
VERTEX
  5
4B6
  8
LAYER_1
 10
52.46720125847171
 20
23.54435825408653
 30
0.0
  0
VERTEX
  5
4B7
  8
LAYER_1
 10
52.28032085287896
 20
23.52604079446085
 30
0.0
  0
VERTEX
  5
4B8
  8
LAYER_1
 10
52.03429512782429
 20
23.52523495586023
 30
0.0
  0
VERTEX
  5
4B9
  8
LAYER_1
 10
51.63023118162855
 20
23.54967412301967
 30
0.0
  0
VERTEX
  5
4BA
  8
LAYER_1
 10
51.46943490007567
 20
23.56913080441867
 30
0.0
  0
VERTEX
  5
4BB
  8
LAYER_1
 10
51.36539352468991
 20
23.59055448815911
 30
0.0
  0
VERTEX
  5
4BC
  8
LAYER_1
 10
51.28258209644238
 20
23.62157551781185
 30
0.0
  0
VERTEX
  5
4BD
  8
LAYER_1
 10
51.26579236968553
 20
23.63511423407155
 30
0.0
  0
VERTEX
  5
4BE
  8
LAYER_1
 10
51.26654597288224
 20
23.64901246397412
 30
0.0
  0
VERTEX
  5
4BF
  8
LAYER_1
 10
51.32408118426329
 20
23.68290960276985
 30
0.0
  0
VERTEX
  5
4C0
  8
LAYER_1
 10
51.46198376083937
 20
23.73331121032298
 30
0.0
  0
VERTEX
  5
4C1
  8
LAYER_1
 10
51.59232028128746
 20
23.79008120916664
 30
0.0
  0
VERTEX
  5
4C2
  8
LAYER_1
 10
51.75330959636145
 20
23.87799768560992
 30
0.0
  0
VERTEX
  5
4C3
  8
LAYER_1
 10
51.92449518694461
 20
23.9850535456191
 30
0.0
  0
VERTEX
  5
4C4
  8
LAYER_1
 10
52.08542053392026
 20
24.09924169516043
 30
0.0
  0
VERTEX
  5
4C5
  8
LAYER_1
 10
52.36485708284822
 20
24.29464459863554
 30
0.0
  0
VERTEX
  5
4C6
  8
LAYER_1
 10
52.46882917405846
 20
24.35458945227911
 30
0.0
  0
VERTEX
  5
4C7
  8
LAYER_1
 10
52.52954023932158
 20
24.37720245718801
 30
0.0
  0
VERTEX
  5
4C8
  8
LAYER_1
 10
52.58772638224119
 20
24.39743094761263
 30
0.0
  0
VERTEX
  5
4C9
  8
LAYER_1
 10
52.66976993515875
 20
24.44933513634596
 30
0.0
  0
VERTEX
  5
4CA
  8
LAYER_1
 10
52.86317174154329
 20
24.60907258547377
 30
0.0
  0
VERTEX
  5
4CB
  8
LAYER_1
 10
52.95340123028807
 20
24.69735683423575
 30
0.0
  0
VERTEX
  5
4CC
  8
LAYER_1
 10
53.0252305995864
 20
24.77821875804146
 30
0.0
  0
VERTEX
  5
4CD
  8
LAYER_1
 10
53.06809546707717
 20
24.84188385107465
 30
0.0
  0
VERTEX
  5
4CE
  8
LAYER_1
 10
53.07536484315688
 20
24.86421305298398
 30
0.0
  0
VERTEX
  5
4CF
  8
LAYER_1
 10
53.07143145039927
 20
24.87857760751908
 30
0.0
  0
VERTEX
  5
4D0
  8
LAYER_1
 10
53.0549210781224
 20
24.88391338920088
 30
0.0
  0
VERTEX
  5
4D1
  8
LAYER_1
 10
53.02425834135508
 20
24.88254942852496
 30
0.0
  0
VERTEX
  5
4D2
  8
LAYER_1
 10
52.92752490577408
 20
24.86165559470208
 30
0.0
  0
VERTEX
  5
4D3
  8
LAYER_1
 10
52.7953294065062
 20
24.81976273525476
 30
0.0
  0
VERTEX
  5
4D4
  8
LAYER_1
 10
52.64177010640137
 20
24.76073747938732
 30
0.0
  0
VERTEX
  5
4D5
  8
LAYER_1
 10
52.47801610415906
 20
24.69456321886437
 30
0.0
  0
VERTEX
  5
4D6
  8
LAYER_1
 10
52.34540203564369
 20
24.64759563591801
 30
0.0
  0
VERTEX
  5
4D7
  8
LAYER_1
 10
52.2352750101134
 20
24.6200004928007
 30
0.0
  0
VERTEX
  5
4D8
  8
LAYER_1
 10
52.13898213682638
 20
24.61194355176494
 30
0.0
  0
VERTEX
  5
4D9
  8
LAYER_1
 10
52.04787052504075
 20
24.62359057506323
 30
0.0
  0
VERTEX
  5
4DA
  8
LAYER_1
 10
51.95328728401469
 20
24.65510732494804
 30
0.0
  0
VERTEX
  5
4DB
  8
LAYER_1
 10
51.7190943512739
 20
24.77841305348718
 30
0.0
  0
VERTEX
  5
4DC
  8
LAYER_1
 10
51.58131245115744
 20
24.8517239027158
 30
0.0
  0
VERTEX
  5
4DD
  8
LAYER_1
 10
51.43280456181763
 20
24.91944681783728
 30
0.0
  0
VERTEX
  5
4DE
  8
LAYER_1
 10
51.29142310625437
 20
24.97404860598186
 30
0.0
  0
VERTEX
  5
4DF
  8
LAYER_1
 10
51.17502050746754
 20
25.00799607427979
 30
0.0
  0
VERTEX
  5
4E0
  8
LAYER_1
 10
51.07973432668113
 20
25.0358803038177
 30
0.0
  0
VERTEX
  5
4E1
  8
LAYER_1
 10
50.99584806864372
 20
25.07397327355627
 30
0.0
  0
VERTEX
  5
4E2
  8
LAYER_1
 10
50.93243307164219
 20
25.11726313743683
 30
0.0
  0
VERTEX
  5
4E3
  8
LAYER_1
 10
50.89856067396339
 20
25.16073804940073
 30
0.0
  0
VERTEX
  5
4E4
  8
LAYER_1
 10
50.89885547202357
 20
25.1907163555368
 30
0.0
  0
VERTEX
  5
4E5
  8
LAYER_1
 10
50.9160763646654
 20
25.23319314485471
 30
0.0
  0
VERTEX
  5
4E6
  8
LAYER_1
 10
50.99310381207968
 20
25.34767642364301
 30
0.0
  0
VERTEX
  5
4E7
  8
LAYER_1
 10
51.11325777297765
 20
25.48825638697954
 30
0.0
  0
VERTEX
  5
4E8
  8
LAYER_1
 10
51.26015300413071
 20
25.63900153607823
 30
0.0
  0
VERTEX
  5
4E9
  8
LAYER_1
 10
51.41740426231028
 20
25.78398037215299
 30
0.0
  0
VERTEX
  5
4EA
  8
LAYER_1
 10
51.56862630428777
 20
25.90726139641773
 30
0.0
  0
VERTEX
  5
4EB
  8
LAYER_1
 10
51.69743388683458
 20
25.99291311008637
 30
0.0
  0
VERTEX
  5
4EC
  8
LAYER_1
 10
51.74831186731255
 20
26.0166493820765
 30
0.0
  0
VERTEX
  5
4ED
  8
LAYER_1
 10
51.78744176672213
 20
26.02500401437283
 30
0.0
  0
VERTEX
  5
4EE
  8
LAYER_1
 10
51.85816910301182
 20
26.03064958666923
 30
0.0
  0
VERTEX
  5
4EF
  8
LAYER_1
 10
51.88933858402645
 20
26.04636150192334
 30
0.0
  0
VERTEX
  5
4F0
  8
LAYER_1
 10
51.89104032441269
 20
26.05741821239307
 30
0.0
  0
VERTEX
  5
4F1
  8
LAYER_1
 10
51.88399403570868
 20
26.07030255768247
 30
0.0
  0
VERTEX
  5
4F2
  8
LAYER_1
 10
51.84517928400122
 20
26.10063555149395
 30
0.0
  0
VERTEX
  5
4F3
  8
LAYER_1
 10
51.77593815484673
 20
26.1355232809051
 30
0.0
  0
VERTEX
  5
4F4
  8
LAYER_1
 10
51.67931447418789
 20
26.17312854346326
 30
0.0
  0
VERTEX
  5
4F5
  8
LAYER_1
 10
51.41609476212794
 20
26.24914285820988
 30
0.0
  0
VERTEX
  5
4F6
  8
LAYER_1
 10
51.19097386317921
 20
26.2950027192835
 30
0.0
  0
VERTEX
  5
4F7
  8
LAYER_1
 10
50.99970108141552
 20
26.31114380206958
 30
0.0
  0
VERTEX
  5
4F8
  8
LAYER_1
 10
50.80804356066005
 20
26.29781776332429
 30
0.0
  0
VERTEX
  5
4F9
  8
LAYER_1
 10
50.581768444736
 20
26.25527625980384
 30
0.0
  0
VERTEX
  5
4FA
  8
LAYER_1
 10
50.36761894459336
 20
26.21374418003465
 30
0.0
  0
VERTEX
  5
4FB
  8
LAYER_1
 10
50.2042386110086
 20
26.19948793932657
 30
0.0
  0
VERTEX
  5
4FC
  8
LAYER_1
 10
50.07022453203555
 20
26.21241163709069
 30
0.0
  0
VERTEX
  5
4FD
  8
LAYER_1
 10
49.94417379572808
 20
26.25241937273816
 30
0.0
  0
VERTEX
  5
4FE
  8
LAYER_1
 10
49.84897198038023
 20
26.30111383807542
 30
0.0
  0
VERTEX
  5
4FF
  8
LAYER_1
 10
49.78225615171621
 20
26.35807354103559
 30
0.0
  0
VERTEX
  5
500
  8
LAYER_1
 10
49.75962143142225
 20
26.39035934269702
 30
0.0
  0
VERTEX
  5
501
  8
LAYER_1
 10
49.74415734663719
 20
26.42555923705149
 30
0.0
  0
VERTEX
  5
502
  8
LAYER_1
 10
49.73588027697365
 20
26.46395581852811
 30
0.0
  0
VERTEX
  5
503
  8
LAYER_1
 10
49.7348066020443
 20
26.50583168155595
 30
0.0
  0
VERTEX
  5
504
  8
LAYER_1
 10
49.75433495483869
 20
26.60115162998179
 30
0.0
  0
VERTEX
  5
505
  8
LAYER_1
 10
49.80287344192151
 20
26.71377983776184
 30
0.0
  0
VERTEX
  5
506
  8
LAYER_1
 10
49.8805531001939
 20
26.84597706032892
 30
0.0
  0
VERTEX
  5
507
  8
LAYER_1
 10
49.98750496655703
 20
27.00000405311584
 30
0.0
  0
VERTEX
  5
508
  8
LAYER_1
 10
50.09454736071277
 20
27.15219073297545
 30
0.0
  0
VERTEX
  5
509
  8
LAYER_1
 10
50.17244089356277
 20
27.27644945332634
 30
0.0
  0
VERTEX
  5
50A
  8
LAYER_1
 10
50.22103511097184
 20
27.37114907960052
 30
0.0
  0
VERTEX
  5
50B
  8
LAYER_1
 10
50.24017955880478
 20
27.43465847722999
 30
0.0
  0
VERTEX
  5
50C
  8
LAYER_1
 10
50.23866110221297
 20
27.45420711075045
 30
0.0
  0
VERTEX
  5
50D
  8
LAYER_1
 10
50.22972378292643
 20
27.46534651164671
 30
0.0
  0
VERTEX
  5
50E
  8
LAYER_1
 10
50.21334879417826
 20
27.46787278809781
 30
0.0
  0
VERTEX
  5
50F
  8
LAYER_1
 10
50.18951732920158
 20
27.46158204828271
 30
0.0
  0
VERTEX
  5
510
  8
LAYER_1
 10
50.11940974349505
 20
27.42173395256995
 30
0.0
  0
VERTEX
  5
511
  8
LAYER_1
 10
50.01925057167168
 20
27.34417108994043
 30
0.0
  0
VERTEX
  5
512
  8
LAYER_1
 10
49.91863369372047
 20
27.26877967248772
 30
0.0
  0
VERTEX
  5
513
  8
LAYER_1
 10
49.81525804372374
 20
27.20704062439264
 30
0.0
  0
VERTEX
  5
514
  8
LAYER_1
 10
49.72127752088819
 20
27.16532505135543
 30
0.0
  0
VERTEX
  5
515
  8
LAYER_1
 10
49.64884602442048
 20
27.15000405907631
 30
0.0
  0
VERTEX
  5
516
  8
LAYER_1
 10
49.59640391715023
 20
27.1587343424797
 30
0.0
  0
VERTEX
  5
517
  8
LAYER_1
 10
49.55297502890324
 20
27.19097750182078
 30
0.0
  0
VERTEX
  5
518
  8
LAYER_1
 10
49.5164753014167
 20
27.25581200079586
 30
0.0
  0
VERTEX
  5
519
  8
LAYER_1
 10
49.48482067642776
 20
27.36231630310125
 30
0.0
  0
VERTEX
  5
51A
  8
LAYER_1
 10
49.45592709567359
 20
27.51956887243328
 30
0.0
  0
VERTEX
  5
51B
  8
LAYER_1
 10
49.42771050089134
 20
27.73664817248826
 30
0.0
  0
VERTEX
  5
51C
  8
LAYER_1
 10
49.36497203619128
 20
28.38660081955238
 30
0.0
  0
VERTEX
  5
51D
  8
LAYER_1
 10
49.33328451892339
 20
28.6861955680593
 30
0.0
  0
VERTEX
  5
51E
  8
LAYER_1
 10
49.29706729541932
 20
28.87323223035657
 30
0.0
  0
VERTEX
  5
51F
  8
LAYER_1
 10
49.27493279420504
 20
28.93244900263566
 30
0.0
  0
VERTEX
  5
520
  8
LAYER_1
 10
49.24887316688329
 20
28.9730155215132
 30
0.0
  0
VERTEX
  5
521
  8
LAYER_1
 10
49.21795751360462
 20
28.99809487637285
 30
0.0
  0
VERTEX
  5
522
  8
LAYER_1
 10
49.18125493451953
 20
29.01085015659821
 30
0.0
  0
VERTEX
  5
523
  8
LAYER_1
 10
49.14453115142351
 20
29.01490303007035
 30
0.0
  0
VERTEX
  5
524
  8
LAYER_1
 10
49.11495084548326
 20
29.01042007655886
 30
0.0
  0
VERTEX
  5
525
  8
LAYER_1
 10
49.09176408766182
 20
28.99574921471624
 30
0.0
  0
VERTEX
  5
526
  8
LAYER_1
 10
49.07422094892222
 20
28.96923836319505
 30
0.0
  0
VERTEX
  5
527
  8
LAYER_1
 10
49.05306581254067
 20
28.87408836572703
 30
0.0
  0
VERTEX
  5
528
  8
LAYER_1
 10
49.04548600404291
 20
28.71175343337504
 30
0.0
  0
VERTEX
  5
529
  8
LAYER_1
 10
49.03057159286329
 20
28.52848200794946
 30
0.0
  0
VERTEX
  5
52A
  8
LAYER_1
 10
48.99330358477339
 20
28.26917134700988
 30
0.0
  0
VERTEX
  5
52B
  8
LAYER_1
 10
48.93930264793589
 20
27.96831833372
 30
0.0
  0
VERTEX
  5
52C
  8
LAYER_1
 10
48.87418945051348
 20
27.6604198512435
 30
0.0
  0
VERTEX
  5
52D
  8
LAYER_1
 10
48.70741182224526
 20
26.93333559423685
 30
0.0
  0
VERTEX
  5
52E
  8
LAYER_1
 10
48.46774201803812
 20
27.1209054019795
 30
0.0
  0
VERTEX
  5
52F
  8
LAYER_1
 10
48.23182503448555
 20
27.32002676302967
 30
0.0
  0
VERTEX
  5
530
  8
LAYER_1
 10
48.00117796929902
 20
27.53536945425634
 30
0.0
  0
VERTEX
  5
531
  8
LAYER_1
 10
47.85960680316137
 20
27.66104777269146
 30
0.0
  0
VERTEX
  5
532
  8
LAYER_1
 10
47.80011547659744
 20
27.70138008026573
 30
0.0
  0
VERTEX
  5
533
  8
LAYER_1
 10
47.74834217239246
 20
27.72714778262399
 30
0.0
  0
VERTEX
  5
534
  8
LAYER_1
 10
47.70442827906322
 20
27.73868085167588
 30
0.0
  0
VERTEX
  5
535
  8
LAYER_1
 10
47.66851518512648
 20
27.73630925933106
 30
0.0
  0
VERTEX
  5
536
  8
LAYER_1
 10
47.64074427909904
 20
27.72036297749915
 30
0.0
  0
VERTEX
  5
537
  8
LAYER_1
 10
47.62125694949766
 20
27.69117197808981
 30
0.0
  0
VERTEX
  5
538
  8
LAYER_1
 10
47.61019458483913
 20
27.64906623301268
 30
0.0
  0
VERTEX
  5
539
  8
LAYER_1
 10
47.60769857364021
 20
27.59437571417739
 30
0.0
  0
VERTEX
  5
53A
  8
LAYER_1
 10
47.62897116568833
 20
27.44856024287094
 30
0.0
  0
VERTEX
  5
53B
  8
LAYER_1
 10
47.68620583377624
 20
27.2563653394476
 30
0.0
  0
VERTEX
  5
53C
  8
LAYER_1
 10
47.78053368603815
 20
27.02043077918451
 30
0.0
  0
VERTEX
  5
53D
  8
LAYER_1
 10
47.84392978347434
 20
26.86448759814698
 30
0.0
  0
VERTEX
  5
53E
  8
LAYER_1
 10
47.88878529187268
 20
26.72972321451719
 30
0.0
  0
VERTEX
  5
53F
  8
LAYER_1
 10
47.91097154000961
 20
26.63054467074511
 30
0.0
  0
VERTEX
  5
540
  8
LAYER_1
 10
47.91227348172268
 20
26.59880228957132
 30
0.0
  0
VERTEX
  5
541
  8
LAYER_1
 10
47.90635985666155
 20
26.5813590092807
 30
0.0
  0
VERTEX
  5
542
  8
LAYER_1
 10
47.83863584670041
 20
26.55051641293837
 30
0.0
  0
VERTEX
  5
543
  8
LAYER_1
 10
47.70041180109099
 20
26.51218596465471
 30
0.0
  0
VERTEX
  5
544
  8
LAYER_1
 10
47.29126274927823
 20
26.427356797503
 30
0.0
  0
VERTEX
  5
545
  8
LAYER_1
 10
46.83651099392516
 20
26.35546207830483
 30
0.0
  0
VERTEX
  5
546
  8
LAYER_1
 10
46.64128356889036
 20
26.33329968996308
 30
0.0
  0
VERTEX
  5
547
  8
LAYER_1
 10
46.4937548277337
 20
26.32509237753943
 30
0.0
  0
VERTEX
  5
548
  8
LAYER_1
 10
46.29114260275671
 20
26.31222244953622
 30
0.0
  0
VERTEX
  5
549
  8
LAYER_1
 10
46.21953987274381
 20
26.29833999791921
 30
0.0
  0
VERTEX
  5
54A
  8
LAYER_1
 10
46.18140471514059
 20
26.28140392438415
 30
0.0
  0
VERTEX
  5
54B
  8
LAYER_1
 10
46.17460032577527
 20
26.26545689151075
 30
0.0
  0
VERTEX
  5
54C
  8
LAYER_1
 10
46.17622978354778
 20
26.24083759942857
 30
0.0
  0
VERTEX
  5
54D
  8
LAYER_1
 10
46.20188432349883
 20
26.16975140467907
 30
0.0
  0
VERTEX
  5
54E
  8
LAYER_1
 10
46.25255650097883
 20
26.07648367421804
 30
0.0
  0
VERTEX
  5
54F
  8
LAYER_1
 10
46.32243448197288
 20
25.96937274212787
 30
0.0
  0
VERTEX
  5
550
  8
LAYER_1
 10
46.40570643246605
 20
25.85675694249096
 30
0.0
  0
VERTEX
  5
551
  8
LAYER_1
 10
46.49656051844346
 20
25.74697460938972
 30
0.0
  0
VERTEX
  5
552
  8
LAYER_1
 10
46.58918490589016
 20
25.64836407690654
 30
0.0
  0
VERTEX
  5
553
  8
LAYER_1
 10
46.67776776079126
 20
25.56926367912381
 30
0.0
  0
VERTEX
  5
554
  8
LAYER_1
 10
46.7693405127953
 20
25.50944223058804
 30
0.0
  0
VERTEX
  5
555
  8
LAYER_1
 10
46.88186223414777
 20
25.45417683354847
 30
0.0
  0
VERTEX
  5
556
  8
LAYER_1
 10
47.00106264680138
 20
25.40961519406653
 30
0.0
  0
VERTEX
  5
557
  8
LAYER_1
 10
47.11267147270884
 20
25.38190501820367
 30
0.0
  0
VERTEX
  5
558
  8
LAYER_1
 10
47.51742429013809
 20
25.30960569146889
 30
0.0
  0
VERTEX
  5
559
  8
LAYER_1
 10
47.58574583871266
 20
25.2881432801364
 30
0.0
  0
VERTEX
  5
55A
  8
LAYER_1
 10
47.66274929979527
 20
25.25106201308347
 30
0.0
  0
VERTEX
  5
55B
  8
LAYER_1
 10
47.82086729224325
 20
25.14695995158105
 30
0.0
  0
VERTEX
  5
55C
  8
LAYER_1
 10
47.89101448998795
 20
25.08839767701392
 30
0.0
  0
VERTEX
  5
55D
  8
LAYER_1
 10
47.94790893299935
 20
25.03113358649111
 30
0.0
  0
VERTEX
  5
55E
  8
LAYER_1
 10
47.98606695446711
 20
24.97939693995381
 30
0.0
  0
VERTEX
  5
55F
  8
LAYER_1
 10
48.00000488758087
 20
24.93741699734319
 30
0.0
  0
VERTEX
  5
560
  8
LAYER_1
 10
48.00000488758087
 20
24.87992433150006
 30
0.0
  0
VERTEX
  5
561
  8
LAYER_1
 10
45.67500479519367
 20
24.95058934204495
 30
0.0
  0
VERTEX
  5
562
  8
LAYER_1
 10
45.67500479519367
 20
24.92157216119283
 30
0.0
  0
VERTEX
  5
563
  8
LAYER_1
 10
45.68594161884165
 20
24.86695022885888
 30
0.0
  0
VERTEX
  5
564
  8
LAYER_1
 10
45.71571751891663
 20
24.7971719749248
 30
0.0
  0
VERTEX
  5
565
  8
LAYER_1
 10
45.81357912313399
 20
24.63764779978938
 30
0.0
  0
VERTEX
  5
566
  8
LAYER_1
 10
45.93217475741848
 20
24.49400223085275
 30
0.0
  0
VERTEX
  5
567
  8
LAYER_1
 10
45.98786819507738
 20
24.44407223466717
 30
0.0
  0
VERTEX
  5
568
  8
LAYER_1
 10
46.03508957134284
 20
24.41723786318111
 30
0.0
  0
VERTEX
  5
569
  8
LAYER_1
 10
46.12198672061825
 20
24.36640540421203
 30
0.0
  0
VERTEX
  5
56A
  8
LAYER_1
 10
46.25751267363259
 20
24.26008021515815
 30
0.0
  0
VERTEX
  5
56B
  8
LAYER_1
 10
46.42312241683582
 20
24.11381755920189
 30
0.0
  0
VERTEX
  5
56C
  8
LAYER_1
 10
46.60027093667787
 20
23.94317269952572
 30
0.0
  0
VERTEX
  5
56D
  8
LAYER_1
 10
47.02872242026118
 20
23.51250391453505
 30
0.0
  0
VERTEX
  5
56E
  8
LAYER_1
 10
46.25811360400213
 20
23.52752316310082
 30
0.0
  0
VERTEX
  5
56F
  8
LAYER_1
 10
45.88053575574564
 20
23.54296086958758
 30
0.0
  0
VERTEX
  5
570
  8
LAYER_1
 10
45.56344898897856
 20
23.57469678170083
 30
0.0
  0
VERTEX
  5
571
  8
LAYER_1
 10
45.29029450026415
 20
23.62503338619045
 30
0.0
  0
VERTEX
  5
572
  8
LAYER_1
 10
45.04451348616571
 20
23.69627316980635
 30
0.0
  0
VERTEX
  5
573
  8
LAYER_1
 10
44.57704475650674
 20
23.85000392794609
 30
0.0
  0
VERTEX
  5
574
  8
LAYER_1
 10
44.57834968329379
 20
23.83075931275526
 30
0.0
  0
VERTEX
  5
575
  8
LAYER_1
 10
44.59999721636884
 20
23.77836060802774
 30
0.0
  0
VERTEX
  5
576
  8
LAYER_1
 10
44.68955334866249
 20
23.60611177503255
 30
0.0
  0
VERTEX
  5
577
  8
LAYER_1
 10
44.72202622268491
 20
23.53898444709841
 30
0.0
  0
VERTEX
  5
578
  8
LAYER_1
 10
44.75167054932792
 20
23.45836886607214
 30
0.0
  0
VERTEX
  5
579
  8
LAYER_1
 10
44.80229101296876
 20
23.25759758167352
 30
0.0
  0
VERTEX
  5
57A
  8
LAYER_1
 10
44.84104964457114
 20
23.00564719569734
 30
0.0
  0
VERTEX
  5
57B
  8
LAYER_1
 10
44.86758134912122
 20
22.70436698200425
 30
0.0
  0
VERTEX
  5
57C
  8
LAYER_1
 10
44.88526207012085
 20
22.35082760475304
 30
0.0
  0
VERTEX
  5
57D
  8
LAYER_1
 10
44.8855052930388
 20
22.2313815501905
 30
0.0
  0
VERTEX
  5
57E
  8
LAYER_1
 10
44.87896120115722
 20
22.14229931286331
 30
0.0
  0
VERTEX
  5
57F
  8
LAYER_1
 10
44.8648378771674
 20
22.07769193866646
 30
0.0
  0
VERTEX
  5
580
  8
LAYER_1
 10
44.8423434037606
 20
22.03167047349493
 30
0.0
  0
VERTEX
  5
581
  8
LAYER_1
 10
44.81068586362812
 20
21.99834596324371
 30
0.0
  0
VERTEX
  5
582
  8
LAYER_1
 10
44.76907333946123
 20
21.97182945380776
 30
0.0
  0
VERTEX
  5
583
  8
LAYER_1
 10
44.70062115195353
 20
21.92653833524026
 30
0.0
  0
VERTEX
  5
584
  8
LAYER_1
 10
44.680965250685
 20
21.90299787495125
 30
0.0
  0
VERTEX
  5
585
  8
LAYER_1
 10
44.67056475012496
 20
21.8766599634822
 30
0.0
  0
VERTEX
  5
586
  8
LAYER_1
 10
44.66907610456212
 20
21.84587396295068
 30
0.0
  0
VERTEX
  5
587
  8
LAYER_1
 10
44.67615576828521
 20
21.8089892354743
 30
0.0
  0
VERTEX
  5
588
  8
LAYER_1
 10
44.71464584074397
 20
21.71032104815728
 30
0.0
  0
VERTEX
  5
589
  8
LAYER_1
 10
44.7997683319081
 20
21.52349753058849
 30
0.0
  0
VERTEX
  5
58A
  8
LAYER_1
 10
45.48113657323664
 20
21.17263206658302
 30
0.0
  0
VERTEX
  5
58B
  8
LAYER_1
 10
45.87615861726562
 20
20.97737111362494
 30
0.0
  0
VERTEX
  5
58C
  8
LAYER_1
 10
46.02977652476237
 20
20.91342013394649
 30
0.0
  0
VERTEX
  5
58D
  8
LAYER_1
 10
46.17258468682391
 20
20.86683142100649
 30
0.0
  0
VERTEX
  5
58E
  8
LAYER_1
 10
46.31842235163272
 20
20.83378692645849
 30
0.0
  0
VERTEX
  5
58F
  8
LAYER_1
 10
46.48112876737127
 20
20.81046860195604
 30
0.0
  0
VERTEX
  5
590
  8
LAYER_1
 10
46.9125048443675
 20
20.77773826970198
 30
0.0
  0
VERTEX
  5
591
  8
LAYER_1
 10
47.66250487416983
 20
20.73370993682643
 30
0.0
  0
VERTEX
  5
592
  8
LAYER_1
 10
47.32500486075878
 20
20.62638233864801
 30
0.0
  0
VERTEX
  5
593
  8
LAYER_1
 10
47.19011383600852
 20
20.5901500303559
 30
0.0
  0
VERTEX
  5
594
  8
LAYER_1
 10
47.04027853854852
 20
20.56200268256737
 30
0.0
  0
VERTEX
  5
595
  8
LAYER_1
 10
46.87726516302781
 20
20.54176576695915
 30
0.0
  0
VERTEX
  5
596
  8
LAYER_1
 10
46.70283990409543
 20
20.52926475520795
 30
0.0
  0
VERTEX
  5
597
  8
LAYER_1
 10
46.32681851459168
 20
20.52677232998353
 30
0.0
  0
VERTEX
  5
598
  8
LAYER_1
 10
45.92634392722946
 20
20.55312918030786
 30
0.0
  0
VERTEX
  5
599
  8
LAYER_1
 10
45.51554569920096
 20
20.60693907959469
 30
0.0
  0
VERTEX
  5
59A
  8
LAYER_1
 10
45.10855338769836
 20
20.68680580125778
 30
0.0
  0
VERTEX
  5
59B
  8
LAYER_1
 10
44.91089993726683
 20
20.73607414967223
 30
0.0
  0
VERTEX
  5
59C
  8
LAYER_1
 10
44.71949654991385
 20
20.79133311871091
 30
0.0
  0
VERTEX
  5
59D
  8
LAYER_1
 10
44.53610942028843
 20
20.85240818005054
 30
0.0
  0
VERTEX
  5
59E
  8
LAYER_1
 10
44.36250474303961
 20
20.91912480536783
 30
0.0
  0
VERTEX
  5
59F
  8
LAYER_1
 10
44.21250473707914
 20
20.98111381640798
 30
0.0
  0
VERTEX
  5
5A0
  8
LAYER_1
 10
42.26250465959311
 20
21.60170135715407
 30
0.0
  0
VERTEX
  5
5A1
  8
LAYER_1
 10
42.17677881649959
 20
21.6008525978466
 30
0.0
  0
VERTEX
  5
5A2
  8
LAYER_1
 10
42.13985207833809
 20
21.59103474492696
 30
0.0
  0
VERTEX
  5
5A3
  8
LAYER_1
 10
42.10268032354163
 20
21.56493039778731
 30
0.0
  0
VERTEX
  5
5A4
  8
LAYER_1
 10
42.06959051081404
 20
21.52651303421352
 30
0.0
  0
VERTEX
  5
5A5
  8
LAYER_1
 10
42.04490959885914
 20
21.47975613199144
 30
0.0
  0
VERTEX
  5
5A6
  8
LAYER_1
 10
42.03634016076721
 20
21.44131837405153
 30
0.0
  0
VERTEX
  5
5A7
  8
LAYER_1
 10
42.03833623712204
 20
21.39873769920141
 30
0.0
  0
VERTEX
  5
5A8
  8
LAYER_1
 10
42.05067379429551
 20
21.35223445656426
 30
0.0
  0
VERTEX
  5
5A9
  8
LAYER_1
 10
42.07312879865952
 20
21.30202899526331
 30
0.0
  0
VERTEX
  5
5AA
  8
LAYER_1
 10
42.14749501444682
 20
21.19139281316281
 30
0.0
  0
VERTEX
  5
5AB
  8
LAYER_1
 10
42.25964261545914
 20
21.06859194588558
 30
0.0
  0
VERTEX
  5
5AC
  8
LAYER_1
 10
42.40777933267174
 20
20.93538918641728
 30
0.0
  0
VERTEX
  5
5AD
  8
LAYER_1
 10
42.5901128970598
 20
20.79354732774358
 30
0.0
  0
VERTEX
  5
5AE
  8
LAYER_1
 10
42.80485103959859
 20
20.64482916285015
 30
0.0
  0
VERTEX
  5
5AF
  8
LAYER_1
 10
43.05020149126332
 20
20.49099748472264
 30
0.0
  0
VERTEX
  5
5B0
  8
LAYER_1
 10
43.28434857559124
 20
20.35443136922297
 30
0.0
  0
VERTEX
  5
5B1
  8
LAYER_1
 10
43.49349487702203
 20
20.24400318597738
 30
0.0
  0
VERTEX
  5
5B2
  8
LAYER_1
 10
43.69686626226151
 20
20.15380226360788
 30
0.0
  0
VERTEX
  5
5B3
  8
LAYER_1
 10
43.91368859801549
 20
20.07791793073645
 30
0.0
  0
VERTEX
  5
5B4
  8
LAYER_1
 10
44.16318775098978
 20
20.0104395159851
 30
0.0
  0
VERTEX
  5
5B5
  8
LAYER_1
 10
44.46458958789017
 20
19.94545634797583
 30
0.0
  0
VERTEX
  5
5B6
  8
LAYER_1
 10
45.30000478029251
 20
19.79933306667149
 30
0.0
  0
VERTEX
  5
5B7
  8
LAYER_1
 10
46.16250481456518
 20
19.65790858346971
 30
0.0
  0
VERTEX
  5
5B8
  8
LAYER_1
 10
46.76250483840704
 20
19.52690363874319
 30
0.0
  0
VERTEX
  5
5B9
  8
LAYER_1
 10
46.49520428883049
 20
19.4106091482808
 30
0.0
  0
VERTEX
  5
5BA
  8
LAYER_1
 10
46.36296803566521
 20
19.337768767952
 30
0.0
  0
VERTEX
  5
5BB
  8
LAYER_1
 10
46.22961364368861
 20
19.23611636663211
 30
0.0
  0
VERTEX
  5
5BC
  8
LAYER_1
 10
46.09922945927526
 20
19.11086733463696
 30
0.0
  0
VERTEX
  5
5BD
  8
LAYER_1
 10
45.97590382879973
 20
18.96723706228239
 30
0.0
  0
VERTEX
  5
5BE
  8
LAYER_1
 10
45.86372509863658
 20
18.81044093988423
 30
0.0
  0
VERTEX
  5
5BF
  8
LAYER_1
 10
45.76678161516038
 20
18.64569435775832
 30
0.0
  0
VERTEX
  5
5C0
  8
LAYER_1
 10
45.68916172474571
 20
18.47821270622049
 30
0.0
  0
VERTEX
  5
5C1
  8
LAYER_1
 10
45.63495377376712
 20
18.31321137558658
 30
0.0
  0
VERTEX
  5
5C2
  8
LAYER_1
 10
45.60602274170949
 20
18.20775350920404
 30
0.0
  0
VERTEX
  5
5C3
  8
LAYER_1
 10
45.57551958098145
 20
18.12168688489101
 30
0.0
  0
VERTEX
  5
5C4
  8
LAYER_1
 10
45.5389051674322
 20
18.05005647216246
 30
0.0
  0
VERTEX
  5
5C5
  8
LAYER_1
 10
45.49164037691097
 20
17.98790724053337
 30
0.0
  0
VERTEX
  5
5C6
  8
LAYER_1
 10
45.42918608526696
 20
17.93028415951871
 30
0.0
  0
VERTEX
  5
5C7
  8
LAYER_1
 10
45.34700316834936
 20
17.87223219863348
 30
0.0
  0
VERTEX
  5
5C8
  8
LAYER_1
 10
45.10529496209026
 20
17.73502151531115
 30
0.0
  0
VERTEX
  5
5C9
  8
LAYER_1
 10
44.70688279607407
 20
17.50970364265565
 30
0.0
  0
VERTEX
  5
5CA
  8
LAYER_1
 10
44.37078873034498
 20
17.29947940305668
 30
0.0
  0
VERTEX
  5
5CB
  8
LAYER_1
 10
44.24107681027998
 20
17.22202671209125
 30
0.0
  0
VERTEX
  5
5CC
  8
LAYER_1
 10
44.10354680701249
 20
17.15859965932881
 30
0.0
  0
VERTEX
  5
5CD
  8
LAYER_1
 10
43.97460877547202
 20
17.11574354259744
 30
0.0
  0
VERTEX
  5
5CE
  8
LAYER_1
 10
43.87067277058811
 20
17.10000365972519
 30
0.0
  0
VERTEX
  5
5CF
  8
LAYER_1
 10
43.69705596744531
 20
17.0881852270684
 30
0.0
  0
VERTEX
  5
5D0
  8
LAYER_1
 10
43.55541103328289
 20
17.0559382538961
 30
0.0
  0
VERTEX
  5
5D1
  8
LAYER_1
 10
43.50102863690428
 20
17.03365796686574
 30
0.0
  0
VERTEX
  5
5D2
  8
LAYER_1
 10
43.45997995157273
 20
17.00807522740543
 30
0.0
  0
VERTEX
  5
5D3
  8
LAYER_1
 10
43.43404522522221
 20
16.9797915964148
 30
0.0
  0
VERTEX
  5
5D4
  8
LAYER_1
 10
43.42500470578671
 20
16.9494086347935
 30
0.0
  0
VERTEX
  5
5D5
  8
LAYER_1
 10
43.45161338347265
 20
16.91534511598494
 30
0.0
  0
VERTEX
  5
5D6
  8
LAYER_1
 10
43.52406275340964
 20
16.86661677803962
 30
0.0
  0
VERTEX
  5
5D7
  8
LAYER_1
 10
43.63128782091638
 20
16.80972790658067
 30
0.0
  0
VERTEX
  5
5D8
  8
LAYER_1
 10
43.7622235913116
 20
16.75118278723122
 30
0.0
  0
VERTEX
  5
5D9
  8
LAYER_1
 10
43.89318154445408
 20
16.6928977979938
 30
0.0
  0
VERTEX
  5
5DA
  8
LAYER_1
 10
44.00046701053012
 20
16.63671720159238
 30
0.0
  0
VERTEX
  5
5DB
  8
LAYER_1
 10
44.07300577034965
 20
16.58903711073219
 30
0.0
  0
VERTEX
  5
5DC
  8
LAYER_1
 10
44.09972360472264
 20
16.55625363811851
 30
0.0
  0
VERTEX
  5
5DD
  8
LAYER_1
 10
44.09136088759726
 20
16.54495419919294
 30
0.0
  0
VERTEX
  5
5DE
  8
LAYER_1
 10
44.06728393199131
 20
16.53441281693813
 30
0.0
  0
VERTEX
  5
5DF
  8
LAYER_1
 10
43.9787502714773
 20
16.51652707403991
 30
0.0
  0
VERTEX
  5
5E0
  8
LAYER_1
 10
43.84764855545968
 20
16.5044421126222
 30
0.0
  0
VERTEX
  5
5E1
  8
LAYER_1
 10
43.68750471621752
 20
16.50000363588333
 30
0.0
  0
VERTEX
  5
5E2
  8
LAYER_1
 10
43.5294431264649
 20
16.49309551842344
 30
0.0
  0
VERTEX
  5
5E3
  8
LAYER_1
 10
43.40683206382813
 20
16.47375851912397
 30
0.0
  0
VERTEX
  5
5E4
  8
LAYER_1
 10
43.32107451139754
 20
16.44407366760522
 30
0.0
  0
VERTEX
  5
5E5
  8
LAYER_1
 10
43.27357345226343
 20
16.40612199348752
 30
0.0
  0
VERTEX
  5
5E6
  8
LAYER_1
 10
43.26460753989828
 20
16.38469641971042
 30
0.0
  0
VERTEX
  5
5E7
  8
LAYER_1
 10
43.26573186951611
 20
16.36198452639118
 30
0.0
  0
VERTEX
  5
5E8
  8
LAYER_1
 10
43.27712181400322
 20
16.33824644223236
 30
0.0
  0
VERTEX
  5
5E9
  8
LAYER_1
 10
43.2989527462459
 20
16.3137422959365
 30
0.0
  0
VERTEX
  5
5EA
  8
LAYER_1
 10
43.37463906554309
 20
16.26347633174379
 30
0.0
  0
VERTEX
  5
5EB
  8
LAYER_1
 10
43.49419381049802
 20
16.21326766343337
 30
0.0
  0
VERTEX
  5
5EC
  8
LAYER_1
 10
43.58645632979513
 20
16.17022902659793
 30
0.0
  0
VERTEX
  5
5ED
  8
LAYER_1
 10
43.67563440733152
 20
16.10952919240106
 30
0.0
  0
VERTEX
  5
5EE
  8
LAYER_1
 10
43.75156034703107
 20
16.0392352276407
 30
0.0
  0
VERTEX
  5
5EF
  8
LAYER_1
 10
43.80406645281766
 20
15.96741419911481
 30
0.0
  0
VERTEX
  5
5F0
  8
LAYER_1
 10
43.85593177609429
 20
15.878603995941
 30
0.0
  0
VERTEX
  5
5F1
  8
LAYER_1
 10
43.87629408019164
 20
15.85470622541266
 30
0.0
  0
VERTEX
  5
5F2
  8
LAYER_1
 10
43.89512435173427
 20
15.84397998167037
 30
0.0
  0
VERTEX
  5
5F3
  8
LAYER_1
 10
43.91405874507663
 20
15.84605024427443
 30
0.0
  0
VERTEX
  5
5F4
  8
LAYER_1
 10
43.93473341457319
 20
15.8605419927851
 30
0.0
  0
VERTEX
  5
5F5
  8
LAYER_1
 10
43.98784819944667
 20
15.92528986576737
 30
0.0
  0
VERTEX
  5
5F6
  8
LAYER_1
 10
44.03499324247898
 20
15.97413920386892
 30
0.0
  0
VERTEX
  5
5F7
  8
LAYER_1
 10
44.08963701379192
 20
16.00460977050428
 30
0.0
  0
VERTEX
  5
5F8
  8
LAYER_1
 10
44.14786656996321
 20
16.01527550666524
 30
0.0
  0
VERTEX
  5
5F9
  8
LAYER_1
 10
44.20576896757053
 20
16.0047103533436
 30
0.0
  0
VERTEX
  5
5FA
  8
LAYER_1
 10
44.26754219481305
 20
15.99567724042377
 30
0.0
  0
VERTEX
  5
5FB
  8
LAYER_1
 10
44.33868869309688
 20
16.00944148342762
 30
0.0
  0
VERTEX
  5
5FC
  8
LAYER_1
 10
44.41302701511762
 20
16.04395195691468
 30
0.0
  0
VERTEX
  5
5FD
  8
LAYER_1
 10
44.48437571357083
 20
16.09715753544452
 30
0.0
  0
VERTEX
  5
5FE
  8
LAYER_1
 10
44.57428266706161
 20
16.15762935093724
 30
0.0
  0
VERTEX
  5
5FF
  8
LAYER_1
 10
44.70539652756395
 20
16.21853191841522
 30
0.0
  0
VERTEX
  5
600
  8
LAYER_1
 10
44.86011473378407
 20
16.2727742057631
 30
0.0
  0
VERTEX
  5
601
  8
LAYER_1
 10
45.02083472442824
 20
16.31326518086549
 30
0.0
  0
VERTEX
  5
602
  8
LAYER_1
 10
45.23070011273637
 20
16.36372663469041
 30
0.0
  0
VERTEX
  5
603
  8
LAYER_1
 10
45.30765940756601
 20
16.39357386221891
 30
0.0
  0
VERTEX
  5
604
  8
LAYER_1
 10
45.3720711941241
 20
16.43079137691334
 30
0.0
  0
VERTEX
  5
605
  8
LAYER_1
 10
45.42851154086917
 20
16.4785986438401
 30
0.0
  0
VERTEX
  5
606
  8
LAYER_1
 10
45.4815565162598
 20
16.54021512806562
 30
0.0
  0
VERTEX
  5
607
  8
LAYER_1
 10
45.59576462681184
 20
16.71775360867858
 30
0.0
  0
VERTEX
  5
608
  8
LAYER_1
 10
45.67231050824186
 20
16.84059975760732
 30
0.0
  0
VERTEX
  5
609
  8
LAYER_1
 10
45.74764485932293
 20
16.94605629245591
 30
0.0
  0
VERTEX
  5
60A
  8
LAYER_1
 10
45.82044260833362
 20
17.03298732136448
 30
0.0
  0
VERTEX
  5
60B
  8
LAYER_1
 10
45.88937868355249
 20
17.10025695247319
 30
0.0
  0
VERTEX
  5
60C
  8
LAYER_1
 10
45.95312801325815
 20
17.14672929392217
 30
0.0
  0
VERTEX
  5
60D
  8
LAYER_1
 10
46.01036552572914
 20
17.17126845385157
 30
0.0
  0
VERTEX
  5
60E
  8
LAYER_1
 10
46.05976614924404
 20
17.17273854040154
 30
0.0
  0
VERTEX
  5
60F
  8
LAYER_1
 10
46.10000481208144
 20
17.15000366171222
 30
0.0
  0
VERTEX
  5
610
  8
LAYER_1
 10
46.11496915665138
 20
17.11772348775547
 30
0.0
  0
VERTEX
  5
611
  8
LAYER_1
 10
46.11343357006151
 20
17.07211201413864
 30
0.0
  0
VERTEX
  5
612
  8
LAYER_1
 10
46.09653339261882
 20
17.01923454247711
 30
0.0
  0
VERTEX
  5
613
  8
LAYER_1
 10
46.06540396463032
 20
16.96515637438625
 30
0.0
  0
VERTEX
  5
614
  8
LAYER_1
 10
45.98230057731047
 20
16.83375174577795
 30
0.0
  0
VERTEX
  5
615
  8
LAYER_1
 10
45.88343187596917
 20
16.65327785519536
 30
0.0
  0
VERTEX
  5
616
  8
LAYER_1
 10
45.67232581465377
 20
16.21949897304554
 30
0.0
  0
VERTEX
  5
617
  8
LAYER_1
 10
45.49994034754722
 20
15.81257309781339
 30
0.0
  0
VERTEX
  5
618
  8
LAYER_1
 10
45.44947238896698
 20
15.66566546587787
 30
0.0
  0
VERTEX
  5
619
  8
LAYER_1
 10
45.4341300415126
 20
15.58125359937549
 30
0.0
  0
VERTEX
  5
61A
  8
LAYER_1
 10
45.43149028657168
 20
15.53029168328794
 30
0.0
  0
VERTEX
  5
61B
  8
LAYER_1
 10
45.41387500715634
 20
15.48855828319211
 30
0.0
  0
VERTEX
  5
61C
  8
LAYER_1
 10
45.38419671086162
 20
15.46036003988411
 30
0.0
  0
VERTEX
  5
61D
  8
LAYER_1
 10
45.34536790528256
 20
15.45000359416008
 30
0.0
  0
VERTEX
  5
61E
  8
LAYER_1
 10
45.30233085822966
 20
15.43816765618976
 30
0.0
  0
VERTEX
  5
61F
  8
LAYER_1
 10
45.26119447871407
 20
15.40594109240919
 30
0.0
  0
VERTEX
  5
620
  8
LAYER_1
 10
45.22662123613185
 20
15.35824577801395
 30
0.0
  0
VERTEX
  5
621
  8
LAYER_1
 10
45.20327359987903
 20
15.30000358819962
 30
0.0
  0
VERTEX
  5
622
  8
LAYER_1
 10
45.17576909293654
 20
15.23828469780148
 30
0.0
  0
VERTEX
  5
623
  8
LAYER_1
 10
45.13115139816228
 20
15.1909756834711
 30
0.0
  0
VERTEX
  5
624
  8
LAYER_1
 10
45.07287327742766
 20
15.16068062001487
 30
0.0
  0
VERTEX
  5
625
  8
LAYER_1
 10
45.0043874926041
 20
15.15000358223915
 30
0.0
  0
VERTEX
  5
626
  8
LAYER_1
 10
44.91253827259915
 20
15.14056065327179
 30
0.0
  0
VERTEX
  5
627
  8
LAYER_1
 10
44.81997852251797
 20
15.11264917872369
 30
0.0
  0
VERTEX
  5
628
  8
LAYER_1
 10
44.7275053421431
 20
15.06689512712588
 30
0.0
  0
VERTEX
  5
629
  8
LAYER_1
 10
44.63591583125707
 20
15.00392446700935
 30
0.0
  0
VERTEX
  5
62A
  8
LAYER_1
 10
44.54600708964244
 20
14.92436316690511
 30
0.0
  0
VERTEX
  5
62B
  8
LAYER_1
 10
44.45857621708175
 20
14.82883719534415
 30
0.0
  0
VERTEX
  5
62C
  8
LAYER_1
 10
44.37442031335755
 20
14.71797252085749
 30
0.0
  0
VERTEX
  5
62D
  8
LAYER_1
 10
44.29433647825239
 20
14.59239511197613
 30
0.0
  0
VERTEX
  5
62E
  8
LAYER_1
 10
44.10694233107562
 20
14.27263117688936
 30
0.0
  0
VERTEX
  5
62F
  8
LAYER_1
 10
42.64684069407544
 20
14.16999622260226
 30
0.0
  0
VERTEX
  5
630
  8
LAYER_1
 10
42.54842268055957
 20
14.08831652604589
 30
0.0
  0
VERTEX
  5
631
  8
LAYER_1
 10
42.50154936238962
 20
14.04431358886121
 30
0.0
  0
VERTEX
  5
632
  8
LAYER_1
 10
42.47144012813206
 20
14.00204485694369
 30
0.0
  0
VERTEX
  5
633
  8
LAYER_1
 10
42.45882773223185
 20
13.95915495428258
 30
0.0
  0
VERTEX
  5
634
  8
LAYER_1
 10
42.46444492913398
 20
13.91328850486714
 30
0.0
  0
VERTEX
  5
635
  8
LAYER_1
 10
42.48902447328342
 20
13.86209013268662
 30
0.0
  0
VERTEX
  5
636
  8
LAYER_1
 10
42.53329911912516
 20
13.80320446173029
 30
0.0
  0
VERTEX
  5
637
  8
LAYER_1
 10
42.68386473366542
 20
13.65294971944722
 30
0.0
  0
VERTEX
  5
638
  8
LAYER_1
 10
42.77170167886806
 20
13.56683783444103
 30
0.0
  0
VERTEX
  5
639
  8
LAYER_1
 10
42.83102957909699
 20
13.49371076851106
 30
0.0
  0
VERTEX
  5
63A
  8
LAYER_1
 10
42.86140247050305
 20
13.43205026590119
 30
0.0
  0
VERTEX
  5
63B
  8
LAYER_1
 10
42.86237438923705
 20
13.38033807085532
 30
0.0
  0
VERTEX
  5
63C
  8
LAYER_1
 10
42.83349937144981
 20
13.33705592761735
 30
0.0
  0
VERTEX
  5
63D
  8
LAYER_1
 10
42.77433145329218
 20
13.30068558043116
 30
0.0
  0
VERTEX
  5
63E
  8
LAYER_1
 10
42.68442467091496
 20
13.26970877354064
 30
0.0
  0
VERTEX
  5
63F
  8
LAYER_1
 10
42.56333306046899
 20
13.2426072511897
 30
0.0
  0
VERTEX
  5
640
  8
LAYER_1
 10
42.47622292960757
 20
13.22274892784012
 30
0.0
  0
VERTEX
  5
641
  8
LAYER_1
 10
42.4059203480362
 20
13.19934349700753
 30
0.0
  0
VERTEX
  5
642
  8
LAYER_1
 10
42.35294842446051
 20
13.17298785325158
 30
0.0
  0
VERTEX
  5
643
  8
LAYER_1
 10
42.31783026758617
 20
13.14427889113193
 30
0.0
  0
VERTEX
  5
644
  8
LAYER_1
 10
42.30108898611883
 20
13.11381350520825
 30
0.0
  0
VERTEX
  5
645
  8
LAYER_1
 10
42.30324768876416
 20
13.08218859004018
 30
0.0
  0
VERTEX
  5
646
  8
LAYER_1
 10
42.32482948422781
 20
13.05000104018739
 30
0.0
  0
VERTEX
  5
647
  8
LAYER_1
 10
42.36635748121543
 20
13.01784775020954
 30
0.0
  0
VERTEX
  5
648
  8
LAYER_1
 10
42.39133058390164
 20
12.99018417091605
 30
0.0
  0
VERTEX
  5
649
  8
LAYER_1
 10
42.41723949464375
 20
12.93925271900667
 30
0.0
  0
VERTEX
  5
64A
  8
LAYER_1
 10
42.46859266276763
 20
12.78022362023054
 30
0.0
  0
VERTEX
  5
64B
  8
LAYER_1
 10
42.513872830531
 20
12.56603529966176
 30
0.0
  0
VERTEX
  5
64C
  8
LAYER_1
 10
42.54653584287782
 20
12.32196260308092
 30
0.0
  0
VERTEX
  5
64D
  8
LAYER_1
 10
42.56319758544308
 20
12.25003550393711
 30
0.0
  0
VERTEX
  5
64E
  8
LAYER_1
 10
42.59675903630837
 20
12.17656761475586
 30
0.0
  0
VERTEX
  5
64F
  8
LAYER_1
 10
42.64234595566529
 20
12.11017221712944
 30
0.0
  0
VERTEX
  5
650
  8
LAYER_1
 10
42.69508410370544
 20
12.05946259265011
 30
0.0
  0
VERTEX
  5
651
  8
LAYER_1
 10
42.72565147220541
 20
12.03094383457113
 30
0.0
  0
VERTEX
  5
652
  8
LAYER_1
 10
42.75432833401369
 20
11.99177051682665
 30
0.0
  0
VERTEX
  5
653
  8
LAYER_1
 10
42.80514526201186
 20
11.8838377440416
 30
0.0
  0
VERTEX
  5
654
  8
LAYER_1
 10
42.84580433661346
 20
11.7404193576958
 30
0.0
  0
VERTEX
  5
655
  8
LAYER_1
 10
42.87457500673193
 20
11.56627044119007
 30
0.0
  0
VERTEX
  5
656
  8
LAYER_1
 10
42.89339584817198
 20
11.3528861738237
 30
0.0
  0
VERTEX
  5
657
  8
LAYER_1
 10
42.89266962763945
 20
11.27383553972389
 30
0.0
  0
VERTEX
  5
658
  8
LAYER_1
 10
42.88402793036258
 20
11.20773361314461
 30
0.0
  0
VERTEX
  5
659
  8
LAYER_1
 10
42.86660246940937
 20
11.15047117493457
 30
0.0
  0
VERTEX
  5
65A
  8
LAYER_1
 10
42.83952495784784
 20
11.09793900594248
 30
0.0
  0
VERTEX
  5
65B
  8
LAYER_1
 10
42.75294063517194
 20
10.99062859900701
 30
0.0
  0
VERTEX
  5
65C
  8
LAYER_1
 10
42.65648689908957
 20
10.91204391671468
 30
0.0
  0
VERTEX
  5
65D
  8
LAYER_1
 10
42.52323192671821
 20
10.83737454249095
 30
0.0
  0
VERTEX
  5
65E
  8
LAYER_1
 10
42.3662085790918
 20
10.77286911999969
 30
0.0
  0
VERTEX
  5
65F
  8
LAYER_1
 10
42.19844971724429
 20
10.72477629290479
 30
0.0
  0
VERTEX
  5
660
  8
LAYER_1
 10
41.84810278205456
 20
10.64403343078189
 30
0.0
  0
VERTEX
  5
661
  8
LAYER_1
 10
41.7463987467513
 20
10.61436196010992
 30
0.0
  0
VERTEX
  5
662
  8
LAYER_1
 10
41.68563531540723
 20
10.58642218670112
 30
0.0
  0
VERTEX
  5
663
  8
LAYER_1
 10
41.65978322484592
 20
10.55616290330812
 30
0.0
  0
VERTEX
  5
664
  8
LAYER_1
 10
41.66281321189099
 20
10.51953290268358
 30
0.0
  0
VERTEX
  5
665
  8
LAYER_1
 10
41.73140236609456
 20
10.41095592075041
 30
0.0
  0
VERTEX
  5
666
  8
LAYER_1
 10
41.7801165915064
 20
10.32081195079973
 30
0.0
  0
VERTEX
  5
667
  8
LAYER_1
 10
41.80801062453149
 20
10.21818435757423
 30
0.0
  0
VERTEX
  5
668
  8
LAYER_1
 10
41.81540304525875
 20
10.1010893987957
 30
0.0
  0
VERTEX
  5
669
  8
LAYER_1
 10
41.80261243377714
 20
9.967543332185883
 30
0.0
  0
VERTEX
  5
66A
  8
LAYER_1
 10
41.78626618065505
 20
9.82370235905297
 30
0.0
  0
VERTEX
  5
66B
  8
LAYER_1
 10
41.78745576245333
 20
9.770301004077478
 30
0.0
  0
VERTEX
  5
66C
  8
LAYER_1
 10
41.79570721717989
 20
9.726534877645802
 30
0.0
  0
VERTEX
  5
66D
  8
LAYER_1
 10
41.81163559535125
 20
9.69037083537032
 30
0.0
  0
VERTEX
  5
66E
  8
LAYER_1
 10
41.83585594748395
 20
9.659775732863416
 30
0.0
  0
VERTEX
  5
66F
  8
LAYER_1
 10
41.91163277569949
 20
9.607159769604849
 30
0.0
  0
VERTEX
  5
670
  8
LAYER_1
 10
41.98576644814815
 20
9.575259975691631
 30
0.0
  0
VERTEX
  5
671
  8
LAYER_1
 10
42.07413546225809
 20
9.549136804418643
 30
0.0
  0
VERTEX
  5
672
  8
LAYER_1
 10
42.16566125237321
 20
9.531486013017977
 30
0.0
  0
VERTEX
  5
673
  8
LAYER_1
 10
42.24926525283742
 20
9.525003358721733
 30
0.0
  0
VERTEX
  5
674
  8
LAYER_1
 10
42.34315270976934
 20
9.51524432747526
 30
0.0
  0
VERTEX
  5
675
  8
LAYER_1
 10
42.43298236143021
 20
9.486858411448496
 30
0.0
  0
VERTEX
  5
676
  8
LAYER_1
 10
42.51733304726216
 20
9.441182377210426
 30
0.0
  0
VERTEX
  5
677
  8
LAYER_1
 10
42.59478360670731
 20
9.379552991330037
 30
0.0
  0
VERTEX
  5
678
  8
LAYER_1
 10
42.66391287920786
 20
9.303307020376312
 30
0.0
  0
VERTEX
  5
679
  8
LAYER_1
 10
42.72329970420591
 20
9.213781230918235
 30
0.0
  0
VERTEX
  5
67A
  8
LAYER_1
 10
42.77152292114364
 20
9.112312389524792
 30
0.0
  0
VERTEX
  5
67B
  8
LAYER_1
 10
42.80716136946319
 20
9.00023726276497
 30
0.0
  0
VERTEX
  5
67C
  8
LAYER_1
 10
42.84781253393922
 20
8.883017581409561
 30
0.0
  0
VERTEX
  5
67D
  8
LAYER_1
 10
42.90724716682223
 20
8.778565194918512
 30
0.0
  0
VERTEX
  5
67E
  8
LAYER_1
 10
42.98204024877157
 20
8.691760316242291
 30
0.0
  0
VERTEX
  5
67F
  8
LAYER_1
 10
43.06876676044659
 20
8.627483158331373
 30
0.0
  0
VERTEX
  5
680
  8
LAYER_1
 10
43.18472526249988
 20
8.572621852646797
 30
0.0
  0
VERTEX
  5
681
  8
LAYER_1
 10
43.23752557473828
 20
8.559712762868376
 30
0.0
  0
VERTEX
  5
682
  8
LAYER_1
 10
43.29276733032764
 20
8.556684289996818
 30
0.0
  0
VERTEX
  5
683
  8
LAYER_1
 10
43.3548710811753
 20
8.563686115180335
 30
0.0
  0
VERTEX
  5
684
  8
LAYER_1
 10
43.4282573791886
 20
8.580867919567138
 30
0.0
  0
VERTEX
  5
685
  8
LAYER_1
 10
43.62655982434148
 20
8.646370190543465
 30
0.0
  0
VERTEX
  5
686
  8
LAYER_1
 10
43.89800060080467
 20
8.737632351962525
 30
0.0
  0
VERTEX
  5
687
  8
LAYER_1
 10
44.04375473037362
 20
8.775374285291292
 30
0.0
  0
VERTEX
  5
688
  8
LAYER_1
 10
44.07650376581924
 20
8.762846790651253
 30
0.0
  0
VERTEX
  5
689
  8
LAYER_1
 10
44.09549739973307
 20
8.729381111960343
 30
0.0
  0
VERTEX
  5
68A
  8
LAYER_1
 10
44.10170169592533
 20
8.680362097299804
 30
0.0
  0
VERTEX
  5
68B
  8
LAYER_1
 10
44.09608271820624
 20
8.621174594750883
 30
0.0
  0
VERTEX
  5
68C
  8
LAYER_1
 10
44.07960653038603
 20
8.557203452394823
 30
0.0
  0
VERTEX
  5
68D
  8
LAYER_1
 10
44.05323919627494
 20
8.493833518312872
 30
0.0
  0
VERTEX
  5
68E
  8
LAYER_1
 10
44.01794677968316
 20
8.436449640586273
 30
0.0
  0
VERTEX
  5
68F
  8
LAYER_1
 10
43.97469534442095
 20
8.390436667296271
 30
0.0
  0
VERTEX
  5
690
  8
LAYER_1
 10
43.91064412710214
 20
8.3267976985424
 30
0.0
  0
VERTEX
  5
691
  8
LAYER_1
 10
43.82888004227935
 20
8.22961497988471
 30
0.0
  0
VERTEX
  5
692
  8
LAYER_1
 10
43.65426920139414
 20
7.987503297626972
 30
0.0
  0
VERTEX
  5
693
  8
LAYER_1
 10
43.49561379561294
 20
7.748502837688033
 30
0.0
  0
VERTEX
  5
694
  8
LAYER_1
 10
43.35218974407949
 20
7.544798947191397
 30
0.0
  0
VERTEX
  5
695
  8
LAYER_1
 10
43.21720120675394
 20
7.368943152117859
 30
0.0
  0
VERTEX
  5
696
  8
LAYER_1
 10
43.08385234359645
 20
7.213486978448213
 30
0.0
  0
VERTEX
  5
697
  8
LAYER_1
 10
42.94534731456717
 20
7.070981952163255
 30
0.0
  0
VERTEX
  5
698
  8
LAYER_1
 10
42.79489027962624
 20
6.933979599243781
 30
0.0
  0
VERTEX
  5
699
  8
LAYER_1
 10
42.62568539873383
 20
6.795031445670586
 30
0.0
  0
VERTEX
  5
69A
  8
LAYER_1
 10
42.43093683185008
 20
6.646689017424464
 30
0.0
  0
VERTEX
  5
69B
  8
LAYER_1
 10
42.12566883491755
 20
6.412782433143592
 30
0.0
  0
VERTEX
  5
69C
  8
LAYER_1
 10
42.02360135168762
 20
6.325411804541403
 30
0.0
  0
VERTEX
  5
69D
  8
LAYER_1
 10
41.95009757506304
 20
6.251987289358683
 30
0.0
  0
VERTEX
  5
69E
  8
LAYER_1
 10
41.90129702737966
 20
6.188177140890906
 30
0.0
  0
VERTEX
  5
69F
  8
LAYER_1
 10
41.87333923097333
 20
6.129649612433553
 30
0.0
  0
VERTEX
  5
6A0
  8
LAYER_1
 10
41.86236370817991
 20
6.072072957282101
 30
0.0
  0
VERTEX
  5
6A1
  8
LAYER_1
 10
41.86450998133525
 20
6.011115428732026
 30
0.0
  0
VERTEX
  5
6A2
  8
LAYER_1
 10
41.87350992886471
 20
5.947474028123468
 30
0.0
  0
VERTEX
  5
6A3
  8
LAYER_1
 10
41.88744282388358
 20
5.899074889223119
 30
0.0
  0
VERTEX
  5
6A4
  8
LAYER_1
 10
41.91170469978152
 20
5.863803280296205
 30
0.0
  0
VERTEX
  5
6A5
  8
LAYER_1
 10
41.95169158994818
 20
5.839544469607949
 30
0.0
  0
VERTEX
  5
6A6
  8
LAYER_1
 10
42.0127995277732
 20
5.824183725423579
 30
0.0
  0
VERTEX
  5
6A7
  8
LAYER_1
 10
42.10042454664622
 20
5.815606316008315
 30
0.0
  0
VERTEX
  5
6A8
  8
LAYER_1
 10
42.37680996109485
 20
5.810342574546013
 30
0.0
  0
VERTEX
  5
6A9
  8
LAYER_1
 10
42.62642170750298
 20
5.801027450015006
 30
0.0
  0
VERTEX
  5
6AA
  8
LAYER_1
 10
42.82270293415424
 20
5.772035457310514
 30
0.0
  0
VERTEX
  5
6AB
  8
LAYER_1
 10
42.90812390477528
 20
5.748494174288687
 30
0.0
  0
VERTEX
  5
6AC
  8
LAYER_1
 10
42.98894740810219
 20
5.718033920898064
 30
0.0
  0
VERTEX
  5
6AD
  8
LAYER_1
 10
43.1484488964004
 20
5.633690165243181
 30
0.0
  0
VERTEX
  5
6AE
  8
LAYER_1
 10
43.30677369103562
 20
5.543053729322601
 30
0.0
  0
VERTEX
  5
6AF
  8
LAYER_1
 10
43.36809574290889
 20
5.517166862105285
 30
0.0
  0
VERTEX
  5
6B0
  8
LAYER_1
 10
43.42319403637183
 20
5.503392460441981
 30
0.0
  0
VERTEX
  5
6B1
  8
LAYER_1
 10
43.47632092533881
 20
5.501099198126717
 30
0.0
  0
VERTEX
  5
6B2
  8
LAYER_1
 10
43.53172876372423
 20
5.509655748953515
 30
0.0
  0
VERTEX
  5
6B3
  8
LAYER_1
 10
43.66639670440796
 20
5.556792985209398
 30
0.0
  0
VERTEX
  5
6B4
  8
LAYER_1
 10
43.78471752825275
 20
5.615171709694757
 30
0.0
  0
VERTEX
  5
6B5
  8
LAYER_1
 10
43.93270448036434
 20
5.70197857070835
 30
0.0
  0
VERTEX
  5
6B6
  8
LAYER_1
 10
44.09146684062591
 20
5.805492907947238
 30
0.0
  0
VERTEX
  5
6B7
  8
LAYER_1
 10
44.24211388892063
 20
5.913994061108482
 30
0.0
  0
VERTEX
  5
6B8
  8
LAYER_1
 10
44.40692695742813
 20
6.028174106539267
 30
0.0
  0
VERTEX
  5
6B9
  8
LAYER_1
 10
44.60426016480366
 20
6.14715077421504
 30
0.0
  0
VERTEX
  5
6BA
  8
LAYER_1
 10
44.80933197064394
 20
6.25684188427523
 30
0.0
  0
VERTEX
  5
6BB
  8
LAYER_1
 10
44.99736083454562
 20
6.343165256859265
 30
0.0
  0
VERTEX
  5
6BC
  8
LAYER_1
 10
45.44477500551464
 20
6.538773484419753
 30
0.0
  0
VERTEX
  5
6BD
  8
LAYER_1
 10
45.93750480562449
 20
6.770953456580301
 30
0.0
  0
VERTEX
  5
6BE
  8
LAYER_1
 10
46.22940707169034
 20
6.908354960304952
 30
0.0
  0
VERTEX
  5
6BF
  8
LAYER_1
 10
46.50987730629807
 20
7.028265248438431
 30
0.0
  0
VERTEX
  5
6C0
  8
LAYER_1
 10
46.7751506533672
 20
7.129545669083599
 30
0.0
  0
VERTEX
  5
6C1
  8
LAYER_1
 10
47.02146225681728
 20
7.211057570343321
 30
0.0
  0
VERTEX
  5
6C2
  8
LAYER_1
 10
47.24504726056784
 20
7.271662300320457
 30
0.0
  0
VERTEX
  5
6C3
  8
LAYER_1
 10
47.44214080853841
 20
7.310221207117872
 30
0.0
  0
VERTEX
  5
6C4
  8
LAYER_1
 10
47.60897804464852
 20
7.325595638838427
 30
0.0
  0
VERTEX
  5
6C5
  8
LAYER_1
 10
47.74179411281771
 20
7.316646943584985
 30
0.0
  0
VERTEX
  5
6C6
  8
LAYER_1
 10
47.84190512818103
 20
7.293668038458398
 30
0.0
  0
VERTEX
  5
6C7
  8
LAYER_1
 10
47.92360678416279
 20
7.26691061149625
 30
0.0
  0
VERTEX
  5
6C8
  8
LAYER_1
 10
47.97848782937012
 20
7.23969831156859
 30
0.0
  0
VERTEX
  5
6C9
  8
LAYER_1
 10
47.99813701241014
 20
7.215354787545465
 30
0.0
  0
VERTEX
  5
6CA
  8
LAYER_1
 10
47.99626913723944
 20
7.162503264844418
 30
0.0
  0
VERTEX
  5
6CB
  8
LAYER_1
 10
47.52938699378369
 20
6.81084751607537
 30
0.0
  0
VERTEX
  5
6CC
  8
LAYER_1
 10
47.31347115011865
 20
6.655039438578452
 30
0.0
  0
VERTEX
  5
6CD
  8
LAYER_1
 10
47.08065049770664
 20
6.499772143690878
 30
0.0
  0
VERTEX
  5
6CE
  8
LAYER_1
 10
46.83376037919399
 20
6.346632073466597
 30
0.0
  0
VERTEX
  5
6CF
  8
LAYER_1
 10
46.57563613722705
 20
6.197205669959557
 30
0.0
  0
VERTEX
  5
6D0
  8
LAYER_1
 10
46.30911311445215
 20
6.053079375223708
 30
0.0
  0
VERTEX
  5
6D1
  8
LAYER_1
 10
46.03702665351562
 20
5.915839631313001
 30
0.0
  0
VERTEX
  5
6D2
  8
LAYER_1
 10
45.76221209706383
 20
5.787072880281384
 30
0.0
  0
VERTEX
  5
6D3
  8
LAYER_1
 10
45.48750478774309
 20
5.668365564182807
 30
0.0
  0
VERTEX
  5
6D4
  8
LAYER_1
 10
45.2718211854226
 20
5.573934054670509
 30
0.0
  0
VERTEX
  5
6D5
  8
LAYER_1
 10
45.07266102125868
 20
5.477254611771816
 30
0.0
  0
VERTEX
  5
6D6
  8
LAYER_1
 10
44.91217273363145
 20
5.389674592400705
 30
0.0
  0
VERTEX
  5
6D7
  8
LAYER_1
 10
44.812504760921
 20
5.322541353471152
 30
0.0
  0
VERTEX
  5
6D8
  8
LAYER_1
 10
44.65699694224168
 20
5.206021322652861
 30
0.0
  0
VERTEX
  5
6D9
  8
LAYER_1
 10
44.49375474825501
 20
5.106736640571825
 30
0.0
  0
VERTEX
  5
6DA
  8
LAYER_1
 10
44.40797801954655
 20
5.049495767394965
 30
0.0
  0
VERTEX
  5
6DB
  8
LAYER_1
 10
44.35277244549539
 20
4.982414414748179
 30
0.0
  0
VERTEX
  5
6DC
  8
LAYER_1
 10
44.33659297380566
 20
4.945360111078729
 30
0.0
  0
VERTEX
  5
6DD
  8
LAYER_1
 10
44.32800724958752
 20
4.906057550487996
 30
0.0
  0
VERTEX
  5
6DE
  8
LAYER_1
 10
44.33355165530897
 20
4.820990142470944
 30
0.0
  0
VERTEX
  5
6DF
  8
LAYER_1
 10
44.36927488614572
 20
4.727777158553547
 30
0.0
  0
VERTEX
  5
6E0
  8
LAYER_1
 10
44.4350461655838
 20
4.626983566592337
 30
0.0
  0
VERTEX
  5
6E1
  8
LAYER_1
 10
44.53073471710922
 20
4.519174334443838
 30
0.0
  0
VERTEX
  5
6E2
  8
LAYER_1
 10
44.65620976420797
 20
4.404914429964577
 30
0.0
  0
VERTEX
  5
6E3
  8
LAYER_1
 10
44.77816718755854
 20
4.294156569801025
 30
0.0
  0
VERTEX
  5
6E4
  8
LAYER_1
 10
44.87764157814052
 20
4.183876778784123
 30
0.0
  0
VERTEX
  5
6E5
  8
LAYER_1
 10
44.95524461539973
 20
4.072532885886138
 30
0.0
  0
VERTEX
  5
6E6
  8
LAYER_1
 10
45.011587978782
 20
3.958582720079342
 30
0.0
  0
VERTEX
  5
6E7
  8
LAYER_1
 10
45.04728334773317
 20
3.840484110335999
 30
0.0
  0
VERTEX
  5
6E8
  8
LAYER_1
 10
45.06294240169906
 20
3.71669488562838
 30
0.0
  0
VERTEX
  5
6E9
  8
LAYER_1
 10
45.0591768201255
 20
3.585672874928752
 30
0.0
  0
VERTEX
  5
6EA
  8
LAYER_1
 10
45.03659828245833
 20
3.445875907209384
 30
0.0
  0
VERTEX
  5
6EB
  8
LAYER_1
 10
45.00468019801757
 20
3.319809337957464
 30
0.0
  0
VERTEX
  5
6EC
  8
LAYER_1
 10
44.98848947082497
 20
3.284022969252891
 30
0.0
  0
VERTEX
  5
6ED
  8
LAYER_1
 10
44.96908944652571
 20
3.2648127316144
 30
0.0
  0
VERTEX
  5
6EE
  8
LAYER_1
 10
44.94418899477591
 20
3.260987265380858
 30
0.0
  0
VERTEX
  5
6EF
  8
LAYER_1
 10
44.91149698523171
 20
3.271355210891131
 30
0.0
  0
VERTEX
  5
6F0
  8
LAYER_1
 10
44.81357377138454
 20
3.329905898498595
 30
0.0
  0
VERTEX
  5
6F1
  8
LAYER_1
 10
44.66450522298332
 20
3.414570239134689
 30
0.0
  0
VERTEX
  5
6F2
  8
LAYER_1
 10
44.48721138900395
 20
3.493426840153166
 30
0.0
  0
VERTEX
  5
6F3
  8
LAYER_1
 10
44.28820023850079
 20
3.564786401820987
 30
0.0
  0
VERTEX
  5
6F4
  8
LAYER_1
 10
44.07397974052819
 20
3.626959624405112
 30
0.0
  0
VERTEX
  5
6F5
  8
LAYER_1
 10
43.85105786414047
 20
3.6782572081725
 30
0.0
  0
VERTEX
  5
6F6
  8
LAYER_1
 10
43.625942578392
 20
3.716989853390113
 30
0.0
  0
VERTEX
  5
6F7
  8
LAYER_1
 10
43.40514185233712
 20
3.741468260324909
 30
0.0
  0
VERTEX
  5
6F8
  8
LAYER_1
 10
43.19516365503017
 20
3.750003129243851
 30
0.0
  0
VERTEX
  5
6F9
  8
LAYER_1
 10
42.96462516577335
 20
3.74183301627117
 30
0.0
  0
VERTEX
  5
6FA
  8
LAYER_1
 10
42.73142465364871
 20
3.718873422486004
 30
0.0
  0
VERTEX
  5
6FB
  8
LAYER_1
 10
42.50487133947274
 20
3.683450465587669
 30
0.0
  0
VERTEX
  5
6FC
  8
LAYER_1
 10
42.29427444406194
 20
3.637890263275477
 30
0.0
  0
VERTEX
  5
6FD
  8
LAYER_1
 10
42.10894318823278
 20
3.584518933248744
 30
0.0
  0
VERTEX
  5
6FE
  8
LAYER_1
 10
41.95818679280174
 20
3.525662593206785
 30
0.0
  0
VERTEX
  5
6FF
  8
LAYER_1
 10
41.85131447858531
 20
3.463647360848915
 30
0.0
  0
VERTEX
  5
700
  8
LAYER_1
 10
41.81724398343773
 20
3.432182071832548
 30
0.0
  0
VERTEX
  5
701
  8
LAYER_1
 10
41.79763546639998
 20
3.400799353874447
 30
0.0
  0
VERTEX
  5
702
  8
LAYER_1
 10
41.79320261569926
 20
3.372922591196555
 30
0.0
  0
VERTEX
  5
703
  8
LAYER_1
 10
41.79805688923341
 20
3.338296239607377
 30
0.0
  0
VERTEX
  5
704
  8
LAYER_1
 10
41.83333190705223
 20
3.253004937824032
 30
0.0
  0
VERTEX
  5
705
  8
LAYER_1
 10
41.89887071594829
 20
3.153345784782153
 30
0.0
  0
VERTEX
  5
706
  8
LAYER_1
 10
41.99008351201348
 20
3.047739116739479
 30
0.0
  0
VERTEX
  5
707
  8
LAYER_1
 10
42.07763685830747
 20
2.943476104601834
 30
0.0
  0
VERTEX
  5
708
  8
LAYER_1
 10
42.14566195760537
 20
2.833292974435303
 30
0.0
  0
VERTEX
  5
709
  8
LAYER_1
 10
42.19366752582403
 20
2.720387019876414
 30
0.0
  0
VERTEX
  5
70A
  8
LAYER_1
 10
42.22116227888032
 20
2.607955534561697
 30
0.0
  0
VERTEX
  5
70B
  8
LAYER_1
 10
42.22765493269108
 20
2.499195812127681
 30
0.0
  0
VERTEX
  5
70C
  8
LAYER_1
 10
42.21265420317317
 20
2.397305146210896
 30
0.0
  0
VERTEX
  5
70D
  8
LAYER_1
 10
42.17566880624346
 20
2.305480830447872
 30
0.0
  0
VERTEX
  5
70E
  8
LAYER_1
 10
42.11620745781879
 20
2.226920158475139
 30
0.0
  0
VERTEX
  5
70F
  8
LAYER_1
 10
42.07029980702972
 20
2.170078751182855
 30
0.0
  0
VERTEX
  5
710
  8
LAYER_1
 10
42.02573017335866
 20
2.095738988417649
 30
0.0
  0
VERTEX
  5
711
  8
LAYER_1
 10
41.98759199949818
 20
2.013541023497395
 30
0.0
  0
VERTEX
  5
712
  8
LAYER_1
 10
41.96097872814084
 20
1.933125009739967
 30
0.0
  0
VERTEX
  5
713
  8
LAYER_1
 10
41.95421579619385
 20
1.856153392277153
 30
0.0
  0
VERTEX
  5
714
  8
LAYER_1
 10
41.97436299301447
 20
1.771823215102925
 30
0.0
  0
VERTEX
  5
715
  8
LAYER_1
 10
42.02564325733351
 20
1.675172278035469
 30
0.0
  0
VERTEX
  5
716
  8
LAYER_1
 10
42.11227952788173
 20
1.561238380892974
 30
0.0
  0
VERTEX
  5
717
  8
LAYER_1
 10
42.23849474338996
 20
1.425059323493625
 30
0.0
  0
VERTEX
  5
718
  8
LAYER_1
 10
42.40851184258899
 20
1.26167290565561
 30
0.0
  0
VERTEX
  5
719
  8
LAYER_1
 10
42.8968434469826
 20
0.833429187936332
 30
0.0
  0
VERTEX
  5
71A
  8
LAYER_1
 10
43.059640302425
 20
0.6864366475488508
 30
0.0
  0
VERTEX
  5
71B
  8
LAYER_1
 10
43.1669416296773
 20
0.569391331798565
 30
0.0
  0
VERTEX
  5
71C
  8
LAYER_1
 10
43.19944223112645
 20
0.5225341460470958
 30
0.0
  0
VERTEX
  5
71D
  8
LAYER_1
 10
43.21766186360124
 20
0.4836860819165956
 30
0.0
  0
VERTEX
  5
71E
  8
LAYER_1
 10
43.22146483145939
 20
0.4530212445609547
 30
0.0
  0
VERTEX
  5
71F
  8
LAYER_1
 10
43.21071543905859
 20
0.4307137391340632
 30
0.0
  0
VERTEX
  5
720
  8
LAYER_1
 10
43.13707382874661
 20
0.3570721288212866
 30
0.0
  0
VERTEX
  5
721
  8
LAYER_1
 10
42.39978923224893
 20
0.4022458846506538
 30
0.0
  0
VERTEX
  5
722
  8
LAYER_1
 10
41.43750462681055
 20
0.4674613200418918
 30
0.0
  0
VERTEX
  5
723
  8
LAYER_1
 10
41.21250461786985
 20
0.4875029996037483
 30
0.0
  0
VERTEX
  5
724
  8
LAYER_1
 10
41.21250461786985
 20
-0.0242557757884612
 30
0.0
  0
VERTEX
  5
725
  8
LAYER_1
 10
41.20644901464034
 20
-0.2779652370791363
 30
0.0
  0
VERTEX
  5
726
  8
LAYER_1
 10
41.18538134179821
 20
-0.4505627933695102
 30
0.0
  0
VERTEX
  5
727
  8
LAYER_1
 10
41.16785819966917
 20
-0.512728267692939
 30
0.0
  0
VERTEX
  5
728
  8
LAYER_1
 10
41.14495030461309
 20
-0.5621561584303181
 30
0.0
  0
VERTEX
  5
729
  8
LAYER_1
 10
41.11611374478866
 20
-0.6013599298029895
 30
0.0
  0
VERTEX
  5
72A
  8
LAYER_1
 10
41.0808046083546
 20
-0.6328530460322952
 30
0.0
  0
VERTEX
  5
72B
  8
LAYER_1
 10
40.98753156103176
 20
-0.6842728136289162
 30
0.0
  0
VERTEX
  5
72C
  8
LAYER_1
 10
40.85139730873284
 20
-0.7344331450329507
 30
0.0
  0
VERTEX
  5
72D
  8
LAYER_1
 10
40.67669645957233
 20
-0.7825041694155253
 30
0.0
  0
VERTEX
  5
72E
  8
LAYER_1
 10
40.46772362166477
 20
-0.8276560159477668
 30
0.0
  0
VERTEX
  5
72F
  8
LAYER_1
 10
40.22877340312466
 20
-0.869058813800802
 30
0.0
  0
VERTEX
  5
730
  8
LAYER_1
 10
39.96414041206651
 20
-0.9058826921457572
 30
0.0
  0
VERTEX
  5
731
  8
LAYER_1
 10
39.67811925660484
 20
-0.9372977801537594
 30
0.0
  0
VERTEX
  5
732
  8
LAYER_1
 10
39.37500454485416
 20
-0.9624742069959353
 30
0.0
  0
VERTEX
  5
733
  8
LAYER_1
 10
38.97850292551328
 20
-0.9943571713592754
 30
0.0
  0
VERTEX
  5
734
  8
LAYER_1
 10
38.85144089681312
 20
-1.010921362645531
 30
0.0
  0
VERTEX
  5
735
  8
LAYER_1
 10
38.76215335297935
 20
-1.030879757968398
 30
0.0
  0
VERTEX
  5
736
  8
LAYER_1
 10
38.70337676717662
 20
-1.056466655803044
 30
0.0
  0
VERTEX
  5
737
  8
LAYER_1
 10
38.66784761256957
 20
-1.089916354624636
 30
0.0
  0
VERTEX
  5
738
  8
LAYER_1
 10
38.64830236232285
 20
-1.133463152908339
 30
0.0
  0
VERTEX
  5
739
  8
LAYER_1
 10
38.63747748960111
 20
-1.189341349129322
 30
0.0
  0
VERTEX
  5
73A
  8
LAYER_1
 10
38.63969097486211
 20
-1.27675801533867
 30
0.0
  0
VERTEX
  5
73B
  8
LAYER_1
 10
38.66801192475639
 20
-1.371913158047356
 30
0.0
  0
VERTEX
  5
73C
  8
LAYER_1
 10
38.72023658219133
 20
-1.469532400022315
 30
0.0
  0
VERTEX
  5
73D
  8
LAYER_1
 10
38.79416119007433
 20
-1.564341364030483
 30
0.0
  0
VERTEX
  5
73E
  8
LAYER_1
 10
38.9708572765058
 20
-1.766402096972314
 30
0.0
  0
VERTEX
  5
73F
  8
LAYER_1
 10
39.10687976886418
 20
-1.945185511291334
 30
0.0
  0
VERTEX
  5
740
  8
LAYER_1
 10
39.20367230245881
 20
-2.105761371699935
 30
0.0
  0
VERTEX
  5
741
  8
LAYER_1
 10
39.23780847075388
 20
-2.180805770660451
 30
0.0
  0
VERTEX
  5
742
  8
LAYER_1
 10
39.262678512599
 20
-2.25319944291051
 30
0.0
  0
VERTEX
  5
743
  8
LAYER_1
 10
39.27846288240784
 20
-2.323576109039161
 30
0.0
  0
VERTEX
  5
744
  8
LAYER_1
 10
39.28534203459405
 20
-2.392569489635452
 30
0.0
  0
VERTEX
  5
745
  8
LAYER_1
 10
39.28349642357131
 20
-2.460813305288432
 30
0.0
  0
VERTEX
  5
746
  8
LAYER_1
 10
39.27310650375328
 20
-2.528941276587151
 30
0.0
  0
VERTEX
  5
747
  8
LAYER_1
 10
39.22741555538602
 20
-2.667384568478
 30
0.0
  0
VERTEX
  5
748
  8
LAYER_1
 10
39.14971282480157
 20
-2.812969130020392
 30
0.0
  0
VERTEX
  5
749
  8
LAYER_1
 10
39.07486070057985
 20
-2.943224027049591
 30
0.0
  0
VERTEX
  5
74A
  8
LAYER_1
 10
39.05433370690662
 20
-2.990731383632014
 30
0.0
  0
VERTEX
  5
74B
  8
LAYER_1
 10
39.04468780709732
 20
-3.029663289068223
 30
0.0
  0
VERTEX
  5
74C
  8
LAYER_1
 10
39.0456342873311
 20
-3.062398200964641
 30
0.0
  0
VERTEX
  5
74D
  8
LAYER_1
 10
39.0568844337871
 20
-3.091314576927696
 30
0.0
  0
VERTEX
  5
74E
  8
LAYER_1
 10
39.10914087008236
 20
-3.147205551479416
 30
0.0
  0
VERTEX
  5
74F
  8
LAYER_1
 10
39.16335204316055
 20
-3.178022140429817
 30
0.0
  0
VERTEX
  5
750
  8
LAYER_1
 10
39.23391611692654
 20
-3.195437814309988
 30
0.0
  0
VERTEX
  5
751
  8
LAYER_1
 10
39.31871341264315
 20
-3.199758536130077
 30
0.0
  0
VERTEX
  5
752
  8
LAYER_1
 10
39.41562425157319
 20
-3.191290268900232
 30
0.0
  0
VERTEX
  5
753
  8
LAYER_1
 10
39.52252895497947
 20
-3.170338975630601
 30
0.0
  0
VERTEX
  5
754
  8
LAYER_1
 10
39.63730784412479
 20
-3.137210619331333
 30
0.0
  0
VERTEX
  5
755
  8
LAYER_1
 10
39.75784124027197
 20
-3.092211163012574
 30
0.0
  0
VERTEX
  5
756
  8
LAYER_1
 10
39.88200946468383
 20
-3.035646569684474
 30
0.0
  0
VERTEX
  5
757
  8
LAYER_1
 10
40.01802006763333
 20
-2.981182072194652
 30
0.0
  0
VERTEX
  5
758
  8
LAYER_1
 10
40.23643726836634
 20
-2.908363804978146
 30
0.0
  0
VERTEX
  5
759
  8
LAYER_1
 10
40.80000460147858
 20
-2.745718960120357
 30
0.0
  0
VERTEX
  5
75A
  8
LAYER_1
 10
41.13183029764847
 20
-2.644679747562178
 30
0.0
  0
VERTEX
  5
75B
  8
LAYER_1
 10
41.50161984699821
 20
-2.510022695816076
 30
0.0
  0
VERTEX
  5
75C
  8
LAYER_1
 10
41.86747678737171
 20
-2.358070731662744
 30
0.0
  0
VERTEX
  5
75D
  8
LAYER_1
 10
42.18750465661287
 20
-2.205146781882874
 30
0.0
  0
VERTEX
  5
75E
  8
LAYER_1
 10
43.1800777729506
 20
-1.695828891269107
 30
0.0
  0
VERTEX
  5
75F
  8
LAYER_1
 10
43.39086224607718
 20
-1.600616832585994
 30
0.0
  0
VERTEX
  5
760
  8
LAYER_1
 10
43.4870067469643
 20
-1.574997082352638
 30
0.0
  0
VERTEX
  5
761
  8
LAYER_1
 10
43.51053342832621
 20
-1.580129895812484
 30
0.0
  0
VERTEX
  5
762
  8
LAYER_1
 10
43.53159996746643
 20
-1.59492350518275
 30
0.0
  0
VERTEX
  5
763
  8
LAYER_1
 10
43.56611522220167
 20
-1.649864125598918
 30
0.0
  0
VERTEX
  5
764
  8
LAYER_1
 10
43.59007771740976
 20
-1.732560971489892
 30
0.0
  0
VERTEX
  5
765
  8
LAYER_1
 10
43.6030126593304
 20
-1.83575607074442
 30
0.0
  0
VERTEX
  5
766
  8
LAYER_1
 10
43.60444525420334
 20
-1.952191451251253
 30
0.0
  0
VERTEX
  5
767
  8
LAYER_1
 10
43.59390070826832
 20
-2.074609140899139
 30
0.0
  0
VERTEX
  5
768
  8
LAYER_1
 10
43.57090422776507
 20
-2.195751167576828
 30
0.0
  0
VERTEX
  5
769
  8
LAYER_1
 10
43.53498101893331
 20
-2.30835955917307
 30
0.0
  0
VERTEX
  5
76A
  8
LAYER_1
 10
43.49934027466165
 20
-2.38697391366039
 30
0.0
  0
VERTEX
  5
76B
  8
LAYER_1
 10
43.45739700157764
 20
-2.458111348429386
 30
0.0
  0
VERTEX
  5
76C
  8
LAYER_1
 10
43.4063708290894
 20
-2.524299037406797
 30
0.0
  0
VERTEX
  5
76D
  8
LAYER_1
 10
43.34348138660502
 20
-2.588064154519358
 30
0.0
  0
VERTEX
  5
76E
  8
LAYER_1
 10
43.26594830353261
 20
-2.651933873693809
 30
0.0
  0
VERTEX
  5
76F
  8
LAYER_1
 10
43.17099120928027
 20
-2.718435368856889
 30
0.0
  0
VERTEX
  5
770
  8
LAYER_1
 10
42.91768350486825
 20
-2.86944238285588
 30
0.0
  0
VERTEX
  5
771
  8
LAYER_1
 10
42.07500465214252
 20
-3.344607504693158
 30
0.0
  0
VERTEX
  5
772
  8
LAYER_1
 10
41.49858164562484
 20
-3.667967662215196
 30
0.0
  0
VERTEX
  5
773
  8
LAYER_1
 10
41.27519171629893
 20
-3.785491313367193
 30
0.0
  0
VERTEX
  5
774
  8
LAYER_1
 10
41.07831833639671
 20
-3.881303185596758
 30
0.0
  0
VERTEX
  5
775
  8
LAYER_1
 10
40.89543813101944
 20
-3.961197658516582
 30
0.0
  0
VERTEX
  5
776
  8
LAYER_1
 10
40.71402772526841
 20
-4.030969111739353
 30
0.0
  0
VERTEX
  5
777
  8
LAYER_1
 10
40.3055228130502
 20
-4.163320477544488
 30
0.0
  0
VERTEX
  5
778
  8
LAYER_1
 10
39.72201013719216
 20
-4.345425431924022
 30
0.0
  0
VERTEX
  5
779
  8
LAYER_1
 10
39.17584132806763
 20
-4.52833433246807
 30
0.0
  0
VERTEX
  5
77A
  8
LAYER_1
 10
38.73761875405256
 20
-4.687512092009543
 30
0.0
  0
VERTEX
  5
77B
  8
LAYER_1
 10
38.47794478352296
 20
-4.798423623381353
 30
0.0
  0
VERTEX
  5
77C
  8
LAYER_1
 10
38.40696024363871
 20
-4.843871057636744
 30
0.0
  0
VERTEX
  5
77D
  8
LAYER_1
 10
38.35349334280266
 20
-4.894360126060436
 30
0.0
  0
VERTEX
  5
77E
  8
LAYER_1
 10
38.31766897327788
 20
-4.949076189235769
 30
0.0
  0
VERTEX
  5
77F
  8
LAYER_1
 10
38.29961202732746
 20
-5.007204607746088
 30
0.0
  0
VERTEX
  5
780
  8
LAYER_1
 10
38.29944739721449
 20
-5.067930742174735
 30
0.0
  0
VERTEX
  5
781
  8
LAYER_1
 10
38.31729997520206
 20
-5.13043995310505
 30
0.0
  0
VERTEX
  5
782
  8
LAYER_1
 10
38.35329465355326
 20
-5.193917601120376
 30
0.0
  0
VERTEX
  5
783
  8
LAYER_1
 10
38.40755632453119
 20
-5.257549046804058
 30
0.0
  0
VERTEX
  5
784
  8
LAYER_1
 10
38.45738874296217
 20
-5.303702802187602
 30
0.0
  0
VERTEX
  5
785
  8
LAYER_1
 10
38.5066924459997
 20
-5.338636791389938
 30
0.0
  0
VERTEX
  5
786
  8
LAYER_1
 10
38.56130571260158
 20
-5.363188706329526
 30
0.0
  0
VERTEX
  5
787
  8
LAYER_1
 10
38.62706682172562
 20
-5.378196238924822
 30
0.0
  0
VERTEX
  5
788
  8
LAYER_1
 10
38.70981405232962
 20
-5.384497081094288
 30
0.0
  0
VERTEX
  5
789
  8
LAYER_1
 10
38.81538568337137
 20
-5.382928924756385
 30
0.0
  0
VERTEX
  5
78A
  8
LAYER_1
 10
39.11835526259934
 20
-5.3595363842323
 30
0.0
  0
VERTEX
  5
78B
  8
LAYER_1
 10
39.67500455677509
 20
-5.307374077768159
 30
0.0
  0
VERTEX
  5
78C
  8
LAYER_1
 10
39.67491295017075
 20
-5.372435656801386
 30
0.0
  0
VERTEX
  5
78D
  8
LAYER_1
 10
39.65941582507566
 20
-5.415451754990849
 30
0.0
  0
VERTEX
  5
78E
  8
LAYER_1
 10
39.61728840108505
 20
-5.484479149619919
 30
0.0
  0
VERTEX
  5
78F
  8
LAYER_1
 10
39.47887291149361
 20
-5.662497244775295
 30
0.0
  0
VERTEX
  5
790
  8
LAYER_1
 10
39.26830778242778
 20
-5.918689304456228
 30
0.0
  0
VERTEX
  5
791
  8
LAYER_1
 10
39.19638386120103
 20
-6.021370933514909
 30
0.0
  0
VERTEX
  5
792
  8
LAYER_1
 10
39.14453331322387
 20
-6.111448748451172
 30
0.0
  0
VERTEX
  5
793
  8
LAYER_1
 10
39.11113184678042
 20
-6.192177089064096
 30
0.0
  0
VERTEX
  5
794
  8
LAYER_1
 10
39.09455517015479
 20
-6.266810295152759
 30
0.0
  0
VERTEX
  5
795
  8
LAYER_1
 10
39.09317899163111
 20
-6.338602706516237
 30
0.0
  0
VERTEX
  5
796
  8
LAYER_1
 10
39.10537901949348
 20
-6.410808662953613
 30
0.0
  0
VERTEX
  5
797
  8
LAYER_1
 10
39.13350332985875
 20
-6.481293316931794
 30
0.0
  0
VERTEX
  5
798
  8
LAYER_1
 10
39.1784981189121
 20
-6.542284560296316
 30
0.0
  0
VERTEX
  5
799
  8
LAYER_1
 10
39.23765079328895
 20
-6.592623004581447
 30
0.0
  0
VERTEX
  5
79A
  8
LAYER_1
 10
39.30824875962476
 20
-6.631149261321447
 30
0.0
  0
VERTEX
  5
79B
  8
LAYER_1
 10
39.38757942455496
 20
-6.65670394205058
 30
0.0
  0
VERTEX
  5
79C
  8
LAYER_1
 10
39.472930194715
 20
-6.66812765830311
 30
0.0
  0
VERTEX
  5
79D
  8
LAYER_1
 10
39.56158847674031
 20
-6.664261021613298
 30
0.0
  0
VERTEX
  5
79E
  8
LAYER_1
 10
39.65084167726634
 20
-6.643944643515411
 30
0.0
  0
VERTEX
  5
79F
  8
LAYER_1
 10
39.71028011406887
 20
-6.612981075152215
 30
0.0
  0
VERTEX
  5
7A0
  8
LAYER_1
 10
39.77818776899753
 20
-6.555818950362628
 30
0.0
  0
VERTEX
  5
7A1
  8
LAYER_1
 10
39.85499352251426
 20
-6.471867727752183
 30
0.0
  0
VERTEX
  5
7A2
  8
LAYER_1
 10
39.94112625508102
 20
-6.360536865926411
 30
0.0
  0
VERTEX
  5
7A3
  8
LAYER_1
 10
40.14308817921241
 20
-6.053374059051024
 30
0.0
  0
VERTEX
  5
7A4
  8
LAYER_1
 10
40.3875045850873
 20
-5.629606198580731
 30
0.0
  0
VERTEX
  5
7A5
  8
LAYER_1
 10
40.48374482328654
 20
-5.468424191757146
 30
0.0
  0
VERTEX
  5
7A6
  8
LAYER_1
 10
40.57945771771483
 20
-5.331088691485606
 30
0.0
  0
VERTEX
  5
7A7
  8
LAYER_1
 10
40.66356904918212
 20
-5.232150289958955
 30
0.0
  0
VERTEX
  5
7A8
  8
LAYER_1
 10
40.69781343530849
 20
-5.201627061285229
 30
0.0
  0
VERTEX
  5
7A9
  8
LAYER_1
 10
40.72500459849834
 20
-5.186159579370042
 30
0.0
  0
VERTEX
  5
7AA
  8
LAYER_1
 10
40.77746334564132
 20
-5.1730240582135
 30
0.0
  0
VERTEX
  5
7AB
  8
LAYER_1
 10
40.79771180823016
 20
-5.179278267582225
 30
0.0
  0
VERTEX
  5
7AC
  8
LAYER_1
 10
40.7865860250594
 20
-5.20814041030046
 30
0.0
  0
VERTEX
  5
7AD
  8
LAYER_1
 10
40.7449220349236
 20
-5.262828689192446
 30
0.0
  0
VERTEX
  5
7AE
  8
LAYER_1
 10
40.65233946687852
 20
-5.375053357129801
 30
0.0
  0
VERTEX
  5
7AF
  8
LAYER_1
 10
40.40705783086625
 20
-6.043775321814181
 30
0.0
  0
VERTEX
  5
7B0
  8
LAYER_1
 10
40.2915946313934
 20
-6.34078210065281
 30
0.0
  0
VERTEX
  5
7B1
  8
LAYER_1
 10
40.15853483232142
 20
-6.655122798597139
 30
0.0
  0
VERTEX
  5
7B2
  8
LAYER_1
 10
40.02433710810502
 20
-6.94932138908672
 30
0.0
  0
VERTEX
  5
7B3
  8
LAYER_1
 10
39.90546013319891
 20
-7.185901845561105
 30
0.0
  0
VERTEX
  5
7B4
  8
LAYER_1
 10
39.79643898489005
 20
-7.366228707182696
 30
0.0
  0
VERTEX
  5
7B5
  8
LAYER_1
 10
39.65972057230913
 20
-7.559225649756735
 30
0.0
  0
VERTEX
  5
7B6
  8
LAYER_1
 10
39.50239772028485
 20
-7.757155501038791
 30
0.0
  0
VERTEX
  5
7B7
  8
LAYER_1
 10
39.33156325364592
 20
-7.952281088784433
 30
0.0
  0
VERTEX
  5
7B8
  8
LAYER_1
 10
39.15430999722102
 20
-8.13686524074923
 30
0.0
  0
VERTEX
  5
7B9
  8
LAYER_1
 10
38.97773077583886
 20
-8.30317078468875
 30
0.0
  0
VERTEX
  5
7BA
  8
LAYER_1
 10
38.80891841432813
 20
-8.443460548358562
 30
0.0
  0
VERTEX
  5
7BB
  8
LAYER_1
 10
38.65496573751754
 20
-8.549997359514236
 30
0.0
  0
VERTEX
  5
7BC
  8
LAYER_1
 10
38.56758421846452
 20
-8.625484287890561
 30
0.0
  0
VERTEX
  5
7BD
  8
LAYER_1
 10
38.46733741838716
 20
-8.747854324719489
 30
0.0
  0
VERTEX
  5
7BE
  8
LAYER_1
 10
38.36660250995054
 20
-8.90019010308301
 30
0.0
  0
VERTEX
  5
7BF
  8
LAYER_1
 10
38.27775666581972
 20
-9.065574256063115
 30
0.0
  0
VERTEX
  5
7C0
  8
LAYER_1
 10
38.21023486120427
 20
-9.21552278875194
 30
0.0
  0
VERTEX
  5
7C1
  8
LAYER_1
 10
38.16149085515077
 20
-9.350698686041248
 30
0.0
  0
VERTEX
  5
7C2
  8
LAYER_1
 10
38.1312389503778
 20
-9.486699603637355
 30
0.0
  0
VERTEX
  5
7C3
  8
LAYER_1
 10
38.1191934496039
 20
-9.639123197246578
 30
0.0
  0
VERTEX
  5
7C4
  8
LAYER_1
 10
38.12506865554762
 20
-9.823567122575234
 30
0.0
  0
VERTEX
  5
7C5
  8
LAYER_1
 10
38.14857887092753
 20
-10.05562903532964
 30
0.0
  0
VERTEX
  5
7C6
  8
LAYER_1
 10
38.24736154087012
 20
-10.72499744594097
 30
0.0
  0
VERTEX
  5
7C7
  8
LAYER_1
 10
38.37351207833399
 20
-11.54113517290889
 30
0.0
  0
VERTEX
  5
7C8
  8
LAYER_1
 10
38.41051135068
 20
-11.79477287752508
 30
0.0
  0
VERTEX
  5
7C9
  8
LAYER_1
 10
39.0615079544726
 20
-11.73339026536288
 30
0.0
  0
VERTEX
  5
7CA
  8
LAYER_1
 10
39.57615753480125
 20
-11.68928890370417
 30
0.0
  0
VERTEX
  5
7CB
  8
LAYER_1
 10
39.93688138136278
 20
-11.673636295322
 30
0.0
  0
VERTEX
  5
7CC
  8
LAYER_1
 10
40.22913401250157
 20
-11.68600232873348
 30
0.0
  0
VERTEX
  5
7CD
  8
LAYER_1
 10
40.53836994656199
 20
-11.72595689245569
 30
0.0
  0
VERTEX
  5
7CE
  8
LAYER_1
 10
40.72796588511856
 20
-11.74262452555845
 30
0.0
  0
VERTEX
  5
7CF
  8
LAYER_1
 10
40.81611536992384
 20
-11.73922420417601
 30
0.0
  0
VERTEX
  5
7D0
  8
LAYER_1
 10
40.90102921632099
 20
-11.72712994361678
 30
0.0
  0
VERTEX
  5
7D1
  8
LAYER_1
 10
40.98360493774042
 20
-11.70568835846508
 30
0.0
  0
VERTEX
  5
7D2
  8
LAYER_1
 10
41.06474004761252
 20
-11.67424606330522
 30
0.0
  0
VERTEX
  5
7D3
  8
LAYER_1
 10
41.1453320593677
 20
-11.63214967272154
 30
0.0
  0
VERTEX
  5
7D4
  8
LAYER_1
 10
41.22627848643638
 20
-11.57874580129834
 30
0.0
  0
VERTEX
  5
7D5
  8
LAYER_1
 10
41.30847684224894
 20
-11.51338106361995
 30
0.0
  0
VERTEX
  5
7D6
  8
LAYER_1
 10
41.39282464023579
 20
-11.43540207427068
 30
0.0
  0
VERTEX
  5
7D7
  8
LAYER_1
 10
41.571558616454
 20
-11.2389877988968
 30
0.0
  0
VERTEX
  5
7D8
  8
LAYER_1
 10
41.76966052253422
 20
-10.98427589185124
 30
0.0
  0
VERTEX
  5
7D9
  8
LAYER_1
 10
41.99431046591971
 20
-10.66603926980855
 30
0.0
  0
VERTEX
  5
7DA
  8
LAYER_1
 10
42.14000684804996
 20
-10.41835829168276
 30
0.0
  0
VERTEX
  5
7DB
  8
LAYER_1
 10
42.36354498624227
 20
-10.00488916007489
 30
0.0
  0
VERTEX
  5
7DC
  8
LAYER_1
 10
42.60525071791373
 20
-9.538487814252681
 30
0.0
  0
VERTEX
  5
7DD
  8
LAYER_1
 10
42.80544988048148
 20
-9.132010193483879
 30
0.0
  0
VERTEX
  5
7DE
  8
LAYER_1
 10
42.90742532288587
 20
-8.944100033015161
 30
0.0
  0
VERTEX
  5
7DF
  8
LAYER_1
 10
42.94924912729292
 20
-8.890064158936276
 30
0.0
  0
VERTEX
  5
7E0
  8
LAYER_1
 10
42.98440617748685
 20
-8.862882048409446
 30
0.0
  0
VERTEX
  5
7E1
  8
LAYER_1
 10
43.01247836620535
 20
-8.862734421020978
 30
0.0
  0
VERTEX
  5
7E2
  8
LAYER_1
 10
43.03304758618616
 20
-8.889801996357178
 30
0.0
  0
VERTEX
  5
7E3
  8
LAYER_1
 10
43.04569573016698
 20
-8.944265494004352
 30
0.0
  0
VERTEX
  5
7E4
  8
LAYER_1
 10
43.05000469088554
 20
-9.026305633548802
 30
0.0
  0
VERTEX
  5
7E5
  8
LAYER_1
 10
43.05651724894211
 20
-9.122627030453502
 30
0.0
  0
VERTEX
  5
7E6
  8
LAYER_1
 10
43.07484915538246
 20
-9.230956744003285
 30
0.0
  0
VERTEX
  5
7E7
  8
LAYER_1
 10
43.13973640703823
 20
-9.462736658884541
 30
0.0
  0
VERTEX
  5
7E8
  8
LAYER_1
 10
43.18267444906553
 20
-9.575734629139246
 30
0.0
  0
VERTEX
  5
7E9
  8
LAYER_1
 10
43.23019723310036
 20
-9.679836453885489
 30
0.0
  0
VERTEX
  5
7EA
  8
LAYER_1
 10
43.28049610754865
 20
-9.769816017584883
 30
0.0
  0
VERTEX
  5
7EB
  8
LAYER_1
 10
43.33176242081636
 20
-9.840447204699046
 30
0.0
  0
VERTEX
  5
7EC
  8
LAYER_1
 10
43.40129806590687
 20
-9.894120215369671
 30
0.0
  0
VERTEX
  5
7ED
  8
LAYER_1
 10
43.50892991989613
 20
-9.945674928906708
 30
0.0
  0
VERTEX
  5
7EE
  8
LAYER_1
 10
43.63996030804815
 20
-9.98925274384952
 30
0.0
  0
VERTEX
  5
7EF
  8
LAYER_1
 10
43.77969155562697
 20
-10.01899505873747
 30
0.0
  0
VERTEX
  5
7F0
  8
LAYER_1
 10
43.9408822899233
 20
-10.05545830997628
 30
0.0
  0
VERTEX
  5
7F1
  8
LAYER_1
 10
44.09621924650231
 20
-10.11481150384131
 30
0.0
  0
VERTEX
  5
7F2
  8
LAYER_1
 10
44.24181779886668
 20
-10.19525013730645
 30
0.0
  0
VERTEX
  5
7F3
  8
LAYER_1
 10
44.3737933205191
 20
-10.29496970734557
 30
0.0
  0
VERTEX
  5
7F4
  8
LAYER_1
 10
44.63048307964095
 20
-10.52034630090647
 30
0.0
  0
VERTEX
  5
7F5
  8
LAYER_1
 10
44.08266821223653
 20
-11.05392189056005
 30
0.0
  0
VERTEX
  5
7F6
  8
LAYER_1
 10
43.85674375069748
 20
-11.28839315631428
 30
0.0
  0
VERTEX
  5
7F7
  8
LAYER_1
 10
43.64656553895828
 20
-11.53236850898658
 30
0.0
  0
VERTEX
  5
7F8
  8
LAYER_1
 10
43.47560543792296
 20
-11.75699007388766
 30
0.0
  0
VERTEX
  5
7F9
  8
LAYER_1
 10
43.41216713545175
 20
-11.85302510008361
 30
0.0
  0
VERTEX
  5
7FA
  8
LAYER_1
 10
43.3673353084955
 20
-11.93339997632828
 30
0.0
  0
VERTEX
  5
7FB
  8
LAYER_1
 10
43.1998172721589
 20
-12.27930247244293
 30
0.0
  0
VERTEX
  5
7FC
  8
LAYER_1
 10
42.18750465661287
 20
-12.38256562271081
 30
0.0
  0
VERTEX
  5
7FD
  8
LAYER_1
 10
41.0353165283897
 20
-12.56829170819783
 30
0.0
  0
VERTEX
  5
7FE
  8
LAYER_1
 10
40.38410788538953
 20
-12.6638593243542
 30
0.0
  0
VERTEX
  5
7FF
  8
LAYER_1
 10
40.09710308928769
 20
-12.69578998794983
 30
0.0
  0
VERTEX
  5
800
  8
LAYER_1
 10
39.81207271206269
 20
-12.71868961484307
 30
0.0
  0
VERTEX
  5
801
  8
LAYER_1
 10
39.51119780517304
 20
-12.73371149974838
 30
0.0
  0
VERTEX
  5
802
  8
LAYER_1
 10
39.17665942007726
 20
-12.74200893738025
 30
0.0
  0
VERTEX
  5
803
  8
LAYER_1
 10
38.33531642110134
 20
-12.74304364968157
 30
0.0
  0
VERTEX
  5
804
  8
LAYER_1
 10
36.78750444203615
 20
-12.73206950567831
 30
0.0
  0
VERTEX
  5
805
  8
LAYER_1
 10
35.76760166389101
 20
-13.07061867593957
 30
0.0
  0
VERTEX
  5
806
  8
LAYER_1
 10
35.3571045679166
 20
-13.2157598217554
 30
0.0
  0
VERTEX
  5
807
  8
LAYER_1
 10
34.95923769915879
 20
-13.37348814181562
 30
0.0
  0
VERTEX
  5
808
  8
LAYER_1
 10
34.58196256116759
 20
-13.53969137176061
 30
0.0
  0
VERTEX
  5
809
  8
LAYER_1
 10
34.233240657493
 20
-13.71025724723074
 30
0.0
  0
VERTEX
  5
80A
  8
LAYER_1
 10
33.92103349168504
 20
-13.88107350386639
 30
0.0
  0
VERTEX
  5
80B
  8
LAYER_1
 10
33.65330256729373
 20
-14.04802787730795
 30
0.0
  0
VERTEX
  5
80C
  8
LAYER_1
 10
33.43800938786907
 20
-14.20700810319579
 30
0.0
  0
VERTEX
  5
80D
  8
LAYER_1
 10
33.35251492237862
 20
-14.28222282819468
 30
0.0
  0
VERTEX
  5
80E
  8
LAYER_1
 10
33.28311545696107
 20
-14.35390191717029
 30
0.0
  0
VERTEX
  5
80F
  8
LAYER_1
 10
33.19733036575938
 20
-14.46728460403959
 30
0.0
  0
VERTEX
  5
810
  8
LAYER_1
 10
33.11484801652364
 20
-14.6033182799096
 30
0.0
  0
VERTEX
  5
811
  8
LAYER_1
 10
33.04504658905114
 20
-14.74490602446109
 30
0.0
  0
VERTEX
  5
812
  8
LAYER_1
 10
32.99730426313916
 20
-14.87495091737486
 30
0.0
  0
VERTEX
  5
813
  8
LAYER_1
 10
32.96993669796866
 20
-15.0073827839198
 30
0.0
  0
VERTEX
  5
814
  8
LAYER_1
 10
32.96557549759235
 20
-15.12837863386513
 30
0.0
  0
VERTEX
  5
815
  8
LAYER_1
 10
32.98369646183647
 20
-15.23702718128002
 30
0.0
  0
VERTEX
  5
816
  8
LAYER_1
 10
33.02377539052719
 20
-15.33241714023365
 30
0.0
  0
VERTEX
  5
817
  8
LAYER_1
 10
33.08528808349075
 20
-15.41363722479519
 30
0.0
  0
VERTEX
  5
818
  8
LAYER_1
 10
33.16771034055335
 20
-15.4797761490338
 30
0.0
  0
VERTEX
  5
819
  8
LAYER_1
 10
33.27051796154121
 20
-15.52992262701867
 30
0.0
  0
VERTEX
  5
81A
  8
LAYER_1
 10
33.39318674628053
 20
-15.56316537281897
 30
0.0
  0
VERTEX
  5
81B
  8
LAYER_1
 10
33.6375043168664
 20
-15.60834301816381
 30
0.0
  0
VERTEX
  5
81C
  8
LAYER_1
 10
35.5125043913722
 20
-15.45604692050836
 30
0.0
  0
VERTEX
  5
81D
  8
LAYER_1
 10
35.80430765681371
 20
-15.52250410513805
 30
0.0
  0
VERTEX
  5
81E
  8
LAYER_1
 10
35.92713312147805
 20
-15.55790004413394
 30
0.0
  0
VERTEX
  5
81F
  8
LAYER_1
 10
36.04584838362327
 20
-15.60514780330676
 30
0.0
  0
VERTEX
  5
820
  8
LAYER_1
 10
36.14691828646153
 20
-15.6580780619135
 30
0.0
  0
VERTEX
  5
821
  8
LAYER_1
 10
36.21680767320498
 20
-15.71052149921113
 30
0.0
  0
VERTEX
  5
822
  8
LAYER_1
 10
36.33750442415476
 20
-15.83208170865452
 30
0.0
  0
VERTEX
  5
823
  8
LAYER_1
 10
36.3175506735374
 20
-16.6523359615359
 30
0.0
  0
VERTEX
  5
824
  8
LAYER_1
 10
36.31142201025433
 20
-17.09495497105565
 30
0.0
  0
VERTEX
  5
825
  8
LAYER_1
 10
36.31537704386433
 20
-17.24670228323667
 30
0.0
  0
VERTEX
  5
826
  8
LAYER_1
 10
36.32540134156606
 20
-17.36248189554161
 30
0.0
  0
VERTEX
  5
827
  8
LAYER_1
 10
36.34253716880254
 20
-17.45009912935285
 30
0.0
  0
VERTEX
  5
828
  8
LAYER_1
 10
36.36782679101682
 20
-17.51735930605276
 30
0.0
  0
VERTEX
  5
829
  8
LAYER_1
 10
36.40231247365192
 20
-17.57206774702372
 30
0.0
  0
VERTEX
  5
82A
  8
LAYER_1
 10
36.44703648215086
 20
-17.62202977364809
 30
0.0
  0
VERTEX
  5
82B
  8
LAYER_1
 10
36.52642635495549
 20
-17.68810110240712
 30
0.0
  0
VERTEX
  5
82C
  8
LAYER_1
 10
36.60441842937147
 20
-17.7229744545435
 30
0.0
  0
VERTEX
  5
82D
  8
LAYER_1
 10
36.64382940313094
 20
-17.72816830182097
 30
0.0
  0
VERTEX
  5
82E
  8
LAYER_1
 10
36.6840178604299
 20
-17.7249103498741
 30
0.0
  0
VERTEX
  5
82F
  8
LAYER_1
 10
36.72535944564726
 20
-17.71298316368
 30
0.0
  0
VERTEX
  5
830
  8
LAYER_1
 10
36.76822980316189
 20
-17.69216930821579
 30
0.0
  0
VERTEX
  5
831
  8
LAYER_1
 10
36.86005941259853
 20
-17.62301184938543
 30
0.0
  0
VERTEX
  5
832
  8
LAYER_1
 10
36.96251184377092
 20
-17.5156984931999
 30
0.0
  0
VERTEX
  5
833
  8
LAYER_1
 10
37.07859225171015
 20
-17.36848975947607
 30
0.0
  0
VERTEX
  5
834
  8
LAYER_1
 10
37.21130579144733
 20
-17.17964616803081
 30
0.0
  0
VERTEX
  5
835
  8
LAYER_1
 10
37.38305490773234
 20
-16.93232747433107
 30
0.0
  0
VERTEX
  5
836
  8
LAYER_1
 10
37.53145289818749
 20
-16.74243492560183
 30
0.0
  0
VERTEX
  5
837
  8
LAYER_1
 10
37.60128332320754
 20
-16.6667652016498
 30
0.0
  0
VERTEX
  5
838
  8
LAYER_1
 10
37.67054168914453
 20
-16.60274210919877
 30
0.0
  0
VERTEX
  5
839
  8
LAYER_1
 10
37.74098323678994
 20
-16.54946234666823
 30
0.0
  0
VERTEX
  5
83A
  8
LAYER_1
 10
37.81436320693521
 20
-16.50602261247762
 30
0.0
  0
VERTEX
  5
83B
  8
LAYER_1
 10
37.89243684037183
 20
-16.47151960504642
 30
0.0
  0
VERTEX
  5
83C
  8
LAYER_1
 10
37.97695937789127
 20
-16.44505002279409
 30
0.0
  0
VERTEX
  5
83D
  8
LAYER_1
 10
38.06968606028499
 20
-16.4257105641401
 30
0.0
  0
VERTEX
  5
83E
  8
LAYER_1
 10
38.17237212834445
 20
-16.41259792750389
 30
0.0
  0
VERTEX
  5
83F
  8
LAYER_1
 10
38.41464338462648
 20
-16.40143991396273
 30
0.0
  0
VERTEX
  5
840
  8
LAYER_1
 10
38.71781507306912
 20
-16.40434956952633
 30
0.0
  0
VERTEX
  5
841
  8
LAYER_1
 10
39.06205431375369
 20
-16.40566408972047
 30
0.0
  0
VERTEX
  5
842
  8
LAYER_1
 10
39.21281674902585
 20
-16.39858878627079
 30
0.0
  0
VERTEX
  5
843
  8
LAYER_1
 10
39.35367482033387
 20
-16.38423931354406
 30
0.0
  0
VERTEX
  5
844
  8
LAYER_1
 10
39.48787884723973
 20
-16.36102632635587
 30
0.0
  0
VERTEX
  5
845
  8
LAYER_1
 10
39.61867914930541
 20
-16.32736047952179
 30
0.0
  0
VERTEX
  5
846
  8
LAYER_1
 10
39.74932604609285
 20
-16.2816524278574
 30
0.0
  0
VERTEX
  5
847
  8
LAYER_1
 10
39.88306985716402
 20
-16.2223128261783
 30
0.0
  0
VERTEX
  5
848
  8
LAYER_1
 10
40.0231609020809
 20
-16.14775232930005
 30
0.0
  0
VERTEX
  5
849
  8
LAYER_1
 10
40.17284950040546
 20
-16.05638159203825
 30
0.0
  0
VERTEX
  5
84A
  8
LAYER_1
 10
40.51402063552544
 20
-15.81685201562632
 30
0.0
  0
VERTEX
  5
84B
  8
LAYER_1
 10
40.9325858190197
 20
-15.49100933546716
 30
0.0
  0
VERTEX
  5
84C
  8
LAYER_1
 10
41.45454760738397
 20
-15.06613879008543
 30
0.0
  0
VERTEX
  5
84D
  8
LAYER_1
 10
41.71420793204094
 20
-14.85983370345345
 30
0.0
  0
VERTEX
  5
84E
  8
LAYER_1
 10
41.95138927025093
 20
-14.6905777013746
 30
0.0
  0
VERTEX
  5
84F
  8
LAYER_1
 10
42.18245476732302
 20
-14.5514422014472
 30
0.0
  0
VERTEX
  5
850
  8
LAYER_1
 10
42.42376756856629
 20
-14.43549862126953
 30
0.0
  0
VERTEX
  5
851
  8
LAYER_1
 10
42.69169081928983
 20
-14.33581837843991
 30
0.0
  0
VERTEX
  5
852
  8
LAYER_1
 10
43.00258766480273
 20
-14.24547289055662
 30
0.0
  0
VERTEX
  5
853
  8
LAYER_1
 10
43.37282125041406
 20
-14.15753357521797
 30
0.0
  0
VERTEX
  5
854
  8
LAYER_1
 10
43.81875472143292
 20
-14.06507185002226
 30
0.0
  0
VERTEX
  5
855
  8
LAYER_1
 10
43.90420307324338
 20
-14.05665775029253
 30
0.0
  0
VERTEX
  5
856
  8
LAYER_1
 10
43.92730343816619
 20
-14.06229578022166
 30
0.0
  0
VERTEX
  5
857
  8
LAYER_1
 10
43.93792682199191
 20
-14.07397985453201
 30
0.0
  0
VERTEX
  5
858
  8
LAYER_1
 10
43.93652739438892
 20
-14.0913219666125
 30
0.0
  0
VERTEX
  5
859
  8
LAYER_1
 10
43.92355932502564
 20
-14.11393410985204
 30
0.0
  0
VERTEX
  5
85A
  8
LAYER_1
 10
43.86473393969171
 20
-14.17341646336396
 30
0.0
  0
VERTEX
  5
85B
  8
LAYER_1
 10
43.76508402333728
 20
-14.24932286217909
 30
0.0
  0
VERTEX
  5
85C
  8
LAYER_1
 10
43.62824293330951
 20
-14.33854925340875
 30
0.0
  0
VERTEX
  5
85D
  8
LAYER_1
 10
43.45784402695553
 20
-14.43799158416429
 30
0.0
  0
VERTEX
  5
85E
  8
LAYER_1
 10
43.25752066162248
 20
-14.54454580155704
 30
0.0
  0
VERTEX
  5
85F
  8
LAYER_1
 10
43.07382411385058
 20
-14.65368746862683
 30
0.0
  0
VERTEX
  5
860
  8
LAYER_1
 10
42.92002064821143
 20
-14.76942626704457
 30
0.0
  0
VERTEX
  5
861
  8
LAYER_1
 10
42.70525936616833
 20
-14.93042169745532
 30
0.0
  0
VERTEX
  5
862
  8
LAYER_1
 10
42.37500466406345
 20
-15.14837186272109
 30
0.0
  0
VERTEX
  5
863
  8
LAYER_1
 10
42.03937519000532
 20
-15.36923869565012
 30
0.0
  0
VERTEX
  5
864
  8
LAYER_1
 10
41.72181816951372
 20
-15.59852747417894
 30
0.0
  0
VERTEX
  5
865
  8
LAYER_1
 10
41.42908386067644
 20
-15.83003396261348
 30
0.0
  0
VERTEX
  5
866
  8
LAYER_1
 10
41.16792252158123
 20
-16.05755392525965
 30
0.0
  0
VERTEX
  5
867
  8
LAYER_1
 10
40.94508441031587
 20
-16.27488312642337
 30
0.0
  0
VERTEX
  5
868
  8
LAYER_1
 10
40.76731978496814
 20
-16.47581733041054
 30
0.0
  0
VERTEX
  5
869
  8
LAYER_1
 10
40.69744948516581
 20
-16.56819748480852
 30
0.0
  0
VERTEX
  5
86A
  8
LAYER_1
 10
40.64137890362579
 20
-16.65415230152709
 30
0.0
  0
VERTEX
  5
86B
  8
LAYER_1
 10
40.59995182260906
 20
-16.73290625110448
 30
0.0
  0
VERTEX
  5
86C
  8
LAYER_1
 10
40.57401202437659
 20
-16.80368380407893
 30
0.0
  0
VERTEX
  5
86D
  8
LAYER_1
 10
40.53257389563288
 20
-16.92303702322348
 30
0.0
  0
VERTEX
  5
86E
  8
LAYER_1
 10
40.47308661058102
 20
-17.03608222658303
 30
0.0
  0
VERTEX
  5
86F
  8
LAYER_1
 10
40.39325209042603
 20
-17.14495635723863
 30
0.0
  0
VERTEX
  5
870
  8
LAYER_1
 10
40.29077225637293
 20
-17.25179635827133
 30
0.0
  0
VERTEX
  5
871
  8
LAYER_1
 10
40.16334902962671
 20
-17.35873917276217
 30
0.0
  0
VERTEX
  5
872
  8
LAYER_1
 10
40.00868433139239
 20
-17.46792174379222
 30
0.0
  0
VERTEX
  5
873
  8
LAYER_1
 10
39.82448008287498
 20
-17.58148101444253
 30
0.0
  0
VERTEX
  5
874
  8
LAYER_1
 10
39.6084382052795
 20
-17.70155392779413
 30
0.0
  0
VERTEX
  5
875
  8
LAYER_1
 10
39.40496764226008
 20
-17.82168565854469
 30
0.0
  0
VERTEX
  5
876
  8
LAYER_1
 10
39.19328750849955
 20
-17.96752184800219
 30
0.0
  0
VERTEX
  5
877
  8
LAYER_1
 10
38.98161709358578
 20
-18.13162571472743
 30
0.0
  0
VERTEX
  5
878
  8
LAYER_1
 10
38.77817568710668
 20
-18.3065604772812
 30
0.0
  0
VERTEX
  5
879
  8
LAYER_1
 10
38.59118257865011
 20
-18.48488935422432
 30
0.0
  0
VERTEX
  5
87A
  8
LAYER_1
 10
38.42885705780396
 20
-18.65917556411759
 30
0.0
  0
VERTEX
  5
87B
  8
LAYER_1
 10
38.29941841415611
 20
-18.82198232552181
 30
0.0
  0
VERTEX
  5
87C
  8
LAYER_1
 10
38.21108593729446
 20
-18.9658728569978
 30
0.0
  0
VERTEX
  5
87D
  8
LAYER_1
 10
38.16730484070906
 20
-19.0583840389373
 30
0.0
  0
VERTEX
  5
87E
  8
LAYER_1
 10
38.13757116800785
 20
-19.13972338022346
 30
0.0
  0
VERTEX
  5
87F
  8
LAYER_1
 10
38.12313454614814
 20
-19.22228524499754
 30
0.0
  0
VERTEX
  5
880
  8
LAYER_1
 10
38.12524460208722
 20
-19.31846399740079
 30
0.0
  0
VERTEX
  5
881
  8
LAYER_1
 10
38.1451509627824
 20
-19.44065400157447
 30
0.0
  0
VERTEX
  5
882
  8
LAYER_1
 10
38.18410325519098
 20
-19.60124962165983
 30
0.0
  0
VERTEX
  5
883
  8
LAYER_1
 10
38.32414414297753
 20
-20.08723516613059
 30
0.0
  0
VERTEX
  5
884
  8
LAYER_1
 10
38.40779539284003
 20
-20.39126051790566
 30
0.0
  0
VERTEX
  5
885
  8
LAYER_1
 10
38.43179501253402
 20
-20.50761518720091
 30
0.0
  0
VERTEX
  5
886
  8
LAYER_1
 10
38.44465508047097
 20
-20.60992874328894
 30
0.0
  0
VERTEX
  5
887
  8
LAYER_1
 10
38.4469339354517
 20
-20.70549935456049
 30
0.0
  0
VERTEX
  5
888
  8
LAYER_1
 10
38.43918991627702
 20
-20.80162518940628
 30
0.0
  0
VERTEX
  5
889
  8
LAYER_1
 10
38.39586661066483
 20
-21.02473520338349
 30
0.0
  0
VERTEX
  5
88A
  8
LAYER_1
 10
38.35015386159839
 20
-21.19600906797105
 30
0.0
  0
VERTEX
  5
88B
  8
LAYER_1
 10
38.29312593753999
 20
-21.3757019651862
 30
0.0
  0
VERTEX
  5
88C
  8
LAYER_1
 10
38.23205574314512
 20
-21.54247715091784
 30
0.0
  0
VERTEX
  5
88D
  8
LAYER_1
 10
38.17421618306926
 20
-21.67499788105488
 30
0.0
  0
VERTEX
  5
88E
  8
LAYER_1
 10
38.08917125040588
 20
-21.86264682986016
 30
0.0
  0
VERTEX
  5
88F
  8
LAYER_1
 10
38.00044167156196
 20
-22.08693256317709
 30
0.0
  0
VERTEX
  5
890
  8
LAYER_1
 10
37.83045127873261
 20
-22.58567538496207
 30
0.0
  0
VERTEX
  5
891
  8
LAYER_1
 10
37.75845181644726
 20
-22.83026297423817
 30
0.0
  0
VERTEX
  5
892
  8
LAYER_1
 10
37.70129041138148
 20
-23.05174834964206
 30
0.0
  0
VERTEX
  5
893
  8
LAYER_1
 10
37.66359773938532
 20
-23.23519676157778
 30
0.0
  0
VERTEX
  5
894
  8
LAYER_1
 10
37.65000447630882
 20
-23.36567346044934
 30
0.0
  0
VERTEX
  5
895
  8
LAYER_1
 10
37.65757888375198
 20
-23.47114158926799
 30
0.0
  0
VERTEX
  5
896
  8
LAYER_1
 10
37.67973141803026
 20
-23.56574357959786
 30
0.0
  0
VERTEX
  5
897
  8
LAYER_1
 10
37.71560604706685
 20
-23.64849427704911
 30
0.0
  0
VERTEX
  5
898
  8
LAYER_1
 10
37.76434673878494
 20
-23.7184085272319
 30
0.0
  0
VERTEX
  5
899
  8
LAYER_1
 10
37.82509746110772
 20
-23.77450117575638
 30
0.0
  0
VERTEX
  5
89A
  8
LAYER_1
 10
37.8970021819584
 20
-23.81578706823273
 30
0.0
  0
VERTEX
  5
89B
  8
LAYER_1
 10
37.97920486926016
 20
-23.84128105027109
 30
0.0
  0
VERTEX
  5
89C
  8
LAYER_1
 10
38.0708494909362
 20
-23.84999796748161
 30
0.0
  0
VERTEX
  5
89D
  8
LAYER_1
 10
38.2016612818604
 20
-23.83682285967599
 30
0.0
  0
VERTEX
  5
89E
  8
LAYER_1
 10
38.33806583824223
 20
-23.79707849150034
 30
0.0
  0
VERTEX
  5
89F
  8
LAYER_1
 10
38.48052857598758
 20
-23.73043629581645
 30
0.0
  0
VERTEX
  5
8A0
  8
LAYER_1
 10
38.62951491100235
 20
-23.63656770548612
 30
0.0
  0
VERTEX
  5
8A1
  8
LAYER_1
 10
38.78549025919247
 20
-23.51514415337116
 30
0.0
  0
VERTEX
  5
8A2
  8
LAYER_1
 10
38.94892003646383
 20
-23.36583707233337
 30
0.0
  0
VERTEX
  5
8A3
  8
LAYER_1
 10
39.12026965872234
 20
-23.18831789523455
 30
0.0
  0
VERTEX
  5
8A4
  8
LAYER_1
 10
39.30000454187393
 20
-22.98225805493649
 30
0.0
  0
VERTEX
  5
8A5
  8
LAYER_1
 10
39.70668086575291
 20
-22.50574793172801
 30
0.0
  0
VERTEX
  5
8A6
  8
LAYER_1
 10
39.88768945459419
 20
-22.30482763799976
 30
0.0
  0
VERTEX
  5
8A7
  8
LAYER_1
 10
40.05821101391659
 20
-22.1259558329781
 30
0.0
  0
VERTEX
  5
8A8
  8
LAYER_1
 10
40.22154505813006
 20
-21.96700149925496
 30
0.0
  0
VERTEX
  5
8A9
  8
LAYER_1
 10
40.38099110164456
 20
-21.82583361942226
 30
0.0
  0
VERTEX
  5
8AA
  8
LAYER_1
 10
40.53984865887001
 20
-21.70032117607195
 30
0.0
  0
VERTEX
  5
8AB
  8
LAYER_1
 10
40.70141724421639
 20
-21.58833315179597
 30
0.0
  0
VERTEX
  5
8AC
  8
LAYER_1
 10
40.86899637209361
 20
-21.48773852918625
 30
0.0
  0
VERTEX
  5
8AD
  8
LAYER_1
 10
41.04588555691164
 20
-21.39640629083472
 30
0.0
  0
VERTEX
  5
8AE
  8
LAYER_1
 10
41.23538431308043
 20
-21.31220541933332
 30
0.0
  0
VERTEX
  5
8AF
  8
LAYER_1
 10
41.44079215500992
 20
-21.23300489727399
 30
0.0
  0
VERTEX
  5
8B0
  8
LAYER_1
 10
41.91253315379078
 20
-21.08108083184926
 30
0.0
  0
VERTEX
  5
8B1
  8
LAYER_1
 10
42.4875046685338
 20
-20.92358595529602
 30
0.0
  0
VERTEX
  5
8B2
  8
LAYER_1
 10
43.3862632013269
 20
-20.6756681777618
 30
0.0
  0
VERTEX
  5
8B3
  8
LAYER_1
 10
43.77647672785828
 20
-20.55740908009101
 30
0.0
  0
VERTEX
  5
8B4
  8
LAYER_1
 10
44.12592812502817
 20
-20.44339807827992
 30
0.0
  0
VERTEX
  5
8B5
  8
LAYER_1
 10
44.43362866574802
 20
-20.33397134867516
 30
0.0
  0
VERTEX
  5
8B6
  8
LAYER_1
 10
44.6985896229293
 20
-20.22946506762333
 30
0.0
  0
VERTEX
  5
8B7
  8
LAYER_1
 10
44.91982226948348
 20
-20.13021541147105
 30
0.0
  0
VERTEX
  5
8B8
  8
LAYER_1
 10
45.09633787832203
 20
-20.03655855656494
 30
0.0
  0
VERTEX
  5
8B9
  8
LAYER_1
 10
45.27001876353404
 20
-19.92588641532448
 30
0.0
  0
VERTEX
  5
8BA
  8
LAYER_1
 10
45.44285107833748
 20
-19.80026582870313
 30
0.0
  0
VERTEX
  5
8BB
  8
LAYER_1
 10
45.61083037119808
 20
-19.66352017532715
 30
0.0
  0
VERTEX
  5
8BC
  8
LAYER_1
 10
45.76995219058153
 20
-19.51947283382278
 30
0.0
  0
VERTEX
  5
8BD
  8
LAYER_1
 10
45.91621208495353
 20
-19.37194718281629
 30
0.0
  0
VERTEX
  5
8BE
  8
LAYER_1
 10
46.04560560277977
 20
-19.22476660093391
 30
0.0
  0
VERTEX
  5
8BF
  8
LAYER_1
 10
46.15412829252595
 20
-19.08175446680191
 30
0.0
  0
VERTEX
  5
8C0
  8
LAYER_1
 10
46.23777570265779
 20
-18.94673415904654
 30
0.0
  0
VERTEX
  5
8C1
  8
LAYER_1
 10
46.33727520813558
 20
-18.78521355932195
 30
0.0
  0
VERTEX
  5
8C2
  8
LAYER_1
 10
46.38171143334764
 20
-18.72968844800139
 30
0.0
  0
VERTEX
  5
8C3
  8
LAYER_1
 10
46.42091355833637
 20
-18.69229659630097
 30
0.0
  0
VERTEX
  5
8C4
  8
LAYER_1
 10
46.45361277169768
 20
-18.67402035466491
 30
0.0
  0
VERTEX
  5
8C5
  8
LAYER_1
 10
46.47854026202748
 20
-18.67584207353746
 30
0.0
  0
VERTEX
  5
8C6
  8
LAYER_1
 10
46.4944272179217
 20
-18.69874410336283
 30
0.0
  0
VERTEX
  5
8C7
  8
LAYER_1
 10
46.50000482797623
 20
-18.74370879458527
 30
0.0
  0
VERTEX
  5
8C8
  8
LAYER_1
 10
46.52284714770413
 20
-18.7948841720361
 30
0.0
  0
VERTEX
  5
8C9
  8
LAYER_1
 10
46.58504158260683
 20
-18.88342963062075
 30
0.0
  0
VERTEX
  5
8CA
  8
LAYER_1
 10
46.67708934626283
 20
-18.99690406270287
 30
0.0
  0
VERTEX
  5
8CB
  8
LAYER_1
 10
46.78949165225062
 20
-19.12286636064609
 30
0.0
  0
VERTEX
  5
8CC
  8
LAYER_1
 10
46.95179589172619
 20
-19.27752467426246
 30
0.0
  0
VERTEX
  5
8CD
  8
LAYER_1
 10
47.03694009567932
 20
-19.3430860103481
 30
0.0
  0
VERTEX
  5
8CE
  8
LAYER_1
 10
47.12759111608295
 20
-19.40251934031006
 30
0.0
  0
VERTEX
  5
8CF
  8
LAYER_1
 10
47.2258830231673
 20
-19.45711256991682
 30
0.0
  0
VERTEX
  5
8D0
  8
LAYER_1
 10
47.33394988716259
 20
-19.50815360493689
 30
0.0
  0
VERTEX
  5
8D1
  8
LAYER_1
 10
47.58794476680684
 20
-19.60473071429097
 30
0.0
  0
VERTEX
  5
8D2
  8
LAYER_1
 10
47.87760424922376
 20
-19.70531135328437
 30
0.0
  0
VERTEX
  5
8D3
  8
LAYER_1
 10
47.96135634032964
 20
-19.74040495449834
 30
0.0
  0
VERTEX
  5
8D4
  8
LAYER_1
 10
48.00949546864175
 20
-19.7698474743729
 30
0.0
  0
VERTEX
  5
8D5
  8
LAYER_1
 10
48.02585073711607
 20
-19.79699896104486
 30
0.0
  0
VERTEX
  5
8D6
  8
LAYER_1
 10
48.01425124870855
 20
-19.82521946265106
 30
0.0
  0
VERTEX
  5
8D7
  8
LAYER_1
 10
47.92250441307188
 20
-19.89830770321338
 30
0.0
  0
VERTEX
  5
8D8
  8
LAYER_1
 10
47.74809776905506
 20
-20.02046687181202
 30
0.0
  0
VERTEX
  5
8D9
  8
LAYER_1
 10
47.03030129479036
 20
-20.32934817199003
 30
0.0
  0
VERTEX
  5
8DA
  8
LAYER_1
 10
45.9750048071146
 20
-20.7920670082251
 30
0.0
  0
VERTEX
  5
8DB
  8
LAYER_1
 10
45.39361940756507
 20
-21.04901426773605
 30
0.0
  0
VERTEX
  5
8DC
  8
LAYER_1
 10
45.16383424884061
 20
-21.16830641415189
 30
0.0
  0
VERTEX
  5
8DD
  8
LAYER_1
 10
44.80125446673719
 20
-21.38769369393574
 30
0.0
  0
VERTEX
  5
8DE
  8
LAYER_1
 10
44.30832848221083
 20
-21.70563828622508
 30
0.0
  0
VERTEX
  5
8DF
  8
LAYER_1
 10
43.68750471621752
 20
-22.12060237015742
 30
0.0
  0
VERTEX
  5
8E0
  8
LAYER_1
 10
43.4759945378508
 20
-22.25790343621164
 30
0.0
  0
VERTEX
  5
8E1
  8
LAYER_1
 10
43.25110032986684
 20
-22.39293163177804
 30
0.0
  0
VERTEX
  5
8E2
  8
LAYER_1
 10
43.01624770265336
 20
-22.52397191244549
 30
0.0
  0
VERTEX
  5
8E3
  8
LAYER_1
 10
42.77486226659801
 20
-22.64930923380287
 30
0.0
  0
VERTEX
  5
8E4
  8
LAYER_1
 10
42.53036963208849
 20
-22.76722855143907
 30
0.0
  0
VERTEX
  5
8E5
  8
LAYER_1
 10
42.28619540951247
 20
-22.87601482094294
 30
0.0
  0
VERTEX
  5
8E6
  8
LAYER_1
 10
42.04576520925765
 20
-22.97395299790337
 30
0.0
  0
VERTEX
  5
8E7
  8
LAYER_1
 10
41.81250464171171
 20
-23.05932803790925
 30
0.0
  0
VERTEX
  5
8E8
  8
LAYER_1
 10
41.06250461190939
 20
-23.32725368472121
 30
0.0
  0
VERTEX
  5
8E9
  8
LAYER_1
 10
40.91250460594893
 20
-23.38902575951994
 30
0.0
  0
VERTEX
  5
8EA
  8
LAYER_1
 10
40.0510053910551
 20
-23.58400901597616
 30
0.0
  0
VERTEX
  5
8EB
  8
LAYER_1
 10
39.65982635468073
 20
-23.68448749739587
 30
0.0
  0
VERTEX
  5
8EC
  8
LAYER_1
 10
39.29420974740944
 20
-23.80465358161869
 30
0.0
  0
VERTEX
  5
8ED
  8
LAYER_1
 10
38.94704954773027
 20
-23.9484967021056
 30
0.0
  0
VERTEX
  5
8EE
  8
LAYER_1
 10
38.77816996901557
 20
-24.03054384890464
 30
0.0
  0
VERTEX
  5
8EF
  8
LAYER_1
 10
38.6112397341323
 20
-24.12000629231758
 30
0.0
  0
VERTEX
  5
8F0
  8
LAYER_1
 10
38.27967428510458
 20
-24.32317178571559
 30
0.0
  0
VERTEX
  5
8F1
  8
LAYER_1
 10
37.94524717913616
 20
-24.56198261576064
 30
0.0
  0
VERTEX
  5
8F2
  8
LAYER_1
 10
37.60085239471611
 20
-24.84042821591368
 30
0.0
  0
VERTEX
  5
8F3
  8
LAYER_1
 10
37.23938391033347
 20
-25.16249801963568
 30
0.0
  0
VERTEX
  5
8F4
  8
LAYER_1
 10
37.01641211221245
 20
-25.35581347443464
 30
0.0
  0
VERTEX
  5
8F5
  8
LAYER_1
 10
36.70754293945549
 20
-25.60995487866639
 30
0.0
  0
VERTEX
  5
8F6
  8
LAYER_1
 10
36.30000442266464
 20
-25.94827443563448
 30
0.0
  0
VERTEX
  5
8F7
  8
LAYER_1
 10
36.26250442117453
 20
-25.98913713953234
 30
0.0
  0
VERTEX
  5
8F8
  8
LAYER_1
 10
35.66250439733267
 20
-26.39363454077218
 30
0.0
  0
VERTEX
  5
8F9
  8
LAYER_1
 10
35.20354454514957
 20
-26.71470193228108
 30
0.0
  0
VERTEX
  5
8FA
  8
LAYER_1
 10
35.02718409490232
 20
-26.84931300106177
 30
0.0
  0
VERTEX
  5
8FB
  8
LAYER_1
 10
34.88132465132666
 20
-26.97097427998116
 30
0.0
  0
VERTEX
  5
8FC
  8
LAYER_1
 10
34.76228223150414
 20
-27.08293474013016
 30
0.0
  0
VERTEX
  5
8FD
  8
LAYER_1
 10
34.6663728525163
 20
-27.18844335259966
 30
0.0
  0
VERTEX
  5
8FE
  8
LAYER_1
 10
34.58991253144471
 20
-27.29074908848057
 30
0.0
  0
VERTEX
  5
8FF
  8
LAYER_1
 10
34.52921728537089
 20
-27.39310091886379
 30
0.0
  0
VERTEX
  5
900
  8
LAYER_1
 10
34.49563753196648
 20
-27.46662655650186
 30
0.0
  0
VERTEX
  5
901
  8
LAYER_1
 10
34.47222116310955
 20
-27.53912224936605
 30
0.0
  0
VERTEX
  5
902
  8
LAYER_1
 10
34.45894608735779
 20
-27.61055391095991
 30
0.0
  0
VERTEX
  5
903
  8
LAYER_1
 10
34.45579021326894
 20
-27.68088745478705
 30
0.0
  0
VERTEX
  5
904
  8
LAYER_1
 10
34.46273144940071
 20
-27.75008879435102
 30
0.0
  0
VERTEX
  5
905
  8
LAYER_1
 10
34.47974770431082
 20
-27.81812384315538
 30
0.0
  0
VERTEX
  5
906
  8
LAYER_1
 10
34.50681688655699
 20
-27.88495851470373
 30
0.0
  0
VERTEX
  5
907
  8
LAYER_1
 10
34.54391690469694
 20
-27.95055872249962
 30
0.0
  0
VERTEX
  5
908
  8
LAYER_1
 10
34.59102566728841
 20
-28.01489038004664
 30
0.0
  0
VERTEX
  5
909
  8
LAYER_1
 10
34.64812108288908
 20
-28.07791940084836
 30
0.0
  0
VERTEX
  5
90A
  8
LAYER_1
 10
34.79218350734901
 20
-28.19993318623016
 30
0.0
  0
VERTEX
  5
90B
  8
LAYER_1
 10
34.97592744653846
 20
-28.31632738667361
 30
0.0
  0
VERTEX
  5
90C
  8
LAYER_1
 10
35.19917616891919
 20
-28.42682931020731
 30
0.0
  0
VERTEX
  5
90D
  8
LAYER_1
 10
35.5589794524372
 20
-28.58598741005936
 30
0.0
  0
VERTEX
  5
90E
  8
LAYER_1
 10
38.35619388771092
 20
-28.94614914282972
 30
0.0
  0
VERTEX
  5
90F
  8
LAYER_1
 10
38.71702478122438
 20
-29.07590212062647
 30
0.0
  0
VERTEX
  5
910
  8
LAYER_1
 10
38.92460073406575
 20
-29.14569192333358
 30
0.0
  0
VERTEX
  5
911
  8
LAYER_1
 10
38.99868211541052
 20
-29.16275812674021
 30
0.0
  0
VERTEX
  5
912
  8
LAYER_1
 10
39.06123100144288
 20
-29.16779639495132
 30
0.0
  0
VERTEX
  5
913
  8
LAYER_1
 10
39.11845131821649
 20
-29.16070012554374
 30
0.0
  0
VERTEX
  5
914
  8
LAYER_1
 10
39.17654699178499
 20
-29.14136271609429
 30
0.0
  0
VERTEX
  5
915
  8
LAYER_1
 10
39.3201801135213
 20
-29.06553806737703
 30
0.0
  0
VERTEX
  5
916
  8
LAYER_1
 10
39.43597495376472
 20
-28.99184590584406
 30
0.0
  0
VERTEX
  5
917
  8
LAYER_1
 10
39.57212379194563
 20
-28.89477801880366
 30
0.0
  0
VERTEX
  5
918
  8
LAYER_1
 10
39.83757533880183
 20
-28.68098734987296
 30
0.0
  0
VERTEX
  5
919
  8
LAYER_1
 10
40.09316023226786
 20
-28.46810415364085
 30
0.0
  0
VERTEX
  5
91A
  8
LAYER_1
 10
40.32138195679676
 20
-28.29952590113002
 30
0.0
  0
VERTEX
  5
91B
  8
LAYER_1
 10
40.53011778829462
 20
-28.16249813884497
 30
0.0
  0
VERTEX
  5
91C
  8
LAYER_1
 10
42.56827415197579
 20
-28.07873956352381
 30
0.0
  0
VERTEX
  5
91D
  8
LAYER_1
 10
42.90288942515595
 20
-27.92277360361156
 30
0.0
  0
VERTEX
  5
91E
  8
LAYER_1
 10
43.2163208399035
 20
-27.78698062910632
 30
0.0
  0
VERTEX
  5
91F
  8
LAYER_1
 10
43.50000470876694
 20
-27.67951567666199
 30
0.0
  0
VERTEX
  5
920
  8
LAYER_1
 10
43.76250471919775
 20
-27.59222370962466
 30
0.0
  0
VERTEX
  5
921
  8
LAYER_1
 10
46.46250482648611
 20
-27.38293585385792
 30
0.0
  0
VERTEX
  5
922
  8
LAYER_1
 10
46.70625483617187
 20
-27.33209197884258
 30
0.0
  0
VERTEX
  5
923
  8
LAYER_1
 10
46.81391409527178
 20
-27.31498929065089
 30
0.0
  0
VERTEX
  5
924
  8
LAYER_1
 10
46.88997279220276
 20
-27.31534887120236
 30
0.0
  0
VERTEX
  5
925
  8
LAYER_1
 10
46.93511001353973
 20
-27.33327316896622
 30
0.0
  0
VERTEX
  5
926
  8
LAYER_1
 10
46.94629528541512
 20
-27.34885410194942
 30
0.0
  0
VERTEX
  5
927
  8
LAYER_1
 10
46.95000484585762
 20
-27.36886463241167
 30
0.0
  0
VERTEX
  5
928
  8
LAYER_1
 10
46.95000484585762
 20
-27.45648116099611
 30
0.0
  0
VERTEX
  5
929
  8
LAYER_1
 10
47.82924058264577
 20
-28.31249814480543
 30
0.0
  0
SEQEND
  5
E9C
  8
LAYER_1
  0
POLYLINE
  5
73
  8
LAYER_1
 66
     1
 10
0.0
 20
0.0
 30
0.0
 70
     1
  0
VERTEX
  5
92A
  8
LAYER_1
 10
-7.799997329711914
 20
-39.39988500844375
 30
0.0
  0
VERTEX
  5
92B
  8
LAYER_1
 10
-6.899997293949127
 20
-39.4337477174846
 30
0.0
  0
VERTEX
  5
92C
  8
LAYER_1
 10
-6.562497280538082
 20
-39.44730139982985
 30
0.0
  0
VERTEX
  5
92D
  8
LAYER_1
 10
-5.024997219443321
 20
-39.37329305397617
 30
0.0
  0
VERTEX
  5
92E
  8
LAYER_1
 10
-3.995245593192431
 20
-39.31098640448777
 30
0.0
  0
VERTEX
  5
92F
  8
LAYER_1
 10
-2.990758421163829
 20
-39.22373331862244
 30
0.0
  0
VERTEX
  5
930
  8
LAYER_1
 10
-2.002269956917502
 20
-39.11006105123008
 30
0.0
  0
VERTEX
  5
931
  8
LAYER_1
 10
-1.020514454013433
 20
-38.96849685716061
 30
0.0
  0
VERTEX
  5
932
  8
LAYER_1
 10
-0.0362261660116095
 20
-38.79756799126395
 30
0.0
  0
VERTEX
  5
933
  8
LAYER_1
 10
0.959860653527985
 20
-38.59580170839001
 30
0.0
  0
VERTEX
  5
934
  8
LAYER_1
 10
1.977011751045365
 20
-38.36172526338871
 30
0.0
  0
VERTEX
  5
935
  8
LAYER_1
 10
3.024492872980545
 20
-38.09386591110997
 30
0.0
  0
VERTEX
  5
936
  8
LAYER_1
 10
4.436482701653858
 20
-37.71594971624193
 30
0.0
  0
VERTEX
  5
937
  8
LAYER_1
 10
5.19949295940728
 20
-37.45141646739962
 30
0.0
  0
VERTEX
  5
938
  8
LAYER_1
 10
5.666330406670189
 20
-37.28359072386198
 30
0.0
  0
VERTEX
  5
939
  8
LAYER_1
 10
6.166201569471644
 20
-37.09275127603632
 30
0.0
  0
VERTEX
  5
93A
  8
LAYER_1
 10
6.691800497510784
 20
-36.88201356556807
 30
0.0
  0
VERTEX
  5
93B
  8
LAYER_1
 10
7.235821240486745
 20
-36.65449303410268
 30
0.0
  0
VERTEX
  5
93C
  8
LAYER_1
 10
7.79095784809866
 20
-36.41330512328557
 30
0.0
  0
VERTEX
  5
93D
  8
LAYER_1
 10
8.349904370045667
 20
-36.1615652747622
 30
0.0
  0
VERTEX
  5
93E
  8
LAYER_1
 10
8.905354856026904
 20
-35.90238893017799
 30
0.0
  0
VERTEX
  5
93F
  8
LAYER_1
 10
9.4500033557415
 20
-35.63889153117839
 30
0.0
  0
VERTEX
  5
940
  8
LAYER_1
 10
10.76250340789557
 20
-34.99189982193964
 30
0.0
  0
VERTEX
  5
941
  8
LAYER_1
 10
11.21250342577696
 20
-34.73515598164344
 30
0.0
  0
VERTEX
  5
942
  8
LAYER_1
 10
12.03732445221773
 20
-34.24545525632516
 30
0.0
  0
VERTEX
  5
943
  8
LAYER_1
 10
12.41214546077713
 20
-34.01249837130308
 30
0.0
  0
VERTEX
  5
944
  8
LAYER_1
 10
13.61232451480261
 20
-33.20989220344671
 30
0.0
  0
VERTEX
  5
945
  8
LAYER_1
 10
14.34506392011478
 20
-32.70770920032105
 30
0.0
  0
VERTEX
  5
946
  8
LAYER_1
 10
15.05230906154938
 20
-32.19783953623778
 30
0.0
  0
VERTEX
  5
947
  8
LAYER_1
 10
15.73789214206181
 20
-31.67713241668152
 30
0.0
  0
VERTEX
  5
948
  8
LAYER_1
 10
16.40564536460748
 20
-31.14243704713686
 30
0.0
  0
VERTEX
  5
949
  8
LAYER_1
 10
17.05940093214183
 20
-30.59060263308842
 30
0.0
  0
VERTEX
  5
94A
  8
LAYER_1
 10
17.70299104762025
 20
-30.01847838002079
 30
0.0
  0
VERTEX
  5
94B
  8
LAYER_1
 10
18.34024791399816
 20
-29.42291349341858
 30
0.0
  0
VERTEX
  5
94C
  8
LAYER_1
 10
18.975003734231
 20
-28.8007571787664
 30
0.0
  0
VERTEX
  5
94D
  8
LAYER_1
 10
19.4749477328687
 20
-28.29237079737678
 30
0.0
  0
VERTEX
  5
94E
  8
LAYER_1
 10
19.9380909926571
 20
-27.80534710441946
 30
0.0
  0
VERTEX
  5
94F
  8
LAYER_1
 10
20.37676523224652
 20
-27.32527853901141
 30
0.0
  0
VERTEX
  5
950
  8
LAYER_1
 10
20.80330217028729
 20
-26.83775754026957
 30
0.0
  0
VERTEX
  5
951
  8
LAYER_1
 10
21.23003352542974
 20
-26.32837654731093
 30
0.0
  0
VERTEX
  5
952
  8
LAYER_1
 10
21.66929101632421
 20
-25.78272799925243
 30
0.0
  0
VERTEX
  5
953
  8
LAYER_1
 10
22.13340636162101
 20
-25.18640433521103
 30
0.0
  0
VERTEX
  5
954
  8
LAYER_1
 10
22.63471127997049
 20
-24.5249979943037
 30
0.0
  0
VERTEX
  5
955
  8
LAYER_1
 10
22.77532223226133
 20
-24.33749798685312
 30
0.0
  0
VERTEX
  5
956
  8
LAYER_1
 10
23.33162827639077
 20
-23.51249795407057
 30
0.0
  0
VERTEX
  5
957
  8
LAYER_1
 10
23.75979730600264
 20
-22.87043070502629
 30
0.0
  0
VERTEX
  5
958
  8
LAYER_1
 10
24.13037731826685
 20
-22.29862356302115
 30
0.0
  0
VERTEX
  5
959
  8
LAYER_1
 10
24.45981377852
 20
-21.77125359418898
 30
0.0
  0
VERTEX
  5
95A
  8
LAYER_1
 10
24.76455215209867
 20
-21.2624978646636
 30
0.0
  0
VERTEX
  5
95B
  8
LAYER_1
 10
25.02838518741675
 20
-20.81249784678221
 30
0.0
  0
VERTEX
  5
95C
  8
LAYER_1
 10
26.54033706585071
 20
-17.73749772459269
 30
0.0
  0
VERTEX
  5
95D
  8
LAYER_1
 10
26.88989743422304
 20
-16.87499769032001
 30
0.0
  0
VERTEX
  5
95E
  8
LAYER_1
 10
27.224382540914
 20
-16.0169784065054
 30
0.0
  0
VERTEX
  5
95F
  8
LAYER_1
 10
27.53718534016969
 20
-15.14744294146895
 30
0.0
  0
VERTEX
  5
960
  8
LAYER_1
 10
27.82809938940208
 20
-14.26752566969721
 30
0.0
  0
VERTEX
  5
961
  8
LAYER_1
 10
28.09691824602319
 20
-13.37836096567675
 30
0.0
  0
VERTEX
  5
962
  8
LAYER_1
 10
28.34343546744498
 20
-12.4810832038941
 30
0.0
  0
VERTEX
  5
963
  8
LAYER_1
 10
28.56744461107945
 20
-11.57682675883583
 30
0.0
  0
VERTEX
  5
964
  8
LAYER_1
 10
28.76873923433859
 20
-10.66672600498848
 30
0.0
  0
VERTEX
  5
965
  8
LAYER_1
 10
28.94711289463438
 20
-9.751915316838618
 30
0.0
  0
VERTEX
  5
966
  8
LAYER_1
 10
29.10235914937882
 20
-8.833529068872782
 30
0.0
  0
VERTEX
  5
967
  8
LAYER_1
 10
29.23427155598389
 20
-7.912701635577529
 30
0.0
  0
VERTEX
  5
968
  8
LAYER_1
 10
29.34264367186158
 20
-6.990567391439411
 30
0.0
  0
VERTEX
  5
969
  8
LAYER_1
 10
29.42726905442387
 20
-6.068260710944982
 30
0.0
  0
VERTEX
  5
96A
  8
LAYER_1
 10
29.48794126108277
 20
-5.146915968580792
 30
0.0
  0
VERTEX
  5
96B
  8
LAYER_1
 10
29.52445384925024
 20
-4.227667538833397
 30
0.0
  0
VERTEX
  5
96C
  8
LAYER_1
 10
29.53660037633828
 20
-3.311649796189346
 30
0.0
  0
VERTEX
  5
96D
  8
LAYER_1
 10
29.52417439975889
 20
-2.399997115135193
 30
0.0
  0
VERTEX
  5
96E
  8
LAYER_1
 10
29.47817464407431
 20
-0.7124970480799675
 30
0.0
  0
VERTEX
  5
96F
  8
LAYER_1
 10
29.36602093174409
 20
0.3375029936432838
 30
0.0
  0
VERTEX
  5
970
  8
LAYER_1
 10
29.27886328851536
 20
1.083955681868928
 30
0.0
  0
VERTEX
  5
971
  8
LAYER_1
 10
29.17724289876911
 20
1.82711125987665
 30
0.0
  0
VERTEX
  5
972
  8
LAYER_1
 10
29.06125527039681
 20
2.566617373777031
 30
0.0
  0
VERTEX
  5
973
  8
LAYER_1
 10
28.93099591128991
 20
3.30212166968065
 30
0.0
  0
VERTEX
  5
974
  8
LAYER_1
 10
28.78656032933986
 20
4.033271793698087
 30
0.0
  0
VERTEX
  5
975
  8
LAYER_1
 10
28.62804403243812
 20
4.759715391939922
 30
0.0
  0
VERTEX
  5
976
  8
LAYER_1
 10
28.45554252847614
 20
5.481100110516735
 30
0.0
  0
VERTEX
  5
977
  8
LAYER_1
 10
28.26915132534539
 20
6.197073595539107
 30
0.0
  0
VERTEX
  5
978
  8
LAYER_1
 10
28.06896593093732
 20
6.907283493117617
 30
0.0
  0
VERTEX
  5
979
  8
LAYER_1
 10
27.85508185314337
 20
7.611377449362846
 30
0.0
  0
VERTEX
  5
97A
  8
LAYER_1
 10
27.62759459985502
 20
8.309003110385373
 30
0.0
  0
VERTEX
  5
97B
  8
LAYER_1
 10
27.38659967896371
 20
8.999808122295775
 30
0.0
  0
VERTEX
  5
97C
  8
LAYER_1
 10
27.13219259836091
 20
9.683440131204637
 30
0.0
  0
VERTEX
  5
97D
  8
LAYER_1
 10
26.86446886593806
 20
10.35954678322254
 30
0.0
  0
VERTEX
  5
97E
  8
LAYER_1
 10
26.58352398958662
 20
11.02777572446005
 30
0.0
  0
VERTEX
  5
97F
  8
LAYER_1
 10
26.28945347719805
 20
11.68777460102777
 30
0.0
  0
VERTEX
  5
980
  8
LAYER_1
 10
25.95723977355877
 20
12.41250347346067
 30
0.0
  0
VERTEX
  5
981
  8
LAYER_1
 10
25.27295020082381
 20
13.72500352561474
 30
0.0
  0
VERTEX
  5
982
  8
LAYER_1
 10
24.91810285010909
 20
14.37166385366535
 30
0.0
  0
VERTEX
  5
983
  8
LAYER_1
 10
24.47751723851182
 20
15.12225487494998
 30
0.0
  0
VERTEX
  5
984
  8
LAYER_1
 10
23.99414784129441
 20
15.90547025062425
 30
0.0
  0
VERTEX
  5
985
  8
LAYER_1
 10
23.51094913371928
 20
16.6500036418438
 30
0.0
  0
VERTEX
  5
986
  8
LAYER_1
 10
22.43323763934973
 20
18.26250370591879
 30
0.0
  0
VERTEX
  5
987
  8
LAYER_1
 10
21.73216566126031
 20
19.14026030762653
 30
0.0
  0
VERTEX
  5
988
  8
LAYER_1
 10
21.25998027947483
 20
19.71689421418362
 30
0.0
  0
VERTEX
  5
989
  8
LAYER_1
 10
20.75132989844649
 20
20.31179757109627
 30
0.0
  0
VERTEX
  5
98A
  8
LAYER_1
 10
20.22021880531081
 20
20.91001434072074
 30
0.0
  0
VERTEX
  5
98B
  8
LAYER_1
 10
19.68065128720329
 20
21.49658848541329
 30
0.0
  0
VERTEX
  5
98C
  8
LAYER_1
 10
19.14663163125945
 20
22.05656396753018
 30
0.0
  0
VERTEX
  5
98D
  8
LAYER_1
 10
18.6321641246148
 20
22.57498474942766
 30
0.0
  0
VERTEX
  5
98E
  8
LAYER_1
 10
18.15125305440483
 20
23.036894793462
 30
0.0
  0
VERTEX
  5
98F
  8
LAYER_1
 10
17.71790270776508
 20
23.42733806198945
 30
0.0
  0
VERTEX
  5
990
  8
LAYER_1
 10
16.70248402009236
 20
24.2883056931807
 30
0.0
  0
VERTEX
  5
991
  8
LAYER_1
 10
15.73848440816966
 20
25.07158433130855
 30
0.0
  0
VERTEX
  5
992
  8
LAYER_1
 10
15.2724459325082
 20
25.43643170689285
 30
0.0
  0
VERTEX
  5
993
  8
LAYER_1
 10
14.81527723805661
 20
25.7846665489143
 30
0.0
  0
VERTEX
  5
994
  8
LAYER_1
 10
14.36564999557236
 20
26.11722542894056
 30
0.0
  0
VERTEX
  5
995
  8
LAYER_1
 10
13.92223587581288
 20
26.43504491853929
 30
0.0
  0
VERTEX
  5
996
  8
LAYER_1
 10
13.48370654953565
 20
26.73906158927817
 30
0.0
  0
VERTEX
  5
997
  8
LAYER_1
 10
13.04873368749811
 20
27.03021201272485
 30
0.0
  0
VERTEX
  5
998
  8
LAYER_1
 10
12.61598896045773
 20
27.309432760447
 30
0.0
  0
VERTEX
  5
999
  8
LAYER_1
 10
12.18414403917196
 20
27.57766040401229
 30
0.0
  0
VERTEX
  5
99A
  8
LAYER_1
 10
11.75187059439826
 20
27.83583151498839
 30
0.0
  0
VERTEX
  5
99B
  8
LAYER_1
 10
11.31784029689408
 20
28.08488266494296
 30
0.0
  0
VERTEX
  5
99C
  8
LAYER_1
 10
10.88072481741688
 20
28.32575042544367
 30
0.0
  0
VERTEX
  5
99D
  8
LAYER_1
 10
10.43919582672412
 20
28.55937136805818
 30
0.0
  0
VERTEX
  5
99E
  8
LAYER_1
 10
9.365888215750331
 20
29.1158890005359
 30
0.0
  0
VERTEX
  5
99F
  8
LAYER_1
 10
9.293052112407125
 20
29.04305289720858
 30
0.0
  0
VERTEX
  5
9A0
  8
LAYER_1
 10
9.712165800453178
 20
28.34027848782819
 30
0.0
  0
VERTEX
  5
9A1
  8
LAYER_1
 10
9.921309278084882
 20
27.97567584241601
 30
0.0
  0
VERTEX
  5
9A2
  8
LAYER_1
 10
10.18093680892626
 20
27.50245967263394
 30
0.0
  0
VERTEX
  5
9A3
  8
LAYER_1
 10
10.45799722885372
 20
26.9818342965555
 30
0.0
  0
VERTEX
  5
9A4
  8
LAYER_1
 10
10.71943937374367
 20
26.47500403225422
 30
0.0
  0
VERTEX
  5
9A5
  8
LAYER_1
 10
11.30759925898806
 20
25.31250398606062
 30
0.0
  0
VERTEX
  5
9A6
  8
LAYER_1
 10
11.61448661085345
 20
24.5625039562583
 30
0.0
  0
VERTEX
  5
9A7
  8
LAYER_1
 10
12.06220207477031
 20
23.43750391155481
 30
0.0
  0
VERTEX
  5
9A8
  8
LAYER_1
 10
12.35553035242686
 20
22.67184235786281
 30
0.0
  0
VERTEX
  5
9A9
  8
LAYER_1
 10
12.63800490309117
 20
21.87749811723167
 30
0.0
  0
VERTEX
  5
9AA
  8
LAYER_1
 10
12.90750551625522
 20
21.06166241964772
 30
0.0
  0
VERTEX
  5
9AB
  8
LAYER_1
 10
13.16191198141098
 20
20.23152649509728
 30
0.0
  0
VERTEX
  5
9AC
  8
LAYER_1
 10
13.39910408805045
 20
19.39428157356668
 30
0.0
  0
VERTEX
  5
9AD
  8
LAYER_1
 10
13.6169616256656
 20
18.55711888504226
 30
0.0
  0
VERTEX
  5
9AE
  8
LAYER_1
 10
13.81336438374842
 20
17.72722965951033
 30
0.0
  0
VERTEX
  5
9AF
  8
LAYER_1
 10
13.98619215179089
 20
16.91180512695722
 30
0.0
  0
VERTEX
  5
9B0
  8
LAYER_1
 10
14.06048306783776
 20
16.50461311105886
 30
0.0
  0
VERTEX
  5
9B1
  8
LAYER_1
 10
14.13734695642877
 20
16.02064951757063
 30
0.0
  0
VERTEX
  5
9B2
  8
LAYER_1
 10
14.29139317280337
 20
14.88245740739651
 30
0.0
  0
VERTEX
  5
9B3
  8
LAYER_1
 10
14.43352984403506
 20
13.61732841557882
 30
0.0
  0
VERTEX
  5
9B4
  8
LAYER_1
 10
14.54895601324424
 20
12.34536216126151
 30
0.0
  0
VERTEX
  5
9B5
  8
LAYER_1
 10
14.62500356137753
 20
11.37822081329954
 30
0.0
  0
VERTEX
  5
9B6
  8
LAYER_1
 10
14.62500356137753
 20
8.271785927985789
 30
0.0
  0
VERTEX
  5
9B7
  8
LAYER_1
 10
14.55001205935292
 20
7.304644580023819
 30
0.0
  0
VERTEX
  5
9B8
  8
LAYER_1
 10
14.47489091638381
 20
6.410480817496063
 30
0.0
  0
VERTEX
  5
9B9
  8
LAYER_1
 10
14.39238279574716
 20
5.577640262776438
 30
0.0
  0
VERTEX
  5
9BA
  8
LAYER_1
 10
14.3007141521642
 20
4.794187536034345
 30
0.0
  0
VERTEX
  5
9BB
  8
LAYER_1
 10
14.1981114403562
 20
4.048187257439187
 30
0.0
  0
VERTEX
  5
9BC
  8
LAYER_1
 10
14.08280111504439
 20
3.327704047160367
 30
0.0
  0
VERTEX
  5
9BD
  8
LAYER_1
 10
13.95300963095002
 20
2.620802525367287
 30
0.0
  0
VERTEX
  5
9BE
  8
LAYER_1
 10
13.80696344279433
 20
1.915547312229348
 30
0.0
  0
VERTEX
  5
9BF
  8
LAYER_1
 10
13.64288900529857
 20
1.200003027915955
 30
0.0
  0
VERTEX
  5
9C0
  8
LAYER_1
 10
13.48003105567323
 20
0.5497807395356179
 30
0.0
  0
VERTEX
  5
9C1
  8
LAYER_1
 10
13.30206585377432
 20
-0.1056557686597974
 30
0.0
  0
VERTEX
  5
9C2
  8
LAYER_1
 10
13.10967680387906
 20
-0.7646006509670524
 30
0.0
  0
VERTEX
  5
9C3
  8
LAYER_1
 10
12.90354731026465
 20
-1.425348061682909
 30
0.0
  0
VERTEX
  5
9C4
  8
LAYER_1
 10
12.6843607772083
 20
-2.086192155104127
 30
0.0
  0
VERTEX
  5
9C5
  8
LAYER_1
 10
12.45280060898723
 20
-2.745427085527469
 30
0.0
  0
VERTEX
  5
9C6
  8
LAYER_1
 10
12.20955020987865
 20
-3.401347007249695
 30
0.0
  0
VERTEX
  5
9C7
  8
LAYER_1
 10
11.95529298415976
 20
-4.052246074567567
 30
0.0
  0
VERTEX
  5
9C8
  8
LAYER_1
 10
11.69071233610778
 20
-4.696418441777845
 30
0.0
  0
VERTEX
  5
9C9
  8
LAYER_1
 10
11.41649166999991
 20
-5.332158263177292
 30
0.0
  0
VERTEX
  5
9CA
  8
LAYER_1
 10
11.13331439011337
 20
-5.957759693062668
 30
0.0
  0
VERTEX
  5
9CB
  8
LAYER_1
 10
10.84186390072537
 20
-6.571516885730734
 30
0.0
  0
VERTEX
  5
9CC
  8
LAYER_1
 10
10.54282360611312
 20
-7.171723995478253
 30
0.0
  0
VERTEX
  5
9CD
  8
LAYER_1
 10
10.23687691055382
 20
-7.756675176601982
 30
0.0
  0
VERTEX
  5
9CE
  8
LAYER_1
 10
9.9247072183247
 20
-8.324664583398688
 30
0.0
  0
VERTEX
  5
9CF
  8
LAYER_1
 10
9.606997933702957
 20
-8.873986370165127
 30
0.0
  0
VERTEX
  5
9D0
  8
LAYER_1
 10
9.02012258528275
 20
-9.8624974116683
 30
0.0
  0
VERTEX
  5
9D1
  8
LAYER_1
 10
8.78699132652568
 20
-10.31936621061146
 30
0.0
  0
VERTEX
  5
9D2
  8
LAYER_1
 10
7.983759304346279
 20
-11.44093186478406
 30
0.0
  0
VERTEX
  5
9D3
  8
LAYER_1
 10
7.548135050228636
 20
-12.04045974348206
 30
0.0
  0
VERTEX
  5
9D4
  8
LAYER_1
 10
7.113796418725001
 20
-12.62045406526564
 30
0.0
  0
VERTEX
  5
9D5
  8
LAYER_1
 10
6.679589561868067
 20
-13.18214193188656
 30
0.0
  0
VERTEX
  5
9D6
  8
LAYER_1
 10
6.244360631690525
 20
-13.7267504450966
 30
0.0
  0
VERTEX
  5
9D7
  8
LAYER_1
 10
5.806955780225064
 20
-14.25550670664754
 30
0.0
  0
VERTEX
  5
9D8
  8
LAYER_1
 10
5.366221159504375
 20
-14.76963781829117
 30
0.0
  0
VERTEX
  5
9D9
  8
LAYER_1
 10
4.921002921561151
 20
-15.27037088177924
 30
0.0
  0
VERTEX
  5
9DA
  8
LAYER_1
 10
4.470147218428076
 20
-15.75893299886355
 30
0.0
  0
VERTEX
  5
9DB
  8
LAYER_1
 10
4.012500202137845
 20
-16.23655127129586
 30
0.0
  0
VERTEX
  5
9DC
  8
LAYER_1
 10
3.54690802472315
 20
-16.70445280082795
 30
0.0
  0
VERTEX
  5
9DD
  8
LAYER_1
 10
3.072216838216677
 20
-17.16386468921161
 30
0.0
  0
VERTEX
  5
9DE
  8
LAYER_1
 10
2.58727279465112
 20
-17.6160140381986
 30
0.0
  0
VERTEX
  5
9DF
  8
LAYER_1
 10
2.090922046059168
 20
-18.0621279495407
 30
0.0
  0
VERTEX
  5
9E0
  8
LAYER_1
 10
1.582010744473511
 20
-18.5034335249897
 30
0.0
  0
VERTEX
  5
9E1
  8
LAYER_1
 10
1.05938504192684
 20
-18.94115786629735
 30
0.0
  0
VERTEX
  5
9E2
  8
LAYER_1
 10
0.5218910904518452
 20
-19.37652807521545
 30
0.0
  0
VERTEX
  5
9E3
  8
LAYER_1
 10
-0.0639083025738578
 20
-19.82806456811138
 30
0.0
  0
VERTEX
  5
9E4
  8
LAYER_1
 10
-0.7674144346597718
 20
-20.34815569181135
 30
0.0
  0
VERTEX
  5
9E5
  8
LAYER_1
 10
-1.472364852233875
 20
-20.85225834719182
 30
0.0
  0
VERTEX
  5
9E6
  8
LAYER_1
 10
-2.062497101724148
 20
-21.25582943512928
 30
0.0
  0
VERTEX
  5
9E7
  8
LAYER_1
 10
-2.662497125566006
 20
-21.65074200014022
 30
0.0
  0
VERTEX
  5
9E8
  8
LAYER_1
 10
-2.812934007529122
 20
-21.71249788254499
 30
0.0
  0
VERTEX
  5
9E9
  8
LAYER_1
 10
-3.906099336762168
 20
-22.36590272659195
 30
0.0
  0
VERTEX
  5
9EA
  8
LAYER_1
 10
-4.52666113550202
 20
-22.72619660711015
 30
0.0
  0
VERTEX
  5
9EB
  8
LAYER_1
 10
-5.166936801073266
 20
-23.07724453633057
 30
0.0
  0
VERTEX
  5
9EC
  8
LAYER_1
 10
-5.825384807570297
 20
-23.41846283833245
 30
0.0
  0
VERTEX
  5
9ED
  8
LAYER_1
 10
-6.500463629087499
 20
-23.74926783719499
 30
0.0
  0
VERTEX
  5
9EE
  8
LAYER_1
 10
-7.190631739719265
 20
-24.06907585699742
 30
0.0
  0
VERTEX
  5
9EF
  8
LAYER_1
 10
-7.894347613559983
 20
-24.37730322181893
 30
0.0
  0
VERTEX
  5
9F0
  8
LAYER_1
 10
-8.610069724704044
 20
-24.67336625573877
 30
0.0
  0
VERTEX
  5
9F1
  8
LAYER_1
 10
-9.336256547245837
 20
-24.95668128283613
 30
0.0
  0
VERTEX
  5
9F2
  8
LAYER_1
 10
-10.07136655527975
 20
-25.22666462719024
 30
0.0
  0
VERTEX
  5
9F3
  8
LAYER_1
 10
-10.81385822290017
 20
-25.48273261288031
 30
0.0
  0
VERTEX
  5
9F4
  8
LAYER_1
 10
-11.5621900242015
 20
-25.72430156398555
 30
0.0
  0
VERTEX
  5
9F5
  8
LAYER_1
 10
-12.31482043327811
 20
-25.95078780458519
 30
0.0
  0
VERTEX
  5
9F6
  8
LAYER_1
 10
-13.0702079242244
 20
-26.16160765875845
 30
0.0
  0
VERTEX
  5
9F7
  8
LAYER_1
 10
-13.82681097113477
 20
-26.35617745058452
 30
0.0
  0
VERTEX
  5
9F8
  8
LAYER_1
 10
-14.58308804810359
 20
-26.53391350414265
 30
0.0
  0
VERTEX
  5
9F9
  8
LAYER_1
 10
-15.33749762922525
 20
-26.69423214351204
 30
0.0
  0
VERTEX
  5
9FA
  8
LAYER_1
 10
-16.07171166305609
 20
-26.83542813304427
 30
0.0
  0
VERTEX
  5
9FB
  8
LAYER_1
 10
-16.75358091376121
 20
-26.9441812146593
 30
0.0
  0
VERTEX
  5
9FC
  8
LAYER_1
 10
-17.60865855721608
 20
-27.0523213448314
 30
0.0
  0
VERTEX
  5
9FD
  8
LAYER_1
 10
-18.86249776929617
 20
-27.19167848003489
 30
0.0
  0
VERTEX
  5
9FE
  8
LAYER_1
 10
-19.91249781101942
 20
-27.30542744111123
 30
0.0
  0
VERTEX
  5
9FF
  8
LAYER_1
 10
-23.5874979570508
 20
-27.395581454364
 30
0.0
  0
VERTEX
  5
A00
  8
LAYER_1
 10
-24.86249800771475
 20
-27.30535052841714
 30
0.0
  0
VERTEX
  5
A01
  8
LAYER_1
 10
-26.15751370441399
 20
-27.20008244061079
 30
0.0
  0
VERTEX
  5
A02
  8
LAYER_1
 10
-26.7713880236077
 20
-27.13917729656895
 30
0.0
  0
VERTEX
  5
A03
  8
LAYER_1
 10
-27.36620252089611
 20
-27.07213272388329
 30
0.0
  0
VERTEX
  5
A04
  8
LAYER_1
 10
-27.94447909442819
 20
-26.99847970114028
 30
0.0
  0
VERTEX
  5
A05
  8
LAYER_1
 10
-28.50873964235291
 20
-26.91774920692641
 30
0.0
  0
VERTEX
  5
A06
  8
LAYER_1
 10
-29.06150606281925
 20
-26.82947221982815
 30
0.0
  0
VERTEX
  5
A07
  8
LAYER_1
 10
-29.60530025397618
 20
-26.73317971843198
 30
0.0
  0
VERTEX
  5
A08
  8
LAYER_1
 10
-30.14264411397269
 20
-26.62840268132436
 30
0.0
  0
VERTEX
  5
A09
  8
LAYER_1
 10
-30.67605954095774
 20
-26.51467208709177
 30
0.0
  0
VERTEX
  5
A0A
  8
LAYER_1
 10
-31.2080684330803
 20
-26.3915189143207
 30
0.0
  0
VERTEX
  5
A0B
  8
LAYER_1
 10
-31.74119268848936
 20
-26.2584741415976
 30
0.0
  0
VERTEX
  5
A0C
  8
LAYER_1
 10
-32.27795420533389
 20
-26.11506874750896
 30
0.0
  0
VERTEX
  5
A0D
  8
LAYER_1
 10
-32.82087488176287
 20
-25.96083371064125
 30
0.0
  0
VERTEX
  5
A0E
  8
LAYER_1
 10
-33.37247661592527
 20
-25.79530000958095
 30
0.0
  0
VERTEX
  5
A0F
  8
LAYER_1
 10
-33.93528130597005
 20
-25.61799862291453
 30
0.0
  0
VERTEX
  5
A10
  8
LAYER_1
 10
-35.20806429428119
 20
-25.20806389691727
 30
0.0
  0
VERTEX
  5
A11
  8
LAYER_1
 10
-35.26654297412446
 20
-25.26654257675926
 30
0.0
  0
VERTEX
  5
A12
  8
LAYER_1
 10
-34.79303158991878
 20
-25.85202032352944
 30
0.0
  0
VERTEX
  5
A13
  8
LAYER_1
 10
-34.44970104723421
 20
-26.27035514487137
 30
0.0
  0
VERTEX
  5
A14
  8
LAYER_1
 10
-34.10218816878752
 20
-26.6814567434027
 30
0.0
  0
VERTEX
  5
A15
  8
LAYER_1
 10
-33.75000151426052
 20
-27.08586467788224
 30
0.0
  0
VERTEX
  5
A16
  8
LAYER_1
 10
-33.39264964333501
 20
-27.4841185070688
 30
0.0
  0
VERTEX
  5
A17
  8
LAYER_1
 10
-33.02964111569278
 20
-27.87675778972119
 30
0.0
  0
VERTEX
  5
A18
  8
LAYER_1
 10
-32.66048449101565
 20
-28.26432208459821
 30
0.0
  0
VERTEX
  5
A19
  8
LAYER_1
 10
-32.28468832898542
 20
-28.64735095045866
 30
0.0
  0
VERTEX
  5
A1A
  8
LAYER_1
 10
-31.90176118928387
 20
-29.02638394606136
 30
0.0
  0
VERTEX
  5
A1B
  8
LAYER_1
 10
-30.86249824613333
 20
-30.04026975923821
 30
0.0
  0
VERTEX
  5
A1C
  8
LAYER_1
 10
-30.29999822378159
 20
-30.53335147075632
 30
0.0
  0
VERTEX
  5
A1D
  8
LAYER_1
 10
-29.63835757249035
 20
-31.09079070693969
 30
0.0
  0
VERTEX
  5
A1E
  8
LAYER_1
 10
-28.83749816566706
 20
-31.7386043394615
 30
0.0
  0
VERTEX
  5
A1F
  8
LAYER_1
 10
-27.93749812990427
 20
-32.45077549664857
 30
0.0
  0
VERTEX
  5
A20
  8
LAYER_1
 10
-25.08749801665545
 20
-34.32751361658216
 30
0.0
  0
VERTEX
  5
A21
  8
LAYER_1
 10
-24.03749797493219
 20
-34.93244929013267
 30
0.0
  0
VERTEX
  5
A22
  8
LAYER_1
 10
-21.63749787956476
 20
-36.13006252146687
 30
0.0
  0
VERTEX
  5
A23
  8
LAYER_1
 10
-21.07499785721302
 20
-36.373848012648
 30
0.0
  0
VERTEX
  5
A24
  8
LAYER_1
 10
-20.21249782294035
 20
-36.75035321647444
 30
0.0
  0
VERTEX
  5
A25
  8
LAYER_1
 10
-19.87800246473087
 20
-36.89058530419916
 30
0.0
  0
VERTEX
  5
A26
  8
LAYER_1
 10
-19.46627034586958
 20
-37.05107201930321
 30
0.0
  0
VERTEX
  5
A27
  8
LAYER_1
 10
-18.51278450369838
 20
-37.39731330839618
 30
0.0
  0
VERTEX
  5
A28
  8
LAYER_1
 10
-17.55541765144037
 20
-37.71808503724732
 30
0.0
  0
VERTEX
  5
A29
  8
LAYER_1
 10
-17.13883426997058
 20
-37.84673480204906
 30
0.0
  0
VERTEX
  5
A2A
  8
LAYER_1
 10
-16.7975471441092
 20
-37.94239515935055
 30
0.0
  0
VERTEX
  5
A2B
  8
LAYER_1
 10
-15.37499763071537
 20
-38.31197599673495
 30
0.0
  0
VERTEX
  5
A2C
  8
LAYER_1
 10
-14.50286772504288
 20
-38.52398211926074
 30
0.0
  0
VERTEX
  5
A2D
  8
LAYER_1
 10
-13.58578281668147
 20
-38.71765824254234
 30
0.0
  0
VERTEX
  5
A2E
  8
LAYER_1
 10
-12.63554253098233
 20
-38.89130972390726
 30
0.0
  0
VERTEX
  5
A2F
  8
LAYER_1
 10
-11.66394649329663
 20
-39.04324192068298
 30
0.0
  0
VERTEX
  5
A30
  8
LAYER_1
 10
-10.68279432897556
 20
-39.17176019019699
 30
0.0
  0
VERTEX
  5
A31
  8
LAYER_1
 10
-9.703885663370297
 20
-39.27516988977681
 30
0.0
  0
VERTEX
  5
A32
  8
LAYER_1
 10
-8.73902012183202
 20
-39.3517763767499
 30
0.0
  0
SEQEND
  5
E9D
  8
LAYER_1
  0
POLYLINE
  5
74
  8
LAYER_1
 66
     1
 10
0.0
 20
0.0
 30
0.0
 70
     1
  0
VERTEX
  5
A33
  8
LAYER_1
 10
-62.8301050978053
 20
-38.58749855309725
 30
0.0
  0
VERTEX
  5
A34
  8
LAYER_1
 10
-62.94114904396588
 20
-38.94403324667542
 30
0.0
  0
VERTEX
  5
A35
  8
LAYER_1
 10
-61.76249947398901
 20
-38.05042630510602
 30
0.0
  0
VERTEX
  5
A36
  8
LAYER_1
 10
-61.51434148286056
 20
-37.91249852627516
 30
0.0
  0
VERTEX
  5
A37
  8
LAYER_1
 10
-60.1124994084239
 20
-36.83137069424735
 30
0.0
  0
VERTEX
  5
A38
  8
LAYER_1
 10
-56.51249926537275
 20
-34.15701205881091
 30
0.0
  0
VERTEX
  5
A39
  8
LAYER_1
 10
-56.04800578869067
 20
-33.83116633521982
 30
0.0
  0
VERTEX
  5
A3A
  8
LAYER_1
 10
-55.23025248530845
 20
-34.43024682052523
 30
0.0
  0
VERTEX
  5
A3B
  8
LAYER_1
 10
-54.00144323908142
 20
-35.34591287134942
 30
0.0
  0
VERTEX
  5
A3C
  8
LAYER_1
 10
-53.5903872962366
 20
-35.66249843686819
 30
0.0
  0
VERTEX
  5
A3D
  8
LAYER_1
 10
-52.53169125548841
 20
-36.44999846816063
 30
0.0
  0
VERTEX
  5
A3E
  8
LAYER_1
 10
-50.3702493042197
 20
-38.06249853223562
 30
0.0
  0
VERTEX
  5
A3F
  8
LAYER_1
 10
-49.26750339369917
 20
-38.88749856501818
 30
0.0
  0
VERTEX
  5
A40
  8
LAYER_1
 10
-49.12404591708046
 20
-38.93781625191814
 30
0.0
  0
VERTEX
  5
A41
  8
LAYER_1
 10
-49.55615484022907
 20
-37.76249852031469
 30
0.0
  0
VERTEX
  5
A42
  8
LAYER_1
 10
-51.01698083036617
 20
-33.33749834448099
 30
0.0
  0
VERTEX
  5
A43
  8
LAYER_1
 10
-51.21980696104558
 20
-32.8874983265996
 30
0.0
  0
VERTEX
  5
A44
  8
LAYER_1
 10
-51.90952428890112
 20
-30.81099963487535
 30
0.0
  0
VERTEX
  5
A45
  8
LAYER_1
 10
-51.77351168027939
 20
-30.70548476121925
 30
0.0
  0
VERTEX
  5
A46
  8
LAYER_1
 10
-51.60034339737624
 20
-30.58256168138319
 30
0.0
  0
VERTEX
  5
A47
  8
LAYER_1
 10
-51.37499906122684
 20
-30.43519303542212
 30
0.0
  0
VERTEX
  5
A48
  8
LAYER_1
 10
-51.17859280342236
 20
-30.30482172656342
 30
0.0
  0
VERTEX
  5
A49
  8
LAYER_1
 10
-51.07499904930592
 20
-30.22276458486712
 30
0.0
  0
VERTEX
  5
A4A
  8
LAYER_1
 10
-51.0374990478158
 20
-30.17511298645314
 30
0.0
  0
VERTEX
  5
A4B
  8
LAYER_1
 10
-50.13749901205301
 20
-29.54973278907399
 30
0.0
  0
VERTEX
  5
A4C
  8
LAYER_1
 10
-49.34765523066744
 20
-28.99429690376778
 30
0.0
  0
VERTEX
  5
A4D
  8
LAYER_1
 10
-48.7124989554286
 20
-28.53708069073416
 30
0.0
  0
VERTEX
  5
A4E
  8
LAYER_1
 10
-48.23156143631786
 20
-28.18874467275539
 30
0.0
  0
VERTEX
  5
A4F
  8
LAYER_1
 10
-47.81249891966581
 20
-27.89508457555973
 30
0.0
  0
VERTEX
  5
A50
  8
LAYER_1
 10
-46.79999887943268
 20
-27.19243327404197
 30
0.0
  0
VERTEX
  5
A51
  8
LAYER_1
 10
-46.1624988541007
 20
-26.74450618673799
 30
0.0
  0
VERTEX
  5
A52
  8
LAYER_1
 10
-46.08749885112047
 20
-26.65384992486624
 30
0.0
  0
VERTEX
  5
A53
  8
LAYER_1
 10
-44.99404946848075
 20
-25.92604809153461
 30
0.0
  0
VERTEX
  5
A54
  8
LAYER_1
 10
-44.90429915145339
 20
-25.78082902808326
 30
0.0
  0
VERTEX
  5
A55
  8
LAYER_1
 10
-47.06249888986349
 20
-25.87077825780241
 30
0.0
  0
VERTEX
  5
A56
  8
LAYER_1
 10
-53.49971399204077
 20
-25.912498049438
 30
0.0
  0
VERTEX
  5
A57
  8
LAYER_1
 10
-53.68884605825697
 20
-25.31249802559614
 30
0.0
  0
VERTEX
  5
A58
  8
LAYER_1
 10
-54.03594480458496
 20
-24.14999797940254
 30
0.0
  0
VERTEX
  5
A59
  8
LAYER_1
 10
-54.35531283925442
 20
-23.10866981302388
 30
0.0
  0
VERTEX
  5
A5A
  8
LAYER_1
 10
-54.63573987457362
 20
-22.23749790340662
 30
0.0
  0
VERTEX
  5
A5B
  8
LAYER_1
 10
-54.8907072500139
 20
-21.45445099729113
 30
0.0
  0
VERTEX
  5
A5C
  8
LAYER_1
 10
-55.14886376199576
 20
-20.62499783933163
 30
0.0
  0
VERTEX
  5
A5D
  8
LAYER_1
 10
-55.69268180539179
 20
-18.82499776780605
 30
0.0
  0
VERTEX
  5
A5E
  8
LAYER_1
 10
-55.97607228502635
 20
-17.88749773055315
 30
0.0
  0
VERTEX
  5
A5F
  8
LAYER_1
 10
-56.03803576700392
 20
-17.81624772772208
 30
0.0
  0
VERTEX
  5
A60
  8
LAYER_1
 10
-56.06293019850185
 20
-17.79766185727685
 30
0.0
  0
VERTEX
  5
A61
  8
LAYER_1
 10
-56.08253985238287
 20
-17.80308874950343
 30
0.0
  0
VERTEX
  5
A62
  8
LAYER_1
 10
-56.0953883340688
 20
-17.83101146042427
 30
0.0
  0
VERTEX
  5
A63
  8
LAYER_1
 10
-56.09999924898148
 20
-17.87991304606182
 30
0.0
  0
VERTEX
  5
A64
  8
LAYER_1
 10
-56.10862081877629
 20
-17.95094642002557
 30
0.0
  0
VERTEX
  5
A65
  8
LAYER_1
 10
-56.13209538999978
 20
-18.04462030787818
 30
0.0
  0
VERTEX
  5
A66
  8
LAYER_1
 10
-56.16683775541055
 20
-18.14875306851062
 30
0.0
  0
VERTEX
  5
A67
  8
LAYER_1
 10
-56.20926270776719
 20
-18.25116306081382
 30
0.0
  0
VERTEX
  5
A68
  8
LAYER_1
 10
-56.31852616655292
 20
-18.48749775439501
 30
0.0
  0
VERTEX
  5
A69
  8
LAYER_1
 10
-57.84004517265194
 20
-23.51249795407057
 30
0.0
  0
VERTEX
  5
A6A
  8
LAYER_1
 10
-58.57499934732914
 20
-25.73019181062924
 30
0.0
  0
VERTEX
  5
A6B
  8
LAYER_1
 10
-58.57499934732914
 20
-25.94798375570888
 30
0.0
  0
VERTEX
  5
A6C
  8
LAYER_1
 10
-63.48749954253435
 20
-25.87402855874748
 30
0.0
  0
VERTEX
  5
A6D
  8
LAYER_1
 10
-67.23749969154596
 20
-25.80601263313758
 30
0.0
  0
VERTEX
  5
A6E
  8
LAYER_1
 10
-66.90597003858883
 20
-26.06249805539846
 30
0.0
  0
VERTEX
  5
A6F
  8
LAYER_1
 10
-66.09673482632438
 20
-26.6431517704793
 30
0.0
  0
VERTEX
  5
A70
  8
LAYER_1
 10
-64.49999958276749
 20
-27.77252528257986
 30
0.0
  0
VERTEX
  5
A71
  8
LAYER_1
 10
-62.54999950528145
 20
-29.13689588688761
 30
0.0
  0
VERTEX
  5
A72
  8
LAYER_1
 10
-61.38749945908785
 20
-29.95254669417564
 30
0.0
  0
VERTEX
  5
A73
  8
LAYER_1
 10
-60.26249941438437
 20
-30.78313894171752
 30
0.0
  0
VERTEX
  5
A74
  8
LAYER_1
 10
-60.21165012081499
 20
-30.81334753572894
 30
0.0
  0
VERTEX
  5
A75
  8
LAYER_1
 10
-61.2758563060268
 20
-34.01249837130308
 30
0.0
  0
SEQEND
  5
E9E
  8
LAYER_1
  0
POLYLINE
  5
75
  8
LAYER_1
 66
     1
 10
0.0
 20
0.0
 30
0.0
 70
     1
  0
VERTEX
  5
A76
  8
LAYER_1
 10
-10.7999974489212
 20
-12.39956405384626
 30
0.0
  0
VERTEX
  5
A77
  8
LAYER_1
 10
-10.54511462629307
 20
-12.64355055136593
 30
0.0
  0
VERTEX
  5
A78
  8
LAYER_1
 10
-10.45471911488858
 20
-12.71848876831317
 30
0.0
  0
VERTEX
  5
A79
  8
LAYER_1
 10
-10.40624743327498
 20
-12.74686265045057
 30
0.0
  0
VERTEX
  5
A7A
  8
LAYER_1
 10
-10.3815769524728
 20
-12.74659821820834
 30
0.0
  0
VERTEX
  5
A7B
  8
LAYER_1
 10
-10.36481279342942
 20
-12.74011330037944
 30
0.0
  0
VERTEX
  5
A7C
  8
LAYER_1
 10
-10.35646990867302
 20
-12.72362744976157
 30
0.0
  0
VERTEX
  5
A7D
  8
LAYER_1
 10
-10.3570632507318
 20
-12.69336021915244
 30
0.0
  0
VERTEX
  5
A7E
  8
LAYER_1
 10
-10.3871184254076
 20
-12.57635982915111
 30
0.0
  0
VERTEX
  5
A7F
  8
LAYER_1
 10
-10.45909793768226
 20
-12.35886855275702
 30
0.0
  0
VERTEX
  5
A80
  8
LAYER_1
 10
-10.56819844432471
 20
-12.03749749809504
 30
0.0
  0
VERTEX
  5
A81
  8
LAYER_1
 10
-11.08836442783213
 20
-9.787497408688068
 30
0.0
  0
VERTEX
  5
A82
  8
LAYER_1
 10
-12.15990792411244
 20
-5.13749722391367
 30
0.0
  0
VERTEX
  5
A83
  8
LAYER_1
 10
-12.26095618249581
 20
-4.835261268308315
 30
0.0
  0
VERTEX
  5
A84
  8
LAYER_1
 10
-12.34633999985019
 20
-4.54535455505528
 30
0.0
  0
VERTEX
  5
A85
  8
LAYER_1
 10
-12.40972694256813
 20
-4.272761245956573
 30
0.0
  0
VERTEX
  5
A86
  8
LAYER_1
 10
-12.42883957739882
 20
-4.123276268181127
 30
0.0
  0
VERTEX
  5
A87
  8
LAYER_1
 10
-12.42274246572898
 20
-4.06919359219587
 30
0.0
  0
VERTEX
  5
A88
  8
LAYER_1
 10
-12.40229685626031
 20
-4.022871419161101
 30
0.0
  0
VERTEX
  5
A89
  8
LAYER_1
 10
-12.36456809018629
 20
-3.979800219838456
 30
0.0
  0
VERTEX
  5
A8A
  8
LAYER_1
 10
-12.3066215087004
 20
-3.935470464989569
 30
0.0
  0
VERTEX
  5
A8B
  8
LAYER_1
 10
-12.11833626426693
 20
-3.824997171759605
 30
0.0
  0
VERTEX
  5
A8C
  8
LAYER_1
 10
-11.12086025989345
 20
-3.253735439222808
 30
0.0
  0
VERTEX
  5
A8D
  8
LAYER_1
 10
-9.689903012090397
 20
-2.428735406440254
 30
0.0
  0
VERTEX
  5
A8E
  8
LAYER_1
 10
-8.227402953975869
 20
-1.588168850463219
 30
0.0
  0
VERTEX
  5
A8F
  8
LAYER_1
 10
-7.049997299909592
 20
-0.9232854604855589
 30
0.0
  0
VERTEX
  5
A90
  8
LAYER_1
 10
-6.309736514970737
 20
-0.509491834075174
 30
0.0
  0
VERTEX
  5
A91
  8
LAYER_1
 10
-5.662497244775295
 20
-0.1164813180464108
 30
0.0
  0
VERTEX
  5
A92
  8
LAYER_1
 10
-5.313945116442929
 20
0.0928885765319798
 30
0.0
  0
VERTEX
  5
A93
  8
LAYER_1
 10
-5.00253257350505
 20
0.2657094523488865
 30
0.0
  0
VERTEX
  5
A94
  8
LAYER_1
 10
-4.717567917135966
 20
0.4125029966235161
 30
0.0
  0
VERTEX
  5
A95
  8
LAYER_1
 10
-5.362497232854366
 20
0.5122435866602189
 30
0.0
  0
VERTEX
  5
A96
  8
LAYER_1
 10
-13.53749755769968
 20
1.146915480072479
 30
0.0
  0
VERTEX
  5
A97
  8
LAYER_1
 10
-13.59557499565337
 20
1.19558046338642
 30
0.0
  0
VERTEX
  5
A98
  8
LAYER_1
 10
-14.03085452531439
 20
3.187503106892109
 30
0.0
  0
VERTEX
  5
A99
  8
LAYER_1
 10
-15.12793363362343
 20
8.437503315508366
 30
0.0
  0
VERTEX
  5
A9A
  8
LAYER_1
 10
-15.40713607704956
 20
9.825003370642662
 30
0.0
  0
VERTEX
  5
A9B
  8
LAYER_1
 10
-15.44731685611764
 20
9.824418223219268
 30
0.0
  0
VERTEX
  5
A9C
  8
LAYER_1
 10
-15.47073212171599
 20
9.807962778525974
 30
0.0
  0
VERTEX
  5
A9D
  8
LAYER_1
 10
-15.50478361302664
 20
9.763590909999657
 30
0.0
  0
VERTEX
  5
A9E
  8
LAYER_1
 10
-15.58652429626544
 20
9.61816821502363
 30
0.0
  0
VERTEX
  5
A9F
  8
LAYER_1
 10
-15.68555095734515
 20
9.412503354251385
 30
0.0
  0
VERTEX
  5
AA0
  8
LAYER_1
 10
-16.08445777567978
 20
8.437503315508366
 30
0.0
  0
VERTEX
  5
AA1
  8
LAYER_1
 10
-16.91154290868665
 20
6.412503235042095
 30
0.0
  0
VERTEX
  5
AA2
  8
LAYER_1
 10
-17.33972122335889
 20
5.362503193318844
 30
0.0
  0
VERTEX
  5
AA3
  8
LAYER_1
 10
-17.4501205733628
 20
5.212503187358379
 30
0.0
  0
VERTEX
  5
AA4
  8
LAYER_1
 10
-18.86249776929617
 20
1.726973381535544
 30
0.0
  0
VERTEX
  5
AA5
  8
LAYER_1
 10
-19.28421653762475
 20
1.72500304877758
 30
0.0
  0
VERTEX
  5
AA6
  8
LAYER_1
 10
-27.03749809414148
 20
2.54426566751286
 30
0.0
  0
VERTEX
  5
AA7
  8
LAYER_1
 10
-27.78749812394381
 20
2.627032975452778
 30
0.0
  0
VERTEX
  5
AA8
  8
LAYER_1
 10
-27.52499811351299
 20
2.389947658471542
 30
0.0
  0
VERTEX
  5
AA9
  8
LAYER_1
 10
-26.76518401011712
 20
1.719074253051062
 30
0.0
  0
VERTEX
  5
AAA
  8
LAYER_1
 10
-25.53749803453684
 20
0.6571056099630397
 30
0.0
  0
VERTEX
  5
AAB
  8
LAYER_1
 10
-24.71249800175428
 20
-0.0527632754844376
 30
0.0
  0
VERTEX
  5
AAC
  8
LAYER_1
 10
-24.26249798387289
 20
-0.4382593654575686
 30
0.0
  0
VERTEX
  5
AAD
  8
LAYER_1
 10
-23.5874979570508
 20
-1.011266486408871
 30
0.0
  0
VERTEX
  5
AAE
  8
LAYER_1
 10
-22.20375264636042
 20
-2.198385369443315
 30
0.0
  0
VERTEX
  5
AAF
  8
LAYER_1
 10
-21.49500736249213
 20
-2.81249713152647
 30
0.0
  0
VERTEX
  5
AB0
  8
LAYER_1
 10
-21.04776058293596
 20
-3.203523045504269
 30
0.0
  0
VERTEX
  5
AB1
  8
LAYER_1
 10
-21.27917010749555
 20
-3.758010118317685
 30
0.0
  0
VERTEX
  5
AB2
  8
LAYER_1
 10
-21.62199837075416
 20
-4.561674634188527
 30
0.0
  0
VERTEX
  5
AB3
  8
LAYER_1
 10
-22.02198185005346
 20
-5.473384066611763
 30
0.0
  0
VERTEX
  5
AB4
  8
LAYER_1
 10
-22.40883927310426
 20
-6.334764573498473
 30
0.0
  0
VERTEX
  5
AB5
  8
LAYER_1
 10
-22.71228936761734
 20
-6.98744231275974
 30
0.0
  0
VERTEX
  5
AB6
  8
LAYER_1
 10
-23.01289916214759
 20
-7.612497322261333
 30
0.0
  0
VERTEX
  5
AB7
  8
LAYER_1
 10
-24.36281561471036
 20
-10.68749744445086
 30
0.0
  0
VERTEX
  5
AB8
  8
LAYER_1
 10
-24.51295846400959
 20
-10.98749745637178
 30
0.0
  0
VERTEX
  5
AB9
  8
LAYER_1
 10
-24.56728700195272
 20
-11.10543535730836
 30
0.0
  0
VERTEX
  5
ABA
  8
LAYER_1
 10
-24.60422073906715
 20
-11.20478359362034
 30
0.0
  0
VERTEX
  5
ABB
  8
LAYER_1
 10
-24.62048363628823
 20
-11.27509398031329
 30
0.0
  0
VERTEX
  5
ABC
  8
LAYER_1
 10
-24.61983975773106
 20
-11.29609492224187
 30
0.0
  0
VERTEX
  5
ABD
  8
LAYER_1
 10
-24.61279965455132
 20
-11.30591833239279
 30
0.0
  0
VERTEX
  5
ABE
  8
LAYER_1
 10
-24.56071963419351
 20
-11.29271027889655
 30
0.0
  0
VERTEX
  5
ABF
  8
LAYER_1
 10
-24.4561022282389
 20
-11.24313045238828
 30
0.0
  0
VERTEX
  5
AC0
  8
LAYER_1
 10
-24.14999797940254
 20
-11.06630476151351
 30
0.0
  0
VERTEX
  5
AC1
  8
LAYER_1
 10
-23.73749796301126
 20
-10.80827032653417
 30
0.0
  0
VERTEX
  5
AC2
  8
LAYER_1
 10
-21.19265541835661
 20
-9.262497387826443
 30
0.0
  0
VERTEX
  5
AC3
  8
LAYER_1
 10
-21.04380934432969
 20
-9.20210121487851
 30
0.0
  0
VERTEX
  5
AC4
  8
LAYER_1
 10
-20.51565357916467
 20
-8.850818905292272
 30
0.0
  0
VERTEX
  5
AC5
  8
LAYER_1
 10
-19.85623730863612
 20
-8.431970840283018
 30
0.0
  0
VERTEX
  5
AC6
  8
LAYER_1
 10
-19.01249777525663
 20
-7.918243203828681
 30
0.0
  0
VERTEX
  5
AC7
  8
LAYER_1
 10
-18.03749773651361
 20
-7.336949811951342
 30
0.0
  0
VERTEX
  5
AC8
  8
LAYER_1
 10
-17.58749771863222
 20
-7.04807411400148
 30
0.0
  0
VERTEX
  5
AC9
  8
LAYER_1
 10
-17.2472488197478
 20
-6.842704236640142
 30
0.0
  0
VERTEX
  5
ACA
  8
LAYER_1
 10
-17.12628293370911
 20
-6.779178262814343
 30
0.0
  0
VERTEX
  5
ACB
  8
LAYER_1
 10
-17.06111851349741
 20
-6.75459785202014
 30
0.0
  0
VERTEX
  5
ACC
  8
LAYER_1
 10
-17.00198088852994
 20
-6.781620654009043
 30
0.0
  0
VERTEX
  5
ACD
  8
LAYER_1
 10
-16.89742459350273
 20
-6.858598477364961
 30
0.0
  0
VERTEX
  5
ACE
  8
LAYER_1
 10
-16.76221525400251
 20
-6.973702250182766
 30
0.0
  0
VERTEX
  5
ACF
  8
LAYER_1
 10
-16.61111849561602
 20
-7.115102900557332
 30
0.0
  0
VERTEX
  5
AD0
  8
LAYER_1
 10
-16.2370925296078
 20
-7.466832005890666
 30
0.0
  0
VERTEX
  5
AD1
  8
LAYER_1
 10
-15.86249765008688
 20
-7.799777079787148
 30
0.0
  0
VERTEX
  5
AD2
  8
LAYER_1
 10
-15.38835700624622
 20
-8.218107152571841
 30
0.0
  0
VERTEX
  5
AD3
  8
LAYER_1
 10
-14.77499760687351
 20
-8.775123595657703
 30
0.0
  0
VERTEX
  5
AD4
  8
LAYER_1
 10
-13.10222254137475
 20
-10.30494198162732
 30
0.0
  0
VERTEX
  5
AD5
  8
LAYER_1
 10
-11.84999749064445
 20
-11.42690161188584
 30
0.0
  0
VERTEX
  5
AD6
  8
LAYER_1
 10
-11.24765371670946
 20
-11.97187692675322
 30
0.0
  0
SEQEND
  5
E9F
  8
LAYER_1
  0
POLYLINE
  5
76
  8
LAYER_1
 66
     1
 10
0.0
 20
0.0
 30
0.0
 70
     1
  0
VERTEX
  5
AD7
  8
LAYER_1
 10
-57.89427370603538
 20
-10.23749742656946
 30
0.0
  0
VERTEX
  5
AD8
  8
LAYER_1
 10
-57.89713651327121
 20
-10.30845993816475
 30
0.0
  0
VERTEX
  5
AD9
  8
LAYER_1
 10
-57.89273661507393
 20
-10.31807190269516
 30
0.0
  0
VERTEX
  5
ADA
  8
LAYER_1
 10
-57.87901468844149
 20
-10.31806373840913
 30
0.0
  0
VERTEX
  5
ADB
  8
LAYER_1
 10
-57.82755680553633
 20
-10.29175489232225
 30
0.0
  0
VERTEX
  5
ADC
  8
LAYER_1
 10
-57.75066697588614
 20
-10.23466913777318
 30
0.0
  0
VERTEX
  5
ADD
  8
LAYER_1
 10
-57.65624931082129
 20
-10.151942212631
 30
0.0
  0
VERTEX
  5
ADE
  8
LAYER_1
 10
-57.41249930113554
 20
-9.92446197550197
 30
0.0
  0
VERTEX
  5
ADF
  8
LAYER_1
 10
-56.24999925494194
 20
-8.890563032413311
 30
0.0
  0
VERTEX
  5
AE0
  8
LAYER_1
 10
-54.14999917149544
 20
-7.013089981125447
 30
0.0
  0
VERTEX
  5
AE1
  8
LAYER_1
 10
-53.21249913424253
 20
-6.16951587292624
 30
0.0
  0
VERTEX
  5
AE2
  8
LAYER_1
 10
-52.94999912381172
 20
-5.956998499227922
 30
0.0
  0
VERTEX
  5
AE3
  8
LAYER_1
 10
-52.6324209861923
 20
-5.681254883602902
 30
0.0
  0
VERTEX
  5
AE4
  8
LAYER_1
 10
-52.23749909549952
 20
-5.316725481442532
 30
0.0
  0
VERTEX
  5
AE5
  8
LAYER_1
 10
-51.74303560585287
 20
-4.863859885265514
 30
0.0
  0
VERTEX
  5
AE6
  8
LAYER_1
 10
-51.18613404947205
 20
-4.375733505302591
 30
0.0
  0
VERTEX
  5
AE7
  8
LAYER_1
 10
-50.62963346310559
 20
-3.889458108635218
 30
0.0
  0
VERTEX
  5
AE8
  8
LAYER_1
 10
-50.13613400774879
 20
-3.441042748892158
 30
0.0
  0
VERTEX
  5
AE9
  8
LAYER_1
 10
-49.68219875632181
 20
-3.024849039214795
 30
0.0
  0
VERTEX
  5
AEA
  8
LAYER_1
 10
-49.22082061770145
 20
-2.616042716109604
 30
0.0
  0
VERTEX
  5
AEB
  8
LAYER_1
 10
-48.75414224123128
 20
-2.212497107684612
 30
0.0
  0
VERTEX
  5
AEC
  8
LAYER_1
 10
-47.87082056405727
 20
-1.429950235501124
 30
0.0
  0
VERTEX
  5
AED
  8
LAYER_1
 10
-47.10930100064589
 20
-0.7473315620485312
 30
0.0
  0
VERTEX
  5
AEE
  8
LAYER_1
 10
-46.51882270336928
 20
-0.2050375931967778
 30
0.0
  0
VERTEX
  5
AEF
  8
LAYER_1
 10
-46.0501465198553
 20
0.2373281769240663
 30
0.0
  0
VERTEX
  5
AF0
  8
LAYER_1
 10
-45.76882267356696
 20
0.0675298110443663
 30
0.0
  0
VERTEX
  5
AF1
  8
LAYER_1
 10
-45.18749881535769
 20
-0.3021317518764306
 30
0.0
  0
VERTEX
  5
AF2
  8
LAYER_1
 10
-44.88749880343676
 20
-0.5019949489175275
 30
0.0
  0
VERTEX
  5
AF3
  8
LAYER_1
 10
-42.56249871104956
 20
-1.905785229760255
 30
0.0
  0
VERTEX
  5
AF4
  8
LAYER_1
 10
-42.41249870508909
 20
-2.030667081233105
 30
0.0
  0
VERTEX
  5
AF5
  8
LAYER_1
 10
-40.08749861270189
 20
-3.446448004732275
 30
0.0
  0
VERTEX
  5
AF6
  8
LAYER_1
 10
-38.88749856501818
 20
-4.208011434815617
 30
0.0
  0
VERTEX
  5
AF7
  8
LAYER_1
 10
-35.43749842792749
 20
-6.348549064512113
 30
0.0
  0
VERTEX
  5
AF8
  8
LAYER_1
 10
-35.06249841302633
 20
-6.562678477039512
 30
0.0
  0
VERTEX
  5
AF9
  8
LAYER_1
 10
-34.60499852806318
 20
-6.842157072782829
 30
0.0
  0
VERTEX
  5
AFA
  8
LAYER_1
 10
-34.03164776173638
 20
-7.213402606659173
 30
0.0
  0
VERTEX
  5
AFB
  8
LAYER_1
 10
-33.37579712534759
 20
-7.64999732375145
 30
0.0
  0
VERTEX
  5
AFC
  8
LAYER_1
 10
-33.33935403894533
 20
-7.64999732375145
 30
0.0
  0
VERTEX
  5
AFD
  8
LAYER_1
 10
-33.19201643983081
 20
-7.727783692154784
 30
0.0
  0
VERTEX
  5
AFE
  8
LAYER_1
 10
-32.88895463137569
 20
-7.914801982145775
 30
0.0
  0
VERTEX
  5
AFF
  8
LAYER_1
 10
-32.59659797955123
 20
-8.090428592890548
 30
0.0
  0
VERTEX
  5
B00
  8
LAYER_1
 10
-32.50766205117543
 20
-8.134989331873799
 30
0.0
  0
VERTEX
  5
B01
  8
LAYER_1
 10
-32.48344722340403
 20
-8.143211872498828
 30
0.0
  0
VERTEX
  5
B02
  8
LAYER_1
 10
-32.47499831020832
 20
-8.140826455872102
 30
0.0
  0
VERTEX
  5
B03
  8
LAYER_1
 10
-32.47499831020832
 20
-8.102046271204074
 30
0.0
  0
VERTEX
  5
B04
  8
LAYER_1
 10
-33.38917006006928
 20
-5.962497256696224
 30
0.0
  0
VERTEX
  5
B05
  8
LAYER_1
 10
-33.50566901082186
 20
-5.81249725073576
 30
0.0
  0
VERTEX
  5
B06
  8
LAYER_1
 10
-35.19600705275921
 20
-1.837497092783451
 30
0.0
  0
VERTEX
  5
B07
  8
LAYER_1
 10
-35.30863718452256
 20
-1.687497086822987
 30
0.0
  0
VERTEX
  5
B08
  8
LAYER_1
 10
-36.47427077003204
 20
1.012503020465374
 30
0.0
  0
VERTEX
  5
B09
  8
LAYER_1
 10
-36.68049110542935
 20
1.500003039836884
 30
0.0
  0
VERTEX
  5
B0A
  8
LAYER_1
 10
-36.87117923543404
 20
1.934862862768936
 30
0.0
  0
VERTEX
  5
B0B
  8
LAYER_1
 10
-37.040056183398
 20
2.295802409849856
 30
0.0
  0
VERTEX
  5
B0C
  8
LAYER_1
 10
-37.19340092596933
 20
2.604101760491304
 30
0.0
  0
VERTEX
  5
B0D
  8
LAYER_1
 10
-38.56594255747293
 20
5.812503211200237
 30
0.0
  0
VERTEX
  5
B0E
  8
LAYER_1
 10
-38.8551706303634
 20
6.412503235042095
 30
0.0
  0
VERTEX
  5
B0F
  8
LAYER_1
 10
-38.49633458278963
 20
6.73918502610347
 30
0.0
  0
VERTEX
  5
B10
  8
LAYER_1
 10
-38.07983110487999
 20
7.105269399108431
 30
0.0
  0
VERTEX
  5
B11
  8
LAYER_1
 10
-37.58234783117953
 20
7.526685057395909
 30
0.0
  0
VERTEX
  5
B12
  8
LAYER_1
 10
-36.50752185159209
 20
8.437503315508366
 30
0.0
  0
VERTEX
  5
B13
  8
LAYER_1
 10
-35.44004359126872
 20
9.337503351271152
 30
0.0
  0
VERTEX
  5
B14
  8
LAYER_1
 10
-34.85785183985296
 20
9.823583842697063
 30
0.0
  0
VERTEX
  5
B15
  8
LAYER_1
 10
-34.22736947995909
 20
10.36033053101528
 30
0.0
  0
VERTEX
  5
B16
  8
LAYER_1
 10
-32.84999832510948
 20
11.53089561493607
 30
0.0
  0
VERTEX
  5
B17
  8
LAYER_1
 10
-32.13749829679728
 20
12.12863353699412
 30
0.0
  0
VERTEX
  5
B18
  8
LAYER_1
 10
-31.68749827891588
 20
12.52279517360945
 30
0.0
  0
VERTEX
  5
B19
  8
LAYER_1
 10
-30.03749821335077
 20
13.90481922443561
 30
0.0
  0
VERTEX
  5
B1A
  8
LAYER_1
 10
-29.96249821037054
 20
13.98970580256895
 30
0.0
  0
VERTEX
  5
B1B
  8
LAYER_1
 10
-29.02752275701793
 20
14.76863098009795
 30
0.0
  0
VERTEX
  5
B1C
  8
LAYER_1
 10
-27.43510335756772
 20
16.11261056411179
 30
0.0
  0
VERTEX
  5
B1D
  8
LAYER_1
 10
-26.7776594114701
 20
16.67766497059664
 30
0.0
  0
VERTEX
  5
B1E
  8
LAYER_1
 10
-26.83356294627764
 20
16.73356850540418
 30
0.0
  0
VERTEX
  5
B1F
  8
LAYER_1
 10
-38.43749854713678
 20
15.60196278104054
 30
0.0
  0
VERTEX
  5
B20
  8
LAYER_1
 10
-39.48749858886003
 20
15.44541125678322
 30
0.0
  0
VERTEX
  5
B21
  8
LAYER_1
 10
-42.54953220484033
 20
15.14953707652606
 30
0.0
  0
VERTEX
  5
B22
  8
LAYER_1
 10
-42.58323954700979
 20
15.18750358372927
 30
0.0
  0
VERTEX
  5
B23
  8
LAYER_1
 10
-43.96173598673965
 20
18.63750372081995
 30
0.0
  0
VERTEX
  5
B24
  8
LAYER_1
 10
-44.17350035056421
 20
19.08750373870134
 30
0.0
  0
VERTEX
  5
B25
  8
LAYER_1
 10
-45.04239253436982
 20
21.22500382363796
 30
0.0
  0
VERTEX
  5
B26
  8
LAYER_1
 10
-46.68198293825503
 20
25.2750039845705
 30
0.0
  0
VERTEX
  5
B27
  8
LAYER_1
 10
-47.45268115833466
 20
27.18750406056643
 30
0.0
  0
VERTEX
  5
B28
  8
LAYER_1
 10
-47.64114407188578
 20
27.6000040769577
 30
0.0
  0
VERTEX
  5
B29
  8
LAYER_1
 10
-47.88148571826653
 20
28.16051726774635
 30
0.0
  0
VERTEX
  5
B2A
  8
LAYER_1
 10
-48.19467835117399
 20
28.92887874598661
 30
0.0
  0
VERTEX
  5
B2B
  8
LAYER_1
 10
-48.55974971691109
 20
29.84525339862424
 30
0.0
  0
VERTEX
  5
B2C
  8
LAYER_1
 10
-48.6494761101138
 20
29.73750416189432
 30
0.0
  0
VERTEX
  5
B2D
  8
LAYER_1
 10
-49.06392302799416
 20
27.71250408142805
 30
0.0
  0
VERTEX
  5
B2E
  8
LAYER_1
 10
-49.27593136756606
 20
26.96250405162573
 30
0.0
  0
VERTEX
  5
B2F
  8
LAYER_1
 10
-50.92116180829029
 20
19.16250374168158
 30
0.0
  0
VERTEX
  5
B30
  8
LAYER_1
 10
-51.06674900496755
 20
18.71250372380018
 30
0.0
  0
VERTEX
  5
B31
  8
LAYER_1
 10
-51.97855167662324
 20
14.44145096267103
 30
0.0
  0
VERTEX
  5
B32
  8
LAYER_1
 10
-52.08749908953905
 20
14.34050229052173
 30
0.0
  0
VERTEX
  5
B33
  8
LAYER_1
 10
-55.76249923557043
 20
14.06467660566962
 30
0.0
  0
VERTEX
  5
B34
  8
LAYER_1
 10
-63.33749953657389
 20
13.496888240345
 30
0.0
  0
VERTEX
  5
B35
  8
LAYER_1
 10
-67.23749969154596
 20
13.20492555987249
 30
0.0
  0
VERTEX
  5
B36
  8
LAYER_1
 10
-67.51874970272183
 20
13.2024645323128
 30
0.0
  0
VERTEX
  5
B37
  8
LAYER_1
 10
-67.62795380862372
 20
13.19609192652769
 30
0.0
  0
VERTEX
  5
B38
  8
LAYER_1
 10
-67.7173825231148
 20
13.18056004414422
 30
0.0
  0
VERTEX
  5
B39
  8
LAYER_1
 10
-67.77780733020336
 20
13.15820226601508
 30
0.0
  0
VERTEX
  5
B3A
  8
LAYER_1
 10
-67.79425935722429
 20
13.14519284756235
 30
0.0
  0
VERTEX
  5
B3B
  8
LAYER_1
 10
-67.7999997138977
 20
13.13135197299295
 30
0.0
  0
VERTEX
  5
B3C
  8
LAYER_1
 10
-67.7999997138977
 20
13.06270044123281
 30
0.0
  0
VERTEX
  5
B3D
  8
LAYER_1
 10
-67.14374968782067
 20
12.69290437658678
 30
0.0
  0
VERTEX
  5
B3E
  8
LAYER_1
 10
-66.53706997621339
 20
12.34366822544814
 30
0.0
  0
VERTEX
  5
B3F
  8
LAYER_1
 10
-65.99999964237213
 20
12.02330344221343
 30
0.0
  0
VERTEX
  5
B40
  8
LAYER_1
 10
-65.54554649931379
 20
11.75071716686481
 30
0.0
  0
VERTEX
  5
B41
  8
LAYER_1
 10
-65.13749960809946
 20
11.51635274745222
 30
0.0
  0
VERTEX
  5
B42
  8
LAYER_1
 10
-64.7624995931983
 20
11.30920692241831
 30
0.0
  0
VERTEX
  5
B43
  8
LAYER_1
 10
-61.61249946802855
 20
9.467883974374345
 30
0.0
  0
VERTEX
  5
B44
  8
LAYER_1
 10
-60.11981453579426
 20
8.58750332146883
 30
0.0
  0
VERTEX
  5
B45
  8
LAYER_1
 10
-59.58749938756227
 20
8.273210665700049
 30
0.0
  0
VERTEX
  5
B46
  8
LAYER_1
 10
-57.71249931305647
 20
7.208197104247105
 30
0.0
  0
VERTEX
  5
B47
  8
LAYER_1
 10
-56.88749928027391
 20
6.69244881316807
 30
0.0
  0
VERTEX
  5
B48
  8
LAYER_1
 10
-54.55989642265827
 20
5.362503193318844
 30
0.0
  0
VERTEX
  5
B49
  8
LAYER_1
 10
-54.35494779707685
 20
5.256079711731701
 30
0.0
  0
VERTEX
  5
B4A
  8
LAYER_1
 10
-54.27548870846491
 20
5.20540104016021
 30
0.0
  0
VERTEX
  5
B4B
  8
LAYER_1
 10
-54.21064442518958
 20
5.146086272950686
 30
0.0
  0
VERTEX
  5
B4C
  8
LAYER_1
 10
-54.16709049693453
 20
5.085518222896495
 30
0.0
  0
VERTEX
  5
B4D
  8
LAYER_1
 10
-54.15150247338345
 20
5.031079702791004
 30
0.0
  0
VERTEX
  5
B4E
  8
LAYER_1
 10
-54.15300577527144
 20
4.91250317543745
 30
0.0
  0
VERTEX
  5
B4F
  8
LAYER_1
 10
-54.53141161568637
 20
3.487503118813038
 30
0.0
  0
VERTEX
  5
B50
  8
LAYER_1
 10
-55.39718128202895
 20
-0.0374970212578773
 30
0.0
  0
VERTEX
  5
B51
  8
LAYER_1
 10
-57.07861232720346
 20
-6.899997293949127
 30
0.0
  0
SEQEND
  5
EA0
  8
LAYER_1
  0
POLYLINE
  5
77
  8
LAYER_1
 66
     1
 10
0.0
 20
0.0
 30
0.0
 70
     1
  0
VERTEX
  5
B52
  8
LAYER_1
 10
-41.88749868422747
 20
28.90125147631355
 30
0.0
  0
VERTEX
  5
B53
  8
LAYER_1
 10
-41.13749865442514
 20
28.57620105575927
 30
0.0
  0
VERTEX
  5
B54
  8
LAYER_1
 10
-40.69245635984959
 20
28.65276257416879
 30
0.0
  0
VERTEX
  5
B55
  8
LAYER_1
 10
-38.85706188284405
 20
29.70000416040421
 30
0.0
  0
VERTEX
  5
B56
  8
LAYER_1
 10
-38.73749855905771
 20
29.70249511174076
 30
0.0
  0
VERTEX
  5
B57
  8
LAYER_1
 10
-37.9840486013703
 20
30.13249965320882
 30
0.0
  0
VERTEX
  5
B58
  8
LAYER_1
 10
-37.16876386547154
 20
30.57869421600309
 30
0.0
  0
VERTEX
  5
B59
  8
LAYER_1
 10
-36.23276957242015
 20
31.06127075841697
 30
0.0
  0
VERTEX
  5
B5A
  8
LAYER_1
 10
-35.30140224116991
 20
31.51723483294077
 30
0.0
  0
VERTEX
  5
B5B
  8
LAYER_1
 10
-34.87662134839328
 20
31.71555142989709
 30
0.0
  0
VERTEX
  5
B5C
  8
LAYER_1
 10
-34.49999839067459
 20
31.88359199206477
 30
0.0
  0
VERTEX
  5
B5D
  8
LAYER_1
 10
-33.78749836236238
 20
32.19187373694751
 30
0.0
  0
VERTEX
  5
B5E
  8
LAYER_1
 10
-31.23749826103449
 20
33.2796008001712
 30
0.0
  0
VERTEX
  5
B5F
  8
LAYER_1
 10
-26.66249807924032
 20
34.93077001395426
 30
0.0
  0
VERTEX
  5
B60
  8
LAYER_1
 10
-25.72499804198742
 20
35.23876445219798
 30
0.0
  0
VERTEX
  5
B61
  8
LAYER_1
 10
-24.66632612491958
 20
35.57644629949144
 30
0.0
  0
VERTEX
  5
B62
  8
LAYER_1
 10
-23.43749795109034
 20
35.95581684885468
 30
0.0
  0
VERTEX
  5
B63
  8
LAYER_1
 10
-22.08749789744616
 20
36.36487480726765
 30
0.0
  0
VERTEX
  5
B64
  8
LAYER_1
 10
-17.88749773055315
 20
37.66757400451615
 30
0.0
  0
VERTEX
  5
B65
  8
LAYER_1
 10
-16.8374976888299
 20
37.92832554242025
 30
0.0
  0
VERTEX
  5
B66
  8
LAYER_1
 10
-14.5124975964427
 20
38.6135951668721
 30
0.0
  0
VERTEX
  5
B67
  8
LAYER_1
 10
-10.98749745637178
 20
39.60101039387634
 30
0.0
  0
VERTEX
  5
B68
  8
LAYER_1
 10
-9.937497414648533
 20
39.82891265104961
 30
0.0
  0
VERTEX
  5
B69
  8
LAYER_1
 10
-7.838078171832322
 20
40.39515541859669
 30
0.0
  0
VERTEX
  5
B6A
  8
LAYER_1
 10
-7.787371003842111
 20
40.65845656683321
 30
0.0
  0
VERTEX
  5
B6B
  8
LAYER_1
 10
-8.825530021366006
 20
41.72298062364396
 30
0.0
  0
VERTEX
  5
B6C
  8
LAYER_1
 10
-9.805960358139027
 20
42.75081441548235
 30
0.0
  0
VERTEX
  5
B6D
  8
LAYER_1
 10
-10.70532488790016
 20
43.72712570757227
 30
0.0
  0
VERTEX
  5
B6E
  8
LAYER_1
 10
-11.54696073691043
 20
44.66674673468982
 30
0.0
  0
VERTEX
  5
B6F
  8
LAYER_1
 10
-11.7172291145225
 20
44.89518107085036
 30
0.0
  0
VERTEX
  5
B70
  8
LAYER_1
 10
-12.22028117955157
 20
45.51703361975279
 30
0.0
  0
VERTEX
  5
B71
  8
LAYER_1
 10
-12.50921171202047
 20
45.86104714642986
 30
0.0
  0
VERTEX
  5
B72
  8
LAYER_1
 10
-12.67602857241636
 20
46.05000481009483
 30
0.0
  0
VERTEX
  5
B73
  8
LAYER_1
 10
-13.02269436075527
 20
46.46250482648611
 30
0.0
  0
VERTEX
  5
B74
  8
LAYER_1
 10
-13.2391163551707
 20
46.72959168085105
 30
0.0
  0
VERTEX
  5
B75
  8
LAYER_1
 10
-13.52231087630534
 20
47.09243183908237
 30
0.0
  0
VERTEX
  5
B76
  8
LAYER_1
 10
-14.81833314224914
 20
48.79208093680192
 30
0.0
  0
VERTEX
  5
B77
  8
LAYER_1
 10
-15.53848630486671
 20
49.76595853796668
 30
0.0
  0
VERTEX
  5
B78
  8
LAYER_1
 10
-16.31385141910247
 20
50.8500050008297
 30
0.0
  0
VERTEX
  5
B79
  8
LAYER_1
 10
-17.12853413524818
 20
52.0125050470233
 30
0.0
  0
VERTEX
  5
B7A
  8
LAYER_1
 10
-17.92499773204327
 20
53.16069648038703
 30
0.0
  0
VERTEX
  5
B7B
  8
LAYER_1
 10
-17.92499773204327
 20
53.24753417286729
 30
0.0
  0
VERTEX
  5
B7C
  8
LAYER_1
 10
-19.46925960433809
 20
55.61250519007444
 30
0.0
  0
VERTEX
  5
B7D
  8
LAYER_1
 10
-19.92816769895863
 20
56.36250521987677
 30
0.0
  0
VERTEX
  5
B7E
  8
LAYER_1
 10
-20.93864071522731
 20
58.08750528842211
 30
0.0
  0
VERTEX
  5
B7F
  8
LAYER_1
 10
-21.38308242245043
 20
58.82122415768481
 30
0.0
  0
VERTEX
  5
B80
  8
LAYER_1
 10
-23.20399029131458
 20
62.13750544935465
 30
0.0
  0
VERTEX
  5
B81
  8
LAYER_1
 10
-25.82557631350186
 20
67.31250565499067
 30
0.0
  0
VERTEX
  5
B82
  8
LAYER_1
 10
-26.08293402585774
 20
67.91250567883253
 30
0.0
  0
VERTEX
  5
B83
  8
LAYER_1
 10
-26.30370520162855
 20
68.45742757548578
 30
0.0
  0
VERTEX
  5
B84
  8
LAYER_1
 10
-26.47309953879053
 20
68.92500571906567
 30
0.0
  0
VERTEX
  5
B85
  8
LAYER_1
 10
-26.60590733936742
 20
69.33750573545694
 30
0.0
  0
VERTEX
  5
B86
  8
LAYER_1
 10
-26.71201700838617
 20
72.262505851686
 30
0.0
  0
VERTEX
  5
B87
  8
LAYER_1
 10
-26.7684662388282
 20
72.32121454580732
 30
0.0
  0
VERTEX
  5
B88
  8
LAYER_1
 10
-26.80104228183524
 20
72.33992022431147
 30
0.0
  0
VERTEX
  5
B89
  8
LAYER_1
 10
-26.84801031311304
 20
72.34745214226993
 30
0.0
  0
VERTEX
  5
B8A
  8
LAYER_1
 10
-26.90308610871863
 20
72.34358463232697
 30
0.0
  0
VERTEX
  5
B8B
  8
LAYER_1
 10
-26.95998544470905
 20
72.32809202712673
 30
0.0
  0
VERTEX
  5
B8C
  8
LAYER_1
 10
-27.09505542014788
 20
72.27626081432481
 30
0.0
  0
VERTEX
  5
B8D
  8
LAYER_1
 10
-27.02251270854313
 20
69.76344198987144
 30
0.0
  0
VERTEX
  5
B8E
  8
LAYER_1
 10
-28.15500544604578
 20
69.38645645691852
 30
0.0
  0
VERTEX
  5
B8F
  8
LAYER_1
 10
-29.15940544574763
 20
69.06257588257506
 30
0.0
  0
VERTEX
  5
B90
  8
LAYER_1
 10
-30.11691331386881
 20
68.77379219339275
 30
0.0
  0
VERTEX
  5
B91
  8
LAYER_1
 10
-30.97659045629601
 20
68.53489706814642
 30
0.0
  0
VERTEX
  5
B92
  8
LAYER_1
 10
-31.68749827891588
 20
68.36068218561081
 30
0.0
  0
VERTEX
  5
B93
  8
LAYER_1
 10
-33.29999834299088
 20
67.98249294135945
 30
0.0
  0
VERTEX
  5
B94
  8
LAYER_1
 10
-34.4116390121635
 20
67.73058302988235
 30
0.0
  0
VERTEX
  5
B95
  8
LAYER_1
 10
-35.66249843686819
 20
67.46976320116667
 30
0.0
  0
VERTEX
  5
B96
  8
LAYER_1
 10
-37.01249849051237
 20
67.20259843138714
 30
0.0
  0
VERTEX
  5
B97
  8
LAYER_1
 10
-38.43749854713678
 20
66.97967750169374
 30
0.0
  0
VERTEX
  5
B98
  8
LAYER_1
 10
-40.23749861866236
 20
66.75596926211415
 30
0.0
  0
VERTEX
  5
B99
  8
LAYER_1
 10
-41.08139513657079
 20
66.65848098851161
 30
0.0
  0
VERTEX
  5
B9A
  8
LAYER_1
 10
-42.04851431562565
 20
66.55841505976821
 30
0.0
  0
VERTEX
  5
B9B
  8
LAYER_1
 10
-43.01950068233418
 20
66.46753086750044
 30
0.0
  0
VERTEX
  5
B9C
  8
LAYER_1
 10
-43.87499876320362
 20
66.39758780332485
 30
0.0
  0
VERTEX
  5
B9D
  8
LAYER_1
 10
-45.71249883621931
 20
66.26291458411512
 30
0.0
  0
VERTEX
  5
B9E
  8
LAYER_1
 10
-53.96249916404486
 20
66.26536392266846
 30
0.0
  0
VERTEX
  5
B9F
  8
LAYER_1
 10
-57.17926713849216
 20
66.5342415989004
 30
0.0
  0
VERTEX
  5
BA0
  8
LAYER_1
 10
-57.29999929666519
 20
66.60885817618649
 30
0.0
  0
VERTEX
  5
BA1
  8
LAYER_1
 10
-57.29999929666519
 20
69.23486694949185
 30
0.0
  0
VERTEX
  5
BA2
  8
LAYER_1
 10
-57.38725001130535
 20
69.39868634694474
 30
0.0
  0
VERTEX
  5
BA3
  8
LAYER_1
 10
-57.44190714146312
 20
69.4902466516056
 30
0.0
  0
VERTEX
  5
BA4
  8
LAYER_1
 10
-57.50096459754762
 20
69.56551130808108
 30
0.0
  0
VERTEX
  5
BA5
  8
LAYER_1
 10
-57.56705776250956
 20
69.6257790639394
 30
0.0
  0
VERTEX
  5
BA6
  8
LAYER_1
 10
-57.6428220192996
 20
69.67234866674886
 30
0.0
  0
VERTEX
  5
BA7
  8
LAYER_1
 10
-57.73089275086843
 20
69.70651886407768
 30
0.0
  0
VERTEX
  5
BA8
  8
LAYER_1
 10
-57.83390534016672
 20
69.72958840349412
 30
0.0
  0
VERTEX
  5
BA9
  8
LAYER_1
 10
-57.95449517014515
 20
69.74285603256641
 30
0.0
  0
VERTEX
  5
BAA
  8
LAYER_1
 10
-58.09529762375441
 20
69.74762049886283
 30
0.0
  0
VERTEX
  5
BAB
  8
LAYER_1
 10
-58.29234946883475
 20
69.74062362333216
 30
0.0
  0
VERTEX
  5
BAC
  8
LAYER_1
 10
-58.37137266888257
 20
69.72957981059739
 30
0.0
  0
VERTEX
  5
BAD
  8
LAYER_1
 10
-58.44089692735727
 20
69.712411745042
 30
0.0
  0
VERTEX
  5
BAE
  8
LAYER_1
 10
-58.50354939932517
 20
69.6882989245353
 30
0.0
  0
VERTEX
  5
BAF
  8
LAYER_1
 10
-58.56195723985257
 20
69.65642084694655
 30
0.0
  0
VERTEX
  5
BB0
  8
LAYER_1
 10
-58.67654764685121
 20
69.56608691200003
 30
0.0
  0
VERTEX
  5
BB1
  8
LAYER_1
 10
-58.87499935925007
 20
69.38216807215181
 30
0.0
  0
VERTEX
  5
BB2
  8
LAYER_1
 10
-58.87499935925007
 20
64.1132344178254
 30
0.0
  0
VERTEX
  5
BB3
  8
LAYER_1
 10
-60.61281617222926
 20
59.81250535696745
 30
0.0
  0
VERTEX
  5
BB4
  8
LAYER_1
 10
-61.04091381729697
 20
58.7625053152442
 30
0.0
  0
VERTEX
  5
BB5
  8
LAYER_1
 10
-62.34151408640867
 20
55.91250520199537
 30
0.0
  0
VERTEX
  5
BB6
  8
LAYER_1
 10
-62.54771869139167
 20
55.42500518262386
 30
0.0
  0
VERTEX
  5
BB7
  8
LAYER_1
 10
-62.78223152927741
 20
54.90445828693919
 30
0.0
  0
VERTEX
  5
BB8
  8
LAYER_1
 10
-63.05649635379258
 20
54.3375051394105
 30
0.0
  0
VERTEX
  5
BB9
  8
LAYER_1
 10
-63.35906941121051
 20
53.73750511556864
 30
0.0
  0
VERTEX
  5
BBA
  8
LAYER_1
 10
-65.07640249805887
 20
50.51250498741865
 30
0.0
  0
VERTEX
  5
BBB
  8
LAYER_1
 10
-66.3967502522497
 20
48.41250490397215
 30
0.0
  0
VERTEX
  5
BBC
  8
LAYER_1
 10
-67.14789877578396
 20
47.28750485926867
 30
0.0
  0
VERTEX
  5
BBD
  8
LAYER_1
 10
-68.10402399560687
 20
46.01250480860472
 30
0.0
  0
VERTEX
  5
BBE
  8
LAYER_1
 10
-68.54536365816921
 20
45.44051259837579
 30
0.0
  0
VERTEX
  5
BBF
  8
LAYER_1
 10
-69.04023205400698
 20
44.82562976144254
 30
0.0
  0
VERTEX
  5
BC0
  8
LAYER_1
 10
-69.52810825487718
 20
44.24168442573864
 30
0.0
  0
VERTEX
  5
BC1
  8
LAYER_1
 10
-69.94847133253678
 20
43.76250471919775
 30
0.0
  0
VERTEX
  5
BC2
  8
LAYER_1
 10
-70.8367934496438
 20
42.78750468045473
 30
0.0
  0
VERTEX
  5
BC3
  8
LAYER_1
 10
-71.66424224589343
 20
41.96250464767218
 30
0.0
  0
VERTEX
  5
BC4
  8
LAYER_1
 10
-73.58078879575281
 20
40.17987113327825
 30
0.0
  0
VERTEX
  5
BC5
  8
LAYER_1
 10
-73.52858240879107
 20
40.02325197239304
 30
0.0
  0
VERTEX
  5
BC6
  8
LAYER_1
 10
-71.7374998703599
 20
39.48142445962823
 30
0.0
  0
VERTEX
  5
BC7
  8
LAYER_1
 10
-67.76249971240759
 20
38.07512782692221
 30
0.0
  0
VERTEX
  5
BC8
  8
LAYER_1
 10
-67.64999970793724
 20
37.98358863652945
 30
0.0
  0
VERTEX
  5
BC9
  8
LAYER_1
 10
-67.56785126717295
 20
37.93194774645148
 30
0.0
  0
VERTEX
  5
BCA
  8
LAYER_1
 10
-67.42734344908968
 20
37.85901012299857
 30
0.0
  0
VERTEX
  5
BCB
  8
LAYER_1
 10
-67.04999968409538
 20
37.68803596420985
 30
0.0
  0
VERTEX
  5
BCC
  8
LAYER_1
 10
-66.56249966472387
 20
37.48402248228297
 30
0.0
  0
VERTEX
  5
BCD
  8
LAYER_1
 10
-65.29411370709583
 20
36.99913138682987
 30
0.0
  0
VERTEX
  5
BCE
  8
LAYER_1
 10
-64.72759744575417
 20
36.79056905369538
 30
0.0
  0
VERTEX
  5
BCF
  8
LAYER_1
 10
-64.12273501696652
 20
36.58114865569814
 30
0.0
  0
VERTEX
  5
BD0
  8
LAYER_1
 10
-63.55192833102417
 20
36.39521736432438
 30
0.0
  0
VERTEX
  5
BD1
  8
LAYER_1
 10
-63.08757929821842
 20
36.25712235106026
 30
0.0
  0
VERTEX
  5
BD2
  8
LAYER_1
 10
-62.14943084696904
 20
36.00000441074371
 30
0.0
  0
VERTEX
  5
BD3
  8
LAYER_1
 10
-61.73402573032972
 20
36.00000441074371
 30
0.0
  0
VERTEX
  5
BD4
  8
LAYER_1
 10
-59.36249937862158
 20
35.18926010787294
 30
0.0
  0
VERTEX
  5
BD5
  8
LAYER_1
 10
-59.0010373902623
 20
35.06080618221149
 30
0.0
  0
VERTEX
  5
BD6
  8
LAYER_1
 10
-58.83913765589303
 20
34.9937727686121
 30
0.0
  0
VERTEX
  5
BD7
  8
LAYER_1
 10
-58.7136419905879
 20
34.92075638624605
 30
0.0
  0
VERTEX
  5
BD8
  8
LAYER_1
 10
-58.6248782036221
 20
34.84198925843854
 30
0.0
  0
VERTEX
  5
BD9
  8
LAYER_1
 10
-58.59437320491493
 20
34.80052173478333
 30
0.0
  0
VERTEX
  5
BDA
  8
LAYER_1
 10
-58.57317410427079
 20
34.75770360851469
 30
0.0
  0
VERTEX
  5
BDB
  8
LAYER_1
 10
-58.55219566088147
 20
34.71541424501866
 30
0.0
  0
VERTEX
  5
BDC
  8
LAYER_1
 10
-58.52273822395138
 20
34.67511714645656
 30
0.0
  0
VERTEX
  5
BDD
  8
LAYER_1
 10
-58.44224240974791
 20
34.60174665757101
 30
0.0
  0
VERTEX
  5
BDE
  8
LAYER_1
 10
-58.33939874221834
 20
34.54008596873182
 30
0.0
  0
VERTEX
  5
BDF
  8
LAYER_1
 10
-58.22191930192071
 20
34.49262890681274
 30
0.0
  0
VERTEX
  5
BE0
  8
LAYER_1
 10
-58.09751616941297
 20
34.46186929868755
 30
0.0
  0
VERTEX
  5
BE1
  8
LAYER_1
 10
-57.97390142525313
 20
34.45030097123004
 30
0.0
  0
VERTEX
  5
BE2
  8
LAYER_1
 10
-57.85878714999917
 20
34.46041775131395
 30
0.0
  0
VERTEX
  5
BE3
  8
LAYER_1
 10
-57.80682771338627
 20
34.474387377582
 30
0.0
  0
VERTEX
  5
BE4
  8
LAYER_1
 10
-57.75988542420907
 20
34.49471346581308
 30
0.0
  0
VERTEX
  5
BE5
  8
LAYER_1
 10
-57.70890653599255
 20
34.51690690019359
 30
0.0
  0
VERTEX
  5
BE6
  8
LAYER_1
 10
-57.65317276752421
 20
34.52945824893942
 30
0.0
  0
VERTEX
  5
BE7
  8
LAYER_1
 10
-57.58841907808649
 20
34.53163877794955
 30
0.0
  0
VERTEX
  5
BE8
  8
LAYER_1
 10
-57.51038042696186
 20
34.52271975312298
 30
0.0
  0
VERTEX
  5
BE9
  8
LAYER_1
 10
-57.29738807678163
 20
34.46866810555579
 30
0.0
  0
VERTEX
  5
BEA
  8
LAYER_1
 10
-56.98007539124311
 20
34.36147343342986
 30
0.0
  0
VERTEX
  5
BEB
  8
LAYER_1
 10
-55.6874992325902
 20
33.90172654857754
 30
0.0
  0
VERTEX
  5
BEC
  8
LAYER_1
 10
-55.36327070408151
 20
33.77743273417541
 30
0.0
  0
VERTEX
  5
BED
  8
LAYER_1
 10
-54.97945232945494
 20
33.6161896763525
 30
0.0
  0
VERTEX
  5
BEE
  8
LAYER_1
 10
-54.58403239186737
 20
33.43884859759613
 30
0.0
  0
VERTEX
  5
BEF
  8
LAYER_1
 10
-54.22499917447567
 20
33.26626072039357
 30
0.0
  0
VERTEX
  5
BF0
  8
LAYER_1
 10
-53.43749914318323
 20
32.87047679571506
 30
0.0
  0
VERTEX
  5
BF1
  8
LAYER_1
 10
-50.51249902695417
 20
31.88043862395864
 30
0.0
  0
VERTEX
  5
BF2
  8
LAYER_1
 10
-49.76249899715185
 20
31.67992515776567
 30
0.0
  0
VERTEX
  5
BF3
  8
LAYER_1
 10
-49.15570209803991
 20
31.52186875541123
 30
0.0
  0
VERTEX
  5
BF4
  8
LAYER_1
 10
-48.74999895691872
 20
31.42343291078757
 30
0.0
  0
VERTEX
  5
BF5
  8
LAYER_1
 10
-48.4874989464879
 20
31.36745413000247
 30
0.0
  0
VERTEX
  5
BF6
  8
LAYER_1
 10
-47.39999890327454
 20
30.95464203933892
 30
0.0
  0
VERTEX
  5
BF7
  8
LAYER_1
 10
-44.87519323476207
 20
30.00695376246838
 30
0.0
  0
VERTEX
  5
BF8
  8
LAYER_1
 10
-44.02823099758234
 20
29.69976558607093
 30
0.0
  0
VERTEX
  5
BF9
  8
LAYER_1
 10
-43.38749874383211
 20
29.47764560465991
 30
0.0
  0
VERTEX
  5
BFA
  8
LAYER_1
 10
-43.03710810490884
 20
29.35440504587189
 30
0.0
  0
VERTEX
  5
BFB
  8
LAYER_1
 10
-42.63749871402979
 20
29.20465054999392
 30
0.0
  0
VERTEX
  5
BFC
  8
LAYER_1
 10
-42.23788932315074
 20
29.04729504936235
 30
0.0
  0
SEQEND
  5
EA1
  8
LAYER_1
  0
POLYLINE
  5
78
  8
LAYER_1
 66
     1
 10
0.0
 20
0.0
 30
0.0
 70
     1
  0
VERTEX
  5
BFD
  8
LAYER_1
 10
55.31452526007587
 20
32.3854841852735
 30
0.0
  0
VERTEX
  5
BFE
  8
LAYER_1
 10
55.35365085461652
 20
32.34635859073283
 30
0.0
  0
VERTEX
  5
BFF
  8
LAYER_1
 10
55.93307804022689
 20
32.36691620329795
 30
0.0
  0
VERTEX
  5
C00
  8
LAYER_1
 10
56.582371367855
 20
32.40139244331662
 30
0.0
  0
VERTEX
  5
C01
  8
LAYER_1
 10
57.32977459704003
 20
32.45541398997223
 30
0.0
  0
VERTEX
  5
C02
  8
LAYER_1
 10
57.76420234829378
 20
32.49681385020422
 30
0.0
  0
VERTEX
  5
C03
  8
LAYER_1
 10
57.91495498412349
 20
32.51772278458941
 30
0.0
  0
VERTEX
  5
C04
  8
LAYER_1
 10
58.03079742241302
 20
32.54112540592484
 30
0.0
  0
VERTEX
  5
C05
  8
LAYER_1
 10
58.11877763490579
 20
32.56878747728864
 30
0.0
  0
VERTEX
  5
C06
  8
LAYER_1
 10
58.18594359334525
 20
32.60247476175888
 30
0.0
  0
VERTEX
  5
C07
  8
LAYER_1
 10
58.23934326947484
 20
32.64395302241366
 30
0.0
  0
VERTEX
  5
C08
  8
LAYER_1
 10
58.28602463503799
 20
32.69498802233109
 30
0.0
  0
VERTEX
  5
C09
  8
LAYER_1
 10
58.42500530183315
 20
32.86662188058075
 30
0.0
  0
VERTEX
  5
C0A
  8
LAYER_1
 10
58.43086546756433
 20
34.83750436455011
 30
0.0
  0
VERTEX
  5
C0B
  8
LAYER_1
 10
58.50009500183879
 20
36.48750443011522
 30
0.0
  0
VERTEX
  5
C0C
  8
LAYER_1
 10
58.52506622814978
 20
37.28995538466541
 30
0.0
  0
VERTEX
  5
C0D
  8
LAYER_1
 10
58.53191577877572
 20
38.06838011789428
 30
0.0
  0
VERTEX
  5
C0E
  8
LAYER_1
 10
58.5206708012355
 20
38.81336955174841
 30
0.0
  0
VERTEX
  5
C0F
  8
LAYER_1
 10
58.49135844304806
 20
39.51551460817439
 30
0.0
  0
VERTEX
  5
C10
  8
LAYER_1
 10
58.41339234998287
 20
40.89352472066842
 30
0.0
  0
VERTEX
  5
C11
  8
LAYER_1
 10
58.50830793093161
 20
41.27169851725117
 30
0.0
  0
VERTEX
  5
C12
  8
LAYER_1
 10
59.81250535696745
 20
41.1612151509451
 30
0.0
  0
VERTEX
  5
C13
  8
LAYER_1
 10
60.03750536590815
 20
41.16945190491806
 30
0.0
  0
VERTEX
  5
C14
  8
LAYER_1
 10
63.65832737639963
 20
41.2707048029967
 30
0.0
  0
VERTEX
  5
C15
  8
LAYER_1
 10
63.71058411546809
 20
41.10605839761884
 30
0.0
  0
VERTEX
  5
C16
  8
LAYER_1
 10
63.74660853054507
 20
41.03614719019033
 30
0.0
  0
VERTEX
  5
C17
  8
LAYER_1
 10
63.80606492030218
 20
40.96750689512777
 30
0.0
  0
VERTEX
  5
C18
  8
LAYER_1
 10
63.88069571612593
 20
40.90802757661056
 30
0.0
  0
VERTEX
  5
C19
  8
LAYER_1
 10
63.96224334940285
 20
40.86559929881813
 30
0.0
  0
VERTEX
  5
C1A
  8
LAYER_1
 10
64.09650536342414
 20
40.82153557347293
 30
0.0
  0
VERTEX
  5
C1B
  8
LAYER_1
 10
64.25598864229997
 20
40.78107588128748
 30
0.0
  0
VERTEX
  5
C1C
  8
LAYER_1
 10
64.6364757679136
 20
40.71171347056595
 30
0.0
  0
VERTEX
  5
C1D
  8
LAYER_1
 10
65.07541827284058
 20
40.65900181499381
 30
0.0
  0
VERTEX
  5
C1E
  8
LAYER_1
 10
65.54452970367775
 20
40.62443066291132
 30
0.0
  0
VERTEX
  5
C1F
  8
LAYER_1
 10
66.01552360702192
 20
40.60948976265875
 30
0.0
  0
VERTEX
  5
C20
  8
LAYER_1
 10
66.46011352946994
 20
40.61566886257636
 30
0.0
  0
VERTEX
  5
C21
  8
LAYER_1
 10
66.85001301761858
 20
40.64445771100443
 30
0.0
  0
VERTEX
  5
C22
  8
LAYER_1
 10
67.01561433214216
 20
40.66779633726621
 30
0.0
  0
VERTEX
  5
C23
  8
LAYER_1
 10
67.15693561806472
 20
40.69734605628321
 30
0.0
  0
VERTEX
  5
C24
  8
LAYER_1
 10
67.36987205411769
 20
40.74483787136185
 30
0.0
  0
VERTEX
  5
C25
  8
LAYER_1
 10
67.62111231170641
 20
40.79017353862893
 30
0.0
  0
VERTEX
  5
C26
  8
LAYER_1
 10
67.87928492378397
 20
40.8282181991862
 30
0.0
  0
VERTEX
  5
C27
  8
LAYER_1
 10
68.11301842330346
 20
40.85383699413535
 30
0.0
  0
VERTEX
  5
C28
  8
LAYER_1
 10
68.31678602826736
 20
40.87703261268558
 30
0.0
  0
VERTEX
  5
C29
  8
LAYER_1
 10
68.4933683333866
 20
40.908479515721
 30
0.0
  0
VERTEX
  5
C2A
  8
LAYER_1
 10
68.62385493667702
 20
40.94405050185576
 30
0.0
  0
VERTEX
  5
C2B
  8
LAYER_1
 10
68.66590284951636
 20
40.96209277565232
 30
0.0
  0
VERTEX
  5
C2C
  8
LAYER_1
 10
68.68933543615441
 20
40.97961836970401
 30
0.0
  0
VERTEX
  5
C2D
  8
LAYER_1
 10
68.75399963068256
 20
41.06250461190939
 30
0.0
  0
VERTEX
  5
C2E
  8
LAYER_1
 10
68.84159239052792
 20
42.78750468045473
 30
0.0
  0
VERTEX
  5
C2F
  8
LAYER_1
 10
68.87872596189169
 20
43.66170652528064
 30
0.0
  0
VERTEX
  5
C30
  8
LAYER_1
 10
68.89152641377939
 20
44.38701879542312
 30
0.0
  0
VERTEX
  5
C31
  8
LAYER_1
 10
68.88005999978984
 20
45.03146932987406
 30
0.0
  0
VERTEX
  5
C32
  8
LAYER_1
 10
68.84439297352185
 20
45.66308596762539
 30
0.0
  0
VERTEX
  5
C33
  8
LAYER_1
 10
68.75960079667041
 20
46.8136671862507
 30
0.0
  0
VERTEX
  5
C34
  8
LAYER_1
 10
68.8489944567512
 20
50.36250498145819
 30
0.0
  0
VERTEX
  5
C35
  8
LAYER_1
 10
68.88143063296462
 20
50.88750500231981
 30
0.0
  0
VERTEX
  5
C36
  8
LAYER_1
 10
68.85000571608543
 20
55.11972760672003
 30
0.0
  0
VERTEX
  5
C37
  8
LAYER_1
 10
68.68125570937991
 20
55.2137252938104
 30
0.0
  0
VERTEX
  5
C38
  8
LAYER_1
 10
68.58022543192783
 20
55.25154571153369
 30
0.0
  0
VERTEX
  5
C39
  8
LAYER_1
 10
68.42988851189148
 20
55.28503593491509
 30
0.0
  0
VERTEX
  5
C3A
  8
LAYER_1
 10
68.25054768445261
 20
55.31056155704619
 30
0.0
  0
VERTEX
  5
C3B
  8
LAYER_1
 10
68.062505684793
 20
55.3244881710186
 30
0.0
  0
VERTEX
  5
C3C
  8
LAYER_1
 10
67.6125056669116
 20
55.34125336113641
 30
0.0
  0
VERTEX
  5
C3D
  8
LAYER_1
 10
64.15461517833282
 20
55.50755012726279
 30
0.0
  0
VERTEX
  5
C3E
  8
LAYER_1
 10
63.94505272732846
 20
55.4278746254011
 30
0.0
  0
VERTEX
  5
C3F
  8
LAYER_1
 10
63.86091698110386
 20
55.38635871984953
 30
0.0
  0
VERTEX
  5
C40
  8
LAYER_1
 10
63.78674991463205
 20
55.33221909738482
 30
0.0
  0
VERTEX
  5
C41
  8
LAYER_1
 10
63.73057825309817
 20
55.27246946573818
 30
0.0
  0
VERTEX
  5
C42
  8
LAYER_1
 10
63.70042872168727
 20
55.2141235326408
 30
0.0
  0
VERTEX
  5
C43
  8
LAYER_1
 10
63.66536716705045
 20
55.08004794174212
 30
0.0
  0
VERTEX
  5
C44
  8
LAYER_1
 10
59.13750533014536
 20
55.05478234436632
 30
0.0
  0
VERTEX
  5
C45
  8
LAYER_1
 10
58.86757204218944
 20
55.0102133650864
 30
0.0
  0
VERTEX
  5
C46
  8
LAYER_1
 10
58.72268707270517
 20
54.99602083622331
 30
0.0
  0
VERTEX
  5
C47
  8
LAYER_1
 10
58.66164271302895
 20
54.999969215383
 30
0.0
  0
VERTEX
  5
C48
  8
LAYER_1
 10
58.60464713504579
 20
55.01235277069418
 30
0.0
  0
VERTEX
  5
C49
  8
LAYER_1
 10
58.54903786249255
 20
55.03397556247479
 30
0.0
  0
VERTEX
  5
C4A
  8
LAYER_1
 10
58.49215241910608
 20
55.06564165104285
 30
0.0
  0
VERTEX
  5
C4B
  8
LAYER_1
 10
58.36390311478081
 20
55.16231995981317
 30
0.0
  0
VERTEX
  5
C4C
  8
LAYER_1
 10
58.23866206316773
 20
55.25901331239403
 30
0.0
  0
VERTEX
  5
C4D
  8
LAYER_1
 10
58.11623594062192
 20
55.33540135061605
 30
0.0
  0
VERTEX
  5
C4E
  8
LAYER_1
 10
57.99527672246011
 20
55.39178343454429
 30
0.0
  0
VERTEX
  5
C4F
  8
LAYER_1
 10
57.87443638399905
 20
55.42845892424378
 30
0.0
  0
VERTEX
  5
C50
  8
LAYER_1
 10
57.75236690055549
 20
55.44572717977957
 30
0.0
  0
VERTEX
  5
C51
  8
LAYER_1
 10
57.62772024744616
 20
55.44388756121668
 30
0.0
  0
VERTEX
  5
C52
  8
LAYER_1
 10
57.4991483999878
 20
55.42323942862018
 30
0.0
  0
VERTEX
  5
C53
  8
LAYER_1
 10
57.36530333349717
 20
55.38408214205509
 30
0.0
  0
VERTEX
  5
C54
  8
LAYER_1
 10
57.22051974877515
 20
55.34016095743884
 30
0.0
  0
VERTEX
  5
C55
  8
LAYER_1
 10
57.1010585689698
 20
55.32018637630293
 30
0.0
  0
VERTEX
  5
C56
  8
LAYER_1
 10
57.00319837649899
 20
55.32387959613669
 30
0.0
  0
VERTEX
  5
C57
  8
LAYER_1
 10
56.92321775378053
 20
55.35096181442947
 30
0.0
  0
VERTEX
  5
C58
  8
LAYER_1
 10
56.81905862212941
 20
55.38399151821648
 30
0.0
  0
VERTEX
  5
C59
  8
LAYER_1
 10
56.66059584766971
 20
55.40683512417027
 30
0.0
  0
VERTEX
  5
C5A
  8
LAYER_1
 10
56.46486862610143
 20
55.41964445857049
 30
0.0
  0
VERTEX
  5
C5B
  8
LAYER_1
 10
56.24891615312458
 20
55.42257134769679
 30
0.0
  0
VERTEX
  5
C5C
  8
LAYER_1
 10
56.02977762443915
 20
55.41576761782883
 30
0.0
  0
VERTEX
  5
C5D
  8
LAYER_1
 10
55.8244922357451
 20
55.39938509524627
 30
0.0
  0
VERTEX
  5
C5E
  8
LAYER_1
 10
55.65009918274247
 20
55.37357560622878
 30
0.0
  0
VERTEX
  5
C5F
  8
LAYER_1
 10
55.52363766113123
 20
55.33849097705601
 30
0.0
  0
VERTEX
  5
C60
  8
LAYER_1
 10
55.31250517815351
 20
55.25197677148819
 30
0.0
  0
VERTEX
  5
C61
  8
LAYER_1
 10
53.40792944095165
 20
55.23750517517328
 30
0.0
  0
VERTEX
  5
C62
  8
LAYER_1
 10
53.22412568947007
 20
55.05412576218797
 30
0.0
  0
VERTEX
  5
C63
  8
LAYER_1
 10
53.10338182374684
 20
45.63750479370356
 30
0.0
  0
VERTEX
  5
C64
  8
LAYER_1
 10
53.24857083595211
 20
42.78750468045473
 30
0.0
  0
VERTEX
  5
C65
  8
LAYER_1
 10
53.25000509619713
 20
32.99629166432734
 30
0.0
  0
VERTEX
  5
C66
  8
LAYER_1
 10
53.45625510439277
 20
32.91656508641957
 30
0.0
  0
VERTEX
  5
C67
  8
LAYER_1
 10
53.67781764886961
 20
32.84759637497057
 30
0.0
  0
VERTEX
  5
C68
  8
LAYER_1
 10
53.92088290386897
 20
32.79373445471902
 30
0.0
  0
VERTEX
  5
C69
  8
LAYER_1
 10
54.04148623222089
 20
32.76323552712506
 30
0.0
  0
VERTEX
  5
C6A
  8
LAYER_1
 10
54.17886032583765
 20
32.712057817501
 30
0.0
  0
VERTEX
  5
C6B
  8
LAYER_1
 10
54.31609386427043
 20
32.6473386690149
 30
0.0
  0
VERTEX
  5
C6C
  8
LAYER_1
 10
54.43627552707045
 20
32.57621542483483
 30
0.0
  0
VERTEX
  5
C6D
  8
LAYER_1
 10
54.56721587451867
 20
32.50028143887752
 30
0.0
  0
VERTEX
  5
C6E
  8
LAYER_1
 10
54.70174255081034
 20
32.44794003445307
 30
0.0
  0
VERTEX
  5
C6F
  8
LAYER_1
 10
54.84055308653029
 20
32.41898374758048
 30
0.0
  0
VERTEX
  5
C70
  8
LAYER_1
 10
54.9843450122633
 20
32.4132051142788
 30
0.0
  0
VERTEX
  5
C71
  8
LAYER_1
 10
55.20139550453291
 20
32.40976651591683
 30
0.0
  0
VERTEX
  5
C72
  8
LAYER_1
 10
55.2763674940859
 20
32.39977602063884
 30
0.0
  0
SEQEND
  5
EA2
  8
LAYER_1
  0
POLYLINE
  5
79
  8
LAYER_1
 66
     1
 10
0.0
 20
0.0
 30
0.0
 70
     1
  0
VERTEX
  5
C73
  8
LAYER_1
 10
28.26107646410813
 20
32.86379967336076
 30
0.0
  0
VERTEX
  5
C74
  8
LAYER_1
 10
28.33139639932917
 20
32.82667908797041
 30
0.0
  0
VERTEX
  5
C75
  8
LAYER_1
 10
28.42586723976533
 20
32.80245100783213
 30
0.0
  0
VERTEX
  5
C76
  8
LAYER_1
 10
28.53517460601609
 20
32.79266993740732
 30
0.0
  0
VERTEX
  5
C77
  8
LAYER_1
 10
28.65000411868095
 20
32.79889038115739
 30
0.0
  0
VERTEX
  5
C78
  8
LAYER_1
 10
28.77809090260733
 20
32.82189208815927
 30
0.0
  0
VERTEX
  5
C79
  8
LAYER_1
 10
28.93279346251786
 20
32.85953789025346
 30
0.0
  0
VERTEX
  5
C7A
  8
LAYER_1
 10
29.09461887351776
 20
32.90661052311707
 30
0.0
  0
VERTEX
  5
C7B
  8
LAYER_1
 10
29.24407421071226
 20
32.95789272242718
 30
0.0
  0
VERTEX
  5
C7C
  8
LAYER_1
 10
29.40287441006641
 20
33.00920858258161
 30
0.0
  0
VERTEX
  5
C7D
  8
LAYER_1
 10
29.59014375268916
 20
33.05637286625901
 30
0.0
  0
VERTEX
  5
C7E
  8
LAYER_1
 10
29.78250333140151
 20
33.09415431155765
 30
0.0
  0
VERTEX
  5
C7F
  8
LAYER_1
 10
29.95657423902446
 20
33.11732165657573
 30
0.0
  0
VERTEX
  5
C80
  8
LAYER_1
 10
30.09283760368157
 20
33.13290869073161
 30
0.0
  0
VERTEX
  5
C81
  8
LAYER_1
 10
30.22631895355741
 20
33.15570399729728
 30
0.0
  0
VERTEX
  5
C82
  8
LAYER_1
 10
30.36196354438429
 20
33.18730286101578
 30
0.0
  0
VERTEX
  5
C83
  8
LAYER_1
 10
30.50471663189447
 20
33.22930056663014
 30
0.0
  0
VERTEX
  5
C84
  8
LAYER_1
 10
30.83132931989392
 20
33.35087364251861
 30
0.0
  0
VERTEX
  5
C85
  8
LAYER_1
 10
31.24571906341406
 20
33.53318550290703
 30
0.0
  0
VERTEX
  5
C86
  8
LAYER_1
 10
31.48673186094334
 20
33.63334504131822
 30
0.0
  0
VERTEX
  5
C87
  8
LAYER_1
 10
31.57820993637827
 20
33.66381392744995
 30
0.0
  0
VERTEX
  5
C88
  8
LAYER_1
 10
31.63337581344616
 20
33.67500431835651
 30
0.0
  0
VERTEX
  5
C89
  8
LAYER_1
 10
31.68375853746966
 20
33.69571720980457
 30
0.0
  0
VERTEX
  5
C8A
  8
LAYER_1
 10
31.76221317639757
 20
33.75211369642057
 30
0.0
  0
VERTEX
  5
C8B
  8
LAYER_1
 10
31.85800877705874
 20
33.83558049661224
 30
0.0
  0
VERTEX
  5
C8C
  8
LAYER_1
 10
31.960414386282
 20
33.93750432878733
 30
0.0
  0
VERTEX
  5
C8D
  8
LAYER_1
 10
32.06264939984839
 20
34.03942816096242
 30
0.0
  0
VERTEX
  5
C8E
  8
LAYER_1
 10
32.15798050738446
 20
34.12289496115409
 30
0.0
  0
VERTEX
  5
C8F
  8
LAYER_1
 10
32.23574769648722
 20
34.17929144777008
 30
0.0
  0
VERTEX
  5
C90
  8
LAYER_1
 10
32.28529095475369
 20
34.20000433921814
 30
0.0
  0
VERTEX
  5
C91
  8
LAYER_1
 10
32.34092333659468
 20
34.22342885421563
 30
0.0
  0
VERTEX
  5
C92
  8
LAYER_1
 10
32.43526982255872
 20
34.28720847425829
 30
0.0
  0
VERTEX
  5
C93
  8
LAYER_1
 10
32.55513828944949
 20
34.38160231192143
 30
0.0
  0
VERTEX
  5
C94
  8
LAYER_1
 10
32.68733661407066
 20
34.49686947978036
 30
0.0
  0
VERTEX
  5
C95
  8
LAYER_1
 10
32.8463223372981
 20
34.65152415881461
 30
0.0
  0
VERTEX
  5
C96
  8
LAYER_1
 10
32.89991835073221
 20
34.71376426473746
 30
0.0
  0
VERTEX
  5
C97
  8
LAYER_1
 10
32.93804199961284
 20
34.76899711626406
 30
0.0
  0
VERTEX
  5
C98
  8
LAYER_1
 10
32.96203743461466
 20
34.81951088939434
 30
0.0
  0
VERTEX
  5
C99
  8
LAYER_1
 10
32.97324880641235
 20
34.86759376012827
 30
0.0
  0
VERTEX
  5
C9A
  8
LAYER_1
 10
32.97302026568062
 20
34.91553390446578
 30
0.0
  0
VERTEX
  5
C9B
  8
LAYER_1
 10
32.96269596309413
 20
34.96561949840681
 30
0.0
  0
VERTEX
  5
C9C
  8
LAYER_1
 10
32.91328954463256
 20
35.13750437647104
 30
0.0
  0
VERTEX
  5
C9D
  8
LAYER_1
 10
30.91099567382551
 20
40.23750457912683
 30
0.0
  0
VERTEX
  5
C9E
  8
LAYER_1
 10
30.3715694277726
 20
41.62500463426113
 30
0.0
  0
VERTEX
  5
C9F
  8
LAYER_1
 10
29.8714205225074
 20
42.96211212613017
 30
0.0
  0
VERTEX
  5
CA0
  8
LAYER_1
 10
29.62652310796478
 20
43.64684222997725
 30
0.0
  0
VERTEX
  5
CA1
  8
LAYER_1
 10
29.42642703196537
 20
44.22845559298838
 30
0.0
  0
VERTEX
  5
CA2
  8
LAYER_1
 10
29.02071088221108
 20
45.44440649658134
 30
0.0
  0
VERTEX
  5
CA3
  8
LAYER_1
 10
28.41428853014354
 20
46.76250483840704
 30
0.0
  0
VERTEX
  5
CA4
  8
LAYER_1
 10
26.24034517354889
 20
52.16250505298376
 30
0.0
  0
VERTEX
  5
CA5
  8
LAYER_1
 10
26.16975603439067
 20
52.23417361687515
 30
0.0
  0
VERTEX
  5
CA6
  8
LAYER_1
 10
26.14688475848357
 20
52.24685378929858
 30
0.0
  0
VERTEX
  5
CA7
  8
LAYER_1
 10
26.11218207909963
 20
52.25094788127306
 30
0.0
  0
VERTEX
  5
CA8
  8
LAYER_1
 10
26.00953814633831
 20
52.23398737867527
 30
0.0
  0
VERTEX
  5
CA9
  8
LAYER_1
 10
25.86633550898088
 20
52.18451121868192
 30
0.0
  0
VERTEX
  5
CAA
  8
LAYER_1
 10
25.68708543990147
 20
52.10373851089315
 30
0.0
  0
VERTEX
  5
CAB
  8
LAYER_1
 10
25.50954317100765
 20
52.0226521328561
 30
0.0
  0
VERTEX
  5
CAC
  8
LAYER_1
 10
25.38060478081182
 20
51.97711101764634
 30
0.0
  0
VERTEX
  5
CAD
  8
LAYER_1
 10
25.30206521007488
 20
51.9675915077146
 30
0.0
  0
VERTEX
  5
CAE
  8
LAYER_1
 10
25.28225590099127
 20
51.97648871174385
 30
0.0
  0
VERTEX
  5
CAF
  8
LAYER_1
 10
25.27571939955772
 20
51.99456994551164
 30
0.0
  0
VERTEX
  5
CB0
  8
LAYER_1
 10
25.27643481454491
 20
52.08750505000353
 30
0.0
  0
VERTEX
  5
CB1
  8
LAYER_1
 10
25.80000400543213
 20
53.71493797306547
 30
0.0
  0
VERTEX
  5
CB2
  8
LAYER_1
 10
25.80000400543213
 20
53.77671715017789
 30
0.0
  0
VERTEX
  5
CB3
  8
LAYER_1
 10
25.78468301315293
 20
53.81891281108544
 30
0.0
  0
VERTEX
  5
CB4
  8
LAYER_1
 10
25.74296744011552
 20
53.88813280057481
 30
0.0
  0
VERTEX
  5
CB5
  8
LAYER_1
 10
25.6058369745671
 20
54.06925073260533
 30
0.0
  0
VERTEX
  5
CB6
  8
LAYER_1
 10
25.49484693756514
 20
54.18606450938332
 30
0.0
  0
VERTEX
  5
CB7
  8
LAYER_1
 10
25.44229111874277
 20
54.22638620298238
 30
0.0
  0
VERTEX
  5
CB8
  8
LAYER_1
 10
25.38776301085865
 20
54.25641318054954
 30
0.0
  0
VERTEX
  5
CB9
  8
LAYER_1
 10
25.32831379727716
 20
54.27746700245586
 30
0.0
  0
VERTEX
  5
CBA
  8
LAYER_1
 10
25.2609946613627
 20
54.29086922907241
 30
0.0
  0
VERTEX
  5
CBB
  8
LAYER_1
 10
25.09095135599239
 20
54.30000513792038
 30
0.0
  0
VERTEX
  5
CBC
  8
LAYER_1
 10
24.94280736083694
 20
54.30971660160569
 30
0.0
  0
VERTEX
  5
CBD
  8
LAYER_1
 10
24.80619258553365
 20
54.33794640694789
 30
0.0
  0
VERTEX
  5
CBE
  8
LAYER_1
 10
24.68584302992807
 20
54.38333767537644
 30
0.0
  0
VERTEX
  5
CBF
  8
LAYER_1
 10
24.58649469386577
 20
54.44453352832076
 30
0.0
  0
VERTEX
  5
CC0
  8
LAYER_1
 10
24.46443649937749
 20
54.52399200939274
 30
0.0
  0
VERTEX
  5
CC1
  8
LAYER_1
 10
24.30423243942051
 20
54.60369883372401
 30
0.0
  0
VERTEX
  5
CC2
  8
LAYER_1
 10
24.11651522152803
 20
54.68031204012896
 30
0.0
  0
VERTEX
  5
CC3
  8
LAYER_1
 10
23.91191755323327
 20
54.75048966742197
 30
0.0
  0
VERTEX
  5
CC4
  8
LAYER_1
 10
23.70107214206942
 20
54.81088975441741
 30
0.0
  0
VERTEX
  5
CC5
  8
LAYER_1
 10
23.49461169556969
 20
54.85817033992968
 30
0.0
  0
VERTEX
  5
CC6
  8
LAYER_1
 10
23.30316892126729
 20
54.88898946277316
 30
0.0
  0
VERTEX
  5
CC7
  8
LAYER_1
 10
23.13737652669542
 20
54.90000516176224
 30
0.0
  0
VERTEX
  5
CC8
  8
LAYER_1
 10
22.96943108329733
 20
54.91242982053903
 30
0.0
  0
VERTEX
  5
CC9
  8
LAYER_1
 10
22.79112617900261
 20
54.94821136407811
 30
0.0
  0
VERTEX
  5
CCA
  8
LAYER_1
 10
22.61111663577172
 20
55.00511114319251
 30
0.0
  0
VERTEX
  5
CCB
  8
LAYER_1
 10
22.43805727556511
 20
55.08089050869529
 30
0.0
  0
VERTEX
  5
CCC
  8
LAYER_1
 10
22.2325122208685
 20
55.17803497530507
 30
0.0
  0
VERTEX
  5
CCD
  8
LAYER_1
 10
22.0241120878088
 20
55.26370092792833
 30
0.0
  0
VERTEX
  5
CCE
  8
LAYER_1
 10
21.819668683086
 20
55.33608791062796
 30
0.0
  0
VERTEX
  5
CCF
  8
LAYER_1
 10
21.62599381340009
 20
55.39339546746681
 30
0.0
  0
VERTEX
  5
CD0
  8
LAYER_1
 10
21.44989928545105
 20
55.43382314250773
 30
0.0
  0
VERTEX
  5
CD1
  8
LAYER_1
 10
21.29819690593888
 20
55.45557047981362
 30
0.0
  0
VERTEX
  5
CD2
  8
LAYER_1
 10
21.17769848156355
 20
55.45683702344729
 30
0.0
  0
VERTEX
  5
CD3
  8
LAYER_1
 10
21.13127944214596
 20
55.4492273551567
 30
0.0
  0
VERTEX
  5
CD4
  8
LAYER_1
 10
21.09521581902507
 20
55.43582231747163
 30
0.0
  0
VERTEX
  5
CD5
  8
LAYER_1
 10
20.95893034054524
 20
55.36288454287146
 30
0.0
  0
VERTEX
  5
CD6
  8
LAYER_1
 10
20.26284355846906
 20
53.28750509768724
 30
0.0
  0
VERTEX
  5
CD7
  8
LAYER_1
 10
19.26051918128671
 20
50.13750497251749
 30
0.0
  0
VERTEX
  5
CD8
  8
LAYER_1
 10
18.92250382769565
 20
49.16250493377447
 30
0.0
  0
VERTEX
  5
CD9
  8
LAYER_1
 10
18.39901017222952
 20
47.62500487267971
 30
0.0
  0
VERTEX
  5
CDA
  8
LAYER_1
 10
18.21353187035446
 20
47.06250485032797
 30
0.0
  0
VERTEX
  5
CDB
  8
LAYER_1
 10
17.87942954402827
 20
45.82500480115414
 30
0.0
  0
VERTEX
  5
CDC
  8
LAYER_1
 10
17.60149559707398
 20
44.82920320426241
 30
0.0
  0
VERTEX
  5
CDD
  8
LAYER_1
 10
17.27119952735255
 20
43.70637807430555
 30
0.0
  0
VERTEX
  5
CDE
  8
LAYER_1
 10
16.89006985980456
 20
42.46161626083432
 30
0.0
  0
VERTEX
  5
CDF
  8
LAYER_1
 10
16.4596351193706
 20
41.10000461339951
 30
0.0
  0
VERTEX
  5
CE0
  8
LAYER_1
 10
15.6716443733855
 20
38.58750451356173
 30
0.0
  0
VERTEX
  5
CE1
  8
LAYER_1
 10
15.24764154420528
 20
37.23207248804363
 30
0.0
  0
VERTEX
  5
CE2
  8
LAYER_1
 10
14.87908154401089
 20
36.07965089337046
 30
0.0
  0
VERTEX
  5
CE3
  8
LAYER_1
 10
14.55000355839729
 20
35.07179733278385
 30
0.0
  0
VERTEX
  5
CE4
  8
LAYER_1
 10
14.55000355839729
 20
34.94238913284543
 30
0.0
  0
VERTEX
  5
CE5
  8
LAYER_1
 10
14.55626558996298
 20
34.91507325482936
 30
0.0
  0
VERTEX
  5
CE6
  8
LAYER_1
 10
14.57411430942692
 20
34.88093535360161
 30
0.0
  0
VERTEX
  5
CE7
  8
LAYER_1
 10
14.63894756065072
 20
34.79693142469675
 30
0.0
  0
VERTEX
  5
CE8
  8
LAYER_1
 10
14.73325480927111
 20
34.69985323250216
 30
0.0
  0
VERTEX
  5
CE9
  8
LAYER_1
 10
14.84578755249048
 20
34.59917666338914
 30
0.0
  0
VERTEX
  5
CEA
  8
LAYER_1
 10
14.96529728751124
 20
34.50437760372898
 30
0.0
  0
VERTEX
  5
CEB
  8
LAYER_1
 10
15.08053551153579
 20
34.42493193989297
 30
0.0
  0
VERTEX
  5
CEC
  8
LAYER_1
 10
15.18025372176652
 20
34.37031555825241
 30
0.0
  0
VERTEX
  5
CED
  8
LAYER_1
 10
15.25320341540585
 20
34.3500043451786
 30
0.0
  0
VERTEX
  5
CEE
  8
LAYER_1
 10
15.30077238524654
 20
34.32929145373055
 30
0.0
  0
VERTEX
  5
CEF
  8
LAYER_1
 10
15.37584777837621
 20
34.27289496711455
 30
0.0
  0
VERTEX
  5
CF0
  8
LAYER_1
 10
15.46812351357797
 20
34.18942816692288
 30
0.0
  0
VERTEX
  5
CF1
  8
LAYER_1
 10
15.56729350963492
 20
34.08750433474779
 30
0.0
  0
VERTEX
  5
CF2
  8
LAYER_1
 10
15.68271657046997
 20
33.97526494442027
 30
0.0
  0
VERTEX
  5
CF3
  8
LAYER_1
 10
15.79512133871914
 20
33.89294431735665
 30
0.0
  0
VERTEX
  5
CF4
  8
LAYER_1
 10
15.90164946865861
 20
33.84227869638089
 30
0.0
  0
VERTEX
  5
CF5
  8
LAYER_1
 10
15.95181656122351
 20
33.82935908905846
 30
0.0
  0
VERTEX
  5
CF6
  8
LAYER_1
 10
15.99944261456454
 20
33.82500432431698
 30
0.0
  0
VERTEX
  5
CF7
  8
LAYER_1
 10
16.07705113837621
 20
33.81987236810131
 30
0.0
  0
VERTEX
  5
CF8
  8
LAYER_1
 10
16.14664431819484
 20
33.80589921998934
 30
0.0
  0
VERTEX
  5
CF9
  8
LAYER_1
 10
16.20061278570958
 20
33.78521896078365
 30
0.0
  0
VERTEX
  5
CFA
  8
LAYER_1
 10
16.23134717260959
 20
33.75996567128675
 30
0.0
  0
VERTEX
  5
CFB
  8
LAYER_1
 10
16.25426216086703
 20
33.73760976127156
 30
0.0
  0
VERTEX
  5
CFC
  8
LAYER_1
 10
16.29614003202686
 20
33.71222734528628
 30
0.0
  0
VERTEX
  5
CFD
  8
LAYER_1
 10
16.42881584511173
 20
33.65455708585525
 30
0.0
  0
VERTEX
  5
CFE
  8
LAYER_1
 10
16.61343745598031
 20
33.59130307389339
 30
0.0
  0
VERTEX
  5
CFF
  8
LAYER_1
 10
16.83406770874875
 20
33.52681349030038
 30
0.0
  0
VERTEX
  5
D00
  8
LAYER_1
 10
17.07476944753317
 20
33.46543651597595
 30
0.0
  0
VERTEX
  5
D01
  8
LAYER_1
 10
17.3196055164497
 20
33.41152033181982
 30
0.0
  0
VERTEX
  5
D02
  8
LAYER_1
 10
17.55263875961446
 20
33.3694131187317
 30
0.0
  0
VERTEX
  5
D03
  8
LAYER_1
 10
17.7579320211436
 20
33.34346305761129
 30
0.0
  0
VERTEX
  5
D04
  8
LAYER_1
 10
17.97004737510894
 20
33.31771075193343
 30
0.0
  0
VERTEX
  5
D05
  8
LAYER_1
 10
18.19983317077576
 20
33.27827845598086
 30
0.0
  0
VERTEX
  5
D06
  8
LAYER_1
 10
18.41960409683538
 20
33.23053477811206
 30
0.0
  0
VERTEX
  5
D07
  8
LAYER_1
 10
18.60167484197913
 20
33.17984832668553
 30
0.0
  0
VERTEX
  5
D08
  8
LAYER_1
 10
18.81040053641337
 20
33.11639917082733
 30
0.0
  0
VERTEX
  5
D09
  8
LAYER_1
 10
18.88491277402148
 20
33.10053585411231
 30
0.0
  0
VERTEX
  5
D0A
  8
LAYER_1
 10
18.94626920122634
 20
33.09524640112761
 30
0.0
  0
VERTEX
  5
D0B
  8
LAYER_1
 10
18.99952826503001
 20
33.10053057906392
 30
0.0
  0
VERTEX
  5
D0C
  8
LAYER_1
 10
19.04974841243454
 20
33.11638815511193
 30
0.0
  0
VERTEX
  5
D0D
  8
LAYER_1
 10
19.16130574605445
 20
33.17982257030587
 30
0.0
  0
VERTEX
  5
D0E
  8
LAYER_1
 10
19.23715092425019
 20
33.2434231948026
 30
0.0
  0
VERTEX
  5
D0F
  8
LAYER_1
 10
19.30592887485233
 20
33.32634826504763
 30
0.0
  0
VERTEX
  5
D10
  8
LAYER_1
 10
19.36006981292766
 20
33.41785560891114
 30
0.0
  0
VERTEX
  5
D11
  8
LAYER_1
 10
19.39200395354295
 20
33.50720305426327
 30
0.0
  0
VERTEX
  5
D12
  8
LAYER_1
 10
19.43638572382389
 20
33.71250431984663
 30
0.0
  0
VERTEX
  5
D13
  8
LAYER_1
 10
19.77094782490094
 20
34.68750435858965
 30
0.0
  0
VERTEX
  5
D14
  8
LAYER_1
 10
20.42655262052959
 20
36.59270753150869
 30
0.0
  0
VERTEX
  5
D15
  8
LAYER_1
 10
20.74759531508118
 20
37.52291066568473
 30
0.0
  0
VERTEX
  5
D16
  8
LAYER_1
 10
24.18750394135714
 20
37.59260076130315
 30
0.0
  0
VERTEX
  5
D17
  8
LAYER_1
 10
26.37498646912782
 20
37.40424602480546
 30
0.0
  0
VERTEX
  5
D18
  8
LAYER_1
 10
27.8492368171714
 20
33.78750432282686
 30
0.0
  0
VERTEX
  5
D19
  8
LAYER_1
 10
27.99194281856877
 20
33.37500430643559
 30
0.0
  0
VERTEX
  5
D1A
  8
LAYER_1
 10
28.05732881446942
 20
33.20704987328597
 30
0.0
  0
VERTEX
  5
D1B
  8
LAYER_1
 10
28.12986705252237
 20
33.05468168870846
 30
0.0
  0
VERTEX
  5
D1C
  8
LAYER_1
 10
28.20072658498336
 20
32.9346736547258
 30
0.0
  0
SEQEND
  5
EA3
  8
LAYER_1
  0
POLYLINE
  5
7A
  8
LAYER_1
 66
     1
 10
0.0
 20
0.0
 30
0.0
 70
     1
  0
VERTEX
  5
D1D
  8
LAYER_1
 10
-4.087497182190418
 20
32.97036773418755
 30
0.0
  0
VERTEX
  5
D1E
  8
LAYER_1
 10
-1.012497060000896
 20
32.88140079809638
 30
0.0
  0
VERTEX
  5
D1F
  8
LAYER_1
 10
0.1875029876828194
 20
32.85048133791287
 30
0.0
  0
VERTEX
  5
D20
  8
LAYER_1
 10
2.362503074109554
 20
32.96941568352361
 30
0.0
  0
VERTEX
  5
D21
  8
LAYER_1
 10
3.414451871367433
 20
33.01708470326184
 30
0.0
  0
VERTEX
  5
D22
  8
LAYER_1
 10
4.527371294161203
 20
33.04979872640386
 30
0.0
  0
VERTEX
  5
D23
  8
LAYER_1
 10
5.635981649769986
 20
33.06611693979235
 30
0.0
  0
VERTEX
  5
D24
  8
LAYER_1
 10
6.675003245472908
 20
33.06459853026995
 30
0.0
  0
VERTEX
  5
D25
  8
LAYER_1
 10
8.873089270316996
 20
33.0528408822161
 30
0.0
  0
VERTEX
  5
D26
  8
LAYER_1
 10
11.15625342354178
 20
33.05792566296009
 30
0.0
  0
VERTEX
  5
D27
  8
LAYER_1
 10
13.50000351667404
 20
33.07500429451466
 30
0.0
  0
VERTEX
  5
D28
  8
LAYER_1
 10
13.65463442674941
 20
33.22963520459002
 30
0.0
  0
VERTEX
  5
D29
  8
LAYER_1
 10
13.69764813712991
 20
33.2770789686678
 30
0.0
  0
VERTEX
  5
D2A
  8
LAYER_1
 10
13.73181659805161
 20
33.3262887134472
 30
0.0
  0
VERTEX
  5
D2B
  8
LAYER_1
 10
13.75790156201423
 20
33.38065287557678
 30
0.0
  0
VERTEX
  5
D2C
  8
LAYER_1
 10
13.77666478151754
 20
33.44355989170509
 30
0.0
  0
VERTEX
  5
D2D
  8
LAYER_1
 10
13.79527299714512
 20
33.60855623255218
 30
0.0
  0
VERTEX
  5
D2E
  8
LAYER_1
 10
13.79373526493229
 20
33.84838522917694
 30
0.0
  0
VERTEX
  5
D2F
  8
LAYER_1
 10
13.794852666084
 20
34.06299838826666
 30
0.0
  0
VERTEX
  5
D30
  8
LAYER_1
 10
13.80937543152354
 20
34.30424913442961
 30
0.0
  0
VERTEX
  5
D31
  8
LAYER_1
 10
13.83484094026056
 20
34.54260177521444
 30
0.0
  0
VERTEX
  5
D32
  8
LAYER_1
 10
13.86878657130472
 20
34.74852061816982
 30
0.0
  0
VERTEX
  5
D33
  8
LAYER_1
 10
13.90837478899856
 20
34.98522838043851
 30
0.0
  0
VERTEX
  5
D34
  8
LAYER_1
 10
13.92184227966709
 20
35.20839374907884
 30
0.0
  0
VERTEX
  5
D35
  8
LAYER_1
 10
13.90924569753305
 20
35.44812929073368
 30
0.0
  0
VERTEX
  5
D36
  8
LAYER_1
 10
13.87064169681922
 20
35.73454757204594
 30
0.0
  0
VERTEX
  5
D37
  8
LAYER_1
 10
13.83312152602959
 20
36.01800492787267
 30
0.0
  0
VERTEX
  5
D38
  8
LAYER_1
 10
13.81972279443544
 20
36.26835418094815
 30
0.0
  0
VERTEX
  5
D39
  8
LAYER_1
 10
13.83031487010183
 20
36.50842107548083
 30
0.0
  0
VERTEX
  5
D3A
  8
LAYER_1
 10
13.86476712109382
 20
36.76103135567912
 30
0.0
  0
VERTEX
  5
D3B
  8
LAYER_1
 10
13.89328639096817
 20
36.9701349630942
 30
0.0
  0
VERTEX
  5
D3C
  8
LAYER_1
 10
13.90828500304874
 20
37.18372002414113
 30
0.0
  0
VERTEX
  5
D3D
  8
LAYER_1
 10
13.91043609852927
 20
37.39373919159811
 30
0.0
  0
VERTEX
  5
D3E
  8
LAYER_1
 10
13.9004128186035
 20
37.59214511824331
 30
0.0
  0
VERTEX
  5
D3F
  8
LAYER_1
 10
13.87888830446518
 20
37.77089045685491
 30
0.0
  0
VERTEX
  5
D40
  8
LAYER_1
 10
13.84653569730804
 20
37.9219278602111
 30
0.0
  0
VERTEX
  5
D41
  8
LAYER_1
 10
13.80402813832583
 20
38.03720998109006
 30
0.0
  0
VERTEX
  5
D42
  8
LAYER_1
 10
13.77917660852336
 20
38.07892801459376
 30
0.0
  0
VERTEX
  5
D43
  8
LAYER_1
 10
13.75203876871228
 20
38.10868947226997
 30
0.0
  0
VERTEX
  5
D44
  8
LAYER_1
 10
13.6498328202721
 20
38.19351287559445
 30
0.0
  0
VERTEX
  5
D45
  8
LAYER_1
 10
10.66866805298906
 20
38.27466971342439
 30
0.0
  0
VERTEX
  5
D46
  8
LAYER_1
 10
9.277310151951589
 20
38.30420667574393
 30
0.0
  0
VERTEX
  5
D47
  8
LAYER_1
 10
7.692733831673994
 20
38.32463531171821
 30
0.0
  0
VERTEX
  5
D48
  8
LAYER_1
 10
6.109993766895782
 20
38.33411383168513
 30
0.0
  0
VERTEX
  5
D49
  8
LAYER_1
 10
4.724144632356456
 20
38.33080044598262
 30
0.0
  0
VERTEX
  5
D4A
  8
LAYER_1
 10
1.760785979006869
 20
38.30577434071093
 30
0.0
  0
VERTEX
  5
D4B
  8
LAYER_1
 10
1.105427002270915
 20
38.41649652907496
 30
0.0
  0
VERTEX
  5
D4C
  8
LAYER_1
 10
1.18630895872667
 20
39.86250456422567
 30
0.0
  0
VERTEX
  5
D4D
  8
LAYER_1
 10
1.036259659396393
 20
42.9375046864152
 30
0.0
  0
VERTEX
  5
D4E
  8
LAYER_1
 10
1.14254710591284
 20
49.71376788119659
 30
0.0
  0
VERTEX
  5
D4F
  8
LAYER_1
 10
2.287503071129322
 20
49.80143066279108
 30
0.0
  0
VERTEX
  5
D50
  8
LAYER_1
 10
11.88750345259905
 20
49.93829753376868
 30
0.0
  0
VERTEX
  5
D51
  8
LAYER_1
 10
13.73087497017686
 20
50.0458370810704
 30
0.0
  0
VERTEX
  5
D52
  8
LAYER_1
 10
13.80581952031697
 20
50.18587225394609
 30
0.0
  0
VERTEX
  5
D53
  8
LAYER_1
 10
13.83795768133613
 20
50.29199191018584
 30
0.0
  0
VERTEX
  5
D54
  8
LAYER_1
 10
13.87006111505325
 20
50.47741299306801
 30
0.0
  0
VERTEX
  5
D55
  8
LAYER_1
 10
13.89840712825625
 20
50.71602220027071
 30
0.0
  0
VERTEX
  5
D56
  8
LAYER_1
 10
13.91927302773304
 20
50.98170622947195
 30
0.0
  0
VERTEX
  5
D57
  8
LAYER_1
 10
13.94037378092069
 20
51.25968149479357
 30
0.0
  0
VERTEX
  5
D58
  8
LAYER_1
 10
13.96935924729684
 20
51.5317569389577
 30
0.0
  0
VERTEX
  5
D59
  8
LAYER_1
 10
14.00240907171021
 20
51.76670805254282
 30
0.0
  0
VERTEX
  5
D5A
  8
LAYER_1
 10
14.03570289900956
 20
51.93331032612741
 30
0.0
  0
VERTEX
  5
D5B
  8
LAYER_1
 10
14.0629294583112
 20
52.10343947226615
 30
0.0
  0
VERTEX
  5
D5C
  8
LAYER_1
 10
14.07525974468393
 20
52.33296353173364
 30
0.0
  0
VERTEX
  5
D5D
  8
LAYER_1
 10
14.07408515398512
 20
52.60076829111235
 30
0.0
  0
VERTEX
  5
D5E
  8
LAYER_1
 10
14.06079708207213
 20
52.88573953698466
 30
0.0
  0
VERTEX
  5
D5F
  8
LAYER_1
 10
14.03678692480233
 20
53.16676305593303
 30
0.0
  0
VERTEX
  5
D60
  8
LAYER_1
 10
14.00344607803309
 20
53.42272463453989
 30
0.0
  0
VERTEX
  5
D61
  8
LAYER_1
 10
13.96216593762178
 20
53.63251005938766
 30
0.0
  0
VERTEX
  5
D62
  8
LAYER_1
 10
13.93898344350577
 20
53.71348852245889
 30
0.0
  0
VERTEX
  5
D63
  8
LAYER_1
 10
13.91433789942576
 20
53.77500511705875
 30
0.0
  0
VERTEX
  5
D64
  8
LAYER_1
 10
13.87430053043898
 20
53.87701325944673
 30
0.0
  0
VERTEX
  5
D65
  8
LAYER_1
 10
13.83422649470077
 20
54.01615206984685
 30
0.0
  0
VERTEX
  5
D66
  8
LAYER_1
 10
13.79876739304753
 20
54.17412438233357
 30
0.0
  0
VERTEX
  5
D67
  8
LAYER_1
 10
13.7725748263157
 20
54.33263303098127
 30
0.0
  0
VERTEX
  5
D68
  8
LAYER_1
 10
13.74540204884393
 20
54.48907332709751
 30
0.0
  0
VERTEX
  5
D69
  8
LAYER_1
 10
13.70727405656211
 20
54.64141398665203
 30
0.0
  0
VERTEX
  5
D6A
  8
LAYER_1
 10
13.6632500626936
 20
54.7722179507125
 30
0.0
  0
VERTEX
  5
D6B
  8
LAYER_1
 10
13.61838928046173
 20
54.86404816034664
 30
0.0
  0
VERTEX
  5
D6C
  8
LAYER_1
 10
13.51270983317501
 20
55.02533538324008
 30
0.0
  0
VERTEX
  5
D6D
  8
LAYER_1
 10
5.812503211200237
 20
55.12730098066999
 30
0.0
  0
VERTEX
  5
D6E
  8
LAYER_1
 10
4.762503169476986
 20
55.19584512159295
 30
0.0
  0
VERTEX
  5
D6F
  8
LAYER_1
 10
3.833675007568672
 20
55.24867424741858
 30
0.0
  0
VERTEX
  5
D70
  8
LAYER_1
 10
3.075003102421761
 20
55.27943547970324
 30
0.0
  0
VERTEX
  5
D71
  8
LAYER_1
 10
2.437503077089787
 20
55.29448169689053
 30
0.0
  0
VERTEX
  5
D72
  8
LAYER_1
 10
-4.052201945886367
 20
55.2750051766634
 30
0.0
  0
VERTEX
  5
D73
  8
LAYER_1
 10
-4.204768206747673
 20
55.03125516697764
 30
0.0
  0
VERTEX
  5
D74
  8
LAYER_1
 10
-4.249728010093346
 20
54.95303712193678
 30
0.0
  0
VERTEX
  5
D75
  8
LAYER_1
 10
-4.284694556719192
 20
54.87340690549759
 30
0.0
  0
VERTEX
  5
D76
  8
LAYER_1
 10
-4.310693552580815
 20
54.7838205018392
 30
0.0
  0
VERTEX
  5
D77
  8
LAYER_1
 10
-4.328750703633823
 20
54.67573389514076
 30
0.0
  0
VERTEX
  5
D78
  8
LAYER_1
 10
-4.339891715833819
 20
54.54060306958139
 30
0.0
  0
VERTEX
  5
D79
  8
LAYER_1
 10
-4.345142295136409
 20
54.36988400934024
 30
0.0
  0
VERTEX
  5
D7A
  8
LAYER_1
 10
-4.342074978871793
 20
53.8875051215291
 30
0.0
  0
VERTEX
  5
D7B
  8
LAYER_1
 10
-4.340830940389973
 20
53.49013370062445
 30
0.0
  0
VERTEX
  5
D7C
  8
LAYER_1
 10
-4.348724019551771
 20
53.07349124440029
 30
0.0
  0
VERTEX
  5
D7D
  8
LAYER_1
 10
-4.364308390955774
 20
52.68703541833487
 30
0.0
  0
VERTEX
  5
D7E
  8
LAYER_1
 10
-4.386138229200569
 20
52.38022388790644
 30
0.0
  0
VERTEX
  5
D7F
  8
LAYER_1
 10
-4.406689811079669
 20
52.09042005753949
 30
0.0
  0
VERTEX
  5
D80
  8
LAYER_1
 10
-4.408602187856003
 20
51.83151757638067
 30
0.0
  0
VERTEX
  5
D81
  8
LAYER_1
 10
-4.391838196901849
 20
51.60229502778506
 30
0.0
  0
VERTEX
  5
D82
  8
LAYER_1
 10
-4.356360675589485
 20
51.40153099510778
 30
0.0
  0
VERTEX
  5
D83
  8
LAYER_1
 10
-4.319646127016401
 20
51.21883431960949
 30
0.0
  0
VERTEX
  5
D84
  8
LAYER_1
 10
-4.305953676965101
 20
51.06712961213445
 30
0.0
  0
VERTEX
  5
D85
  8
LAYER_1
 10
-4.315137414923855
 20
50.93730608266608
 30
0.0
  0
VERTEX
  5
D86
  8
LAYER_1
 10
-4.34705143038093
 20
50.82025294118785
 30
0.0
  0
VERTEX
  5
D87
  8
LAYER_1
 10
-4.375736334290345
 20
50.70863879011868
 30
0.0
  0
VERTEX
  5
D88
  8
LAYER_1
 10
-4.384373239711538
 20
50.58374489427197
 30
0.0
  0
VERTEX
  5
D89
  8
LAYER_1
 10
-4.374434915996495
 20
50.45118402020734
 30
0.0
  0
VERTEX
  5
D8A
  8
LAYER_1
 10
-4.347394132497209
 20
50.31656893448449
 30
0.0
  0
VERTEX
  5
D8B
  8
LAYER_1
 10
-4.304723658565669
 20
50.18551240366308
 30
0.0
  0
VERTEX
  5
D8C
  8
LAYER_1
 10
-4.247896263553863
 20
50.06362719430277
 30
0.0
  0
VERTEX
  5
D8D
  8
LAYER_1
 10
-4.178384716813783
 20
49.95652607296322
 30
0.0
  0
VERTEX
  5
D8E
  8
LAYER_1
 10
-4.097661787697419
 20
49.86982180620411
 30
0.0
  0
VERTEX
  5
D8F
  8
LAYER_1
 10
-3.928224234102245
 20
49.72249774915812
 30
0.0
  0
VERTEX
  5
D90
  8
LAYER_1
 10
-3.900807673153253
 20
38.37342001516205
 30
0.0
  0
VERTEX
  5
D91
  8
LAYER_1
 10
-4.029512551485482
 20
38.23120272542177
 30
0.0
  0
VERTEX
  5
D92
  8
LAYER_1
 10
-4.082427430702709
 20
38.15598407958828
 30
0.0
  0
VERTEX
  5
D93
  8
LAYER_1
 10
-4.136360141106567
 20
38.04960313409252
 30
0.0
  0
VERTEX
  5
D94
  8
LAYER_1
 10
-4.188906332053513
 20
37.91990534054285
 30
0.0
  0
VERTEX
  5
D95
  8
LAYER_1
 10
-4.237661652900002
 20
37.77473615054762
 30
0.0
  0
VERTEX
  5
D96
  8
LAYER_1
 10
-4.280221753002492
 20
37.62194101571521
 30
0.0
  0
VERTEX
  5
D97
  8
LAYER_1
 10
-4.31418228171744
 20
37.46936538765397
 30
0.0
  0
VERTEX
  5
D98
  8
LAYER_1
 10
-4.337138888401303
 20
37.32485471797225
 30
0.0
  0
VERTEX
  5
D99
  8
LAYER_1
 10
-4.346687222410537
 20
37.19625445827842
 30
0.0
  0
VERTEX
  5
D9A
  8
LAYER_1
 10
-4.354362086516911
 20
37.11560600152964
 30
0.0
  0
VERTEX
  5
D9B
  8
LAYER_1
 10
-4.372812155609942
 20
37.03739687367311
 30
0.0
  0
VERTEX
  5
D9C
  8
LAYER_1
 10
-4.399271732986243
 20
36.97055955388903
 30
0.0
  0
VERTEX
  5
D9D
  8
LAYER_1
 10
-4.430975121942424
 20
36.92402652135763
 30
0.0
  0
VERTEX
  5
D9E
  8
LAYER_1
 10
-4.511953051263617
 20
36.84304859203644
 30
0.0
  0
VERTEX
  5
D9F
  8
LAYER_1
 10
-4.511201711251587
 20
34.91250436753035
 30
0.0
  0
VERTEX
  5
DA0
  8
LAYER_1
 10
-4.430599451936416
 20
34.65049949862878
 30
0.0
  0
VERTEX
  5
DA1
  8
LAYER_1
 10
-4.399303105936696
 20
34.51451045213815
 30
0.0
  0
VERTEX
  5
DA2
  8
LAYER_1
 10
-4.37367410629507
 20
34.33792580599398
 30
0.0
  0
VERTEX
  5
DA3
  8
LAYER_1
 10
-4.356357214645321
 20
34.14358827492219
 30
0.0
  0
VERTEX
  5
DA4
  8
LAYER_1
 10
-4.349997192621231
 20
33.95434057364868
 30
0.0
  0
VERTEX
  5
DA5
  8
LAYER_1
 10
-4.343964791662986
 20
33.81422270659155
 30
0.0
  0
VERTEX
  5
DA6
  8
LAYER_1
 10
-4.327172505308511
 20
33.66371245775225
 30
0.0
  0
VERTEX
  5
DA7
  8
LAYER_1
 10
-4.3015777083382
 20
33.51071652473027
 30
0.0
  0
VERTEX
  5
DA8
  8
LAYER_1
 10
-4.269137775532448
 20
33.36314160512505
 30
0.0
  0
VERTEX
  5
DA9
  8
LAYER_1
 10
-4.231810081671649
 20
33.22889439653605
 30
0.0
  0
VERTEX
  5
DAA
  8
LAYER_1
 10
-4.191552001536197
 20
33.11588159656273
 30
0.0
  0
VERTEX
  5
DAB
  8
LAYER_1
 10
-4.150320909906485
 20
33.03200990280456
 30
0.0
  0
VERTEX
  5
DAC
  8
LAYER_1
 10
-4.110074181562908
 20
32.98518601286098
 30
0.0
  0
SEQEND
  5
EA4
  8
LAYER_1
  0
POLYLINE
  5
7B
  8
LAYER_1
 66
     1
 10
0.0
 20
0.0
 30
0.0
 70
     1
  0
VERTEX
  5
DAD
  8
LAYER_1
 10
35.89344484313105
 20
33.06088678679812
 30
0.0
  0
VERTEX
  5
DAE
  8
LAYER_1
 10
36.32158055056331
 20
33.04656890949676
 30
0.0
  0
VERTEX
  5
DAF
  8
LAYER_1
 10
36.83267422692452
 20
33.04498006809253
 30
0.0
  0
VERTEX
  5
DB0
  8
LAYER_1
 10
37.25756718110662
 20
33.06398669598479
 30
0.0
  0
VERTEX
  5
DB1
  8
LAYER_1
 10
37.40410631640263
 20
33.08045141722723
 30
0.0
  0
VERTEX
  5
DB2
  8
LAYER_1
 10
37.47845434372526
 20
33.09918558528985
 30
0.0
  0
VERTEX
  5
DB3
  8
LAYER_1
 10
37.55406465477603
 20
33.14591532741917
 30
0.0
  0
VERTEX
  5
DB4
  8
LAYER_1
 10
38.25355372854142
 20
33.18652289154703
 30
0.0
  0
VERTEX
  5
DB5
  8
LAYER_1
 10
38.57000309513973
 20
33.21141286019369
 30
0.0
  0
VERTEX
  5
DB6
  8
LAYER_1
 10
38.81160018433866
 20
33.24518004239542
 30
0.0
  0
VERTEX
  5
DB7
  8
LAYER_1
 10
38.98048880238814
 20
33.28822560104535
 30
0.0
  0
VERTEX
  5
DB8
  8
LAYER_1
 10
39.03833737418495
 20
33.31335313494251
 30
0.0
  0
VERTEX
  5
DB9
  8
LAYER_1
 10
39.07881275553811
 20
33.34095069903664
 30
0.0
  0
VERTEX
  5
DBA
  8
LAYER_1
 10
39.20458270876941
 20
33.45477094239838
 30
0.0
  0
VERTEX
  5
DBB
  8
LAYER_1
 10
39.33518146986961
 20
38.0625044927001
 30
0.0
  0
VERTEX
  5
DBC
  8
LAYER_1
 10
39.31713313982688
 20
38.88750452548265
 30
0.0
  0
VERTEX
  5
DBD
  8
LAYER_1
 10
39.21475908428893
 20
46.01250480860472
 30
0.0
  0
VERTEX
  5
DBE
  8
LAYER_1
 10
39.35842868234369
 20
45.78750479966402
 30
0.0
  0
VERTEX
  5
DBF
  8
LAYER_1
 10
39.70506413103463
 20
45.22500477731228
 30
0.0
  0
VERTEX
  5
DC0
  8
LAYER_1
 10
39.90802998167081
 20
44.88750476390123
 30
0.0
  0
VERTEX
  5
DC1
  8
LAYER_1
 10
40.57640668241702
 20
43.98750472813845
 30
0.0
  0
VERTEX
  5
DC2
  8
LAYER_1
 10
41.18542687568116
 20
43.15674525808075
 30
0.0
  0
VERTEX
  5
DC3
  8
LAYER_1
 10
41.71109537758751
 20
42.4232172207153
 30
0.0
  0
VERTEX
  5
DC4
  8
LAYER_1
 10
42.1774073720118
 20
41.75892974905496
 30
0.0
  0
VERTEX
  5
DC5
  8
LAYER_1
 10
42.47169651037611
 20
41.79840220557531
 30
0.0
  0
VERTEX
  5
DC6
  8
LAYER_1
 10
42.61433545602428
 20
41.83015272348297
 30
0.0
  0
VERTEX
  5
DC7
  8
LAYER_1
 10
42.74882621821251
 20
41.88595310991235
 30
0.0
  0
VERTEX
  5
DC8
  8
LAYER_1
 10
42.87480161938775
 20
41.96561240817675
 30
0.0
  0
VERTEX
  5
DC9
  8
LAYER_1
 10
42.99189448199694
 20
42.06893966158943
 30
0.0
  0
VERTEX
  5
DCA
  8
LAYER_1
 10
43.08589330749253
 20
42.15865786842414
 30
0.0
  0
VERTEX
  5
DCB
  8
LAYER_1
 10
43.17483151292092
 20
42.23212931748193
 30
0.0
  0
VERTEX
  5
DCC
  8
LAYER_1
 10
43.24868387284958
 20
42.28177218846692
 30
0.0
  0
VERTEX
  5
DCD
  8
LAYER_1
 10
43.29742516184598
 20
42.30000466108322
 30
0.0
  0
VERTEX
  5
DCE
  8
LAYER_1
 10
43.37887375366809
 20
42.32552353058656
 30
0.0
  0
VERTEX
  5
DCF
  8
LAYER_1
 10
43.51180032136847
 20
42.3951800150322
 30
0.0
  0
VERTEX
  5
DD0
  8
LAYER_1
 10
43.68116140139873
 20
42.49862392832359
 30
0.0
  0
VERTEX
  5
DD1
  8
LAYER_1
 10
43.87191353021048
 20
42.62550508436416
 30
0.0
  0
VERTEX
  5
DD2
  8
LAYER_1
 10
44.06901324425531
 20
42.76547329705736
 30
0.0
  0
VERTEX
  5
DD3
  8
LAYER_1
 10
44.25741707998484
 20
42.90817838030662
 30
0.0
  0
VERTEX
  5
DD4
  8
LAYER_1
 10
44.42208157385066
 20
43.0432701480154
 30
0.0
  0
VERTEX
  5
DD5
  8
LAYER_1
 10
44.54796326230438
 20
43.16039841408713
 30
0.0
  0
VERTEX
  5
DD6
  8
LAYER_1
 10
44.65433233682136
 20
43.2631400757861
 30
0.0
  0
VERTEX
  5
DD7
  8
LAYER_1
 10
44.75436267595768
 20
43.34727660759995
 30
0.0
  0
VERTEX
  5
DD8
  8
LAYER_1
 10
44.83681626645163
 20
43.40412561558229
 30
0.0
  0
VERTEX
  5
DD9
  8
LAYER_1
 10
44.89045509504153
 20
43.42500470578671
 30
0.0
  0
VERTEX
  5
DDA
  8
LAYER_1
 10
44.97648041193196
 20
43.42500470578671
 30
0.0
  0
VERTEX
  5
DDB
  8
LAYER_1
 10
45.50753671111389
 20
43.79795100383822
 30
0.0
  0
VERTEX
  5
DDC
  8
LAYER_1
 10
45.71774876115482
 20
43.95540241798514
 30
0.0
  0
VERTEX
  5
DDD
  8
LAYER_1
 10
45.89753413564581
 20
44.1084126745409
 30
0.0
  0
VERTEX
  5
DDE
  8
LAYER_1
 10
46.02779884137667
 20
44.23948683851675
 30
0.0
  0
VERTEX
  5
DDF
  8
LAYER_1
 10
46.06839407057889
 20
44.29133071860323
 30
0.0
  0
VERTEX
  5
DE0
  8
LAYER_1
 10
46.08944888513727
 20
44.33112997492394
 30
0.0
  0
VERTEX
  5
DE1
  8
LAYER_1
 10
46.09811000995751
 20
44.37845438647649
 30
0.0
  0
VERTEX
  5
DE2
  8
LAYER_1
 10
46.09532207562506
 20
44.43254811126476
 30
0.0
  0
VERTEX
  5
DE3
  8
LAYER_1
 10
46.08031705617014
 20
44.49514759931613
 30
0.0
  0
VERTEX
  5
DE4
  8
LAYER_1
 10
46.05232692562295
 20
44.56798930065801
 30
0.0
  0
VERTEX
  5
DE5
  8
LAYER_1
 10
45.95431922737264
 20
44.75134514332292
 30
0.0
  0
VERTEX
  5
DE6
  8
LAYER_1
 10
45.79515477311585
 20
44.99650723947867
 30
0.0
  0
VERTEX
  5
DE7
  8
LAYER_1
 10
45.45000478625298
 20
45.50165183099921
 30
0.0
  0
VERTEX
  5
DE8
  8
LAYER_1
 10
45.45000478625298
 20
45.67464274651284
 30
0.0
  0
VERTEX
  5
DE9
  8
LAYER_1
 10
46.50000482797623
 20
47.04633392103595
 30
0.0
  0
VERTEX
  5
DEA
  8
LAYER_1
 10
46.50000482797623
 20
47.11509566267114
 30
0.0
  0
VERTEX
  5
DEB
  8
LAYER_1
 10
46.50592279696139
 20
47.13813705168823
 30
0.0
  0
VERTEX
  5
DEC
  8
LAYER_1
 10
46.52203607885167
 20
47.15004258084529
 30
0.0
  0
VERTEX
  5
DED
  8
LAYER_1
 10
46.54588373604929
 20
47.15007694857454
 30
0.0
  0
VERTEX
  5
DEE
  8
LAYER_1
 10
46.57500483095646
 20
47.1375048533082
 30
0.0
  0
VERTEX
  5
DEF
  8
LAYER_1
 10
46.65000483393669
 20
47.09115230231008
 30
0.0
  0
VERTEX
  5
DF0
  8
LAYER_1
 10
46.64856559419489
 20
46.10182853757601
 30
0.0
  0
VERTEX
  5
DF1
  8
LAYER_1
 10
46.62663661646992
 20
45.01757173841231
 30
0.0
  0
VERTEX
  5
DF2
  8
LAYER_1
 10
46.5759348151941
 20
43.80000472068787
 30
0.0
  0
VERTEX
  5
DF3
  8
LAYER_1
 10
46.50474327593508
 20
42.4875046685338
 30
0.0
  0
VERTEX
  5
DF4
  8
LAYER_1
 10
46.62703517400588
 20
33.42728776034338
 30
0.0
  0
VERTEX
  5
DF5
  8
LAYER_1
 10
46.7697700091867
 20
33.32077895819781
 30
0.0
  0
VERTEX
  5
DF6
  8
LAYER_1
 10
46.81517685931068
 20
33.29309190443183
 30
0.0
  0
VERTEX
  5
DF7
  8
LAYER_1
 10
46.87073243170128
 20
33.27158414511897
 30
0.0
  0
VERTEX
  5
DF8
  8
LAYER_1
 10
46.93947808060041
 20
33.25602795563785
 30
0.0
  0
VERTEX
  5
DF9
  8
LAYER_1
 10
47.02445516024993
 20
33.24619561136709
 30
0.0
  0
VERTEX
  5
DFA
  8
LAYER_1
 10
47.25526902876769
 20
33.24279155997112
 30
0.0
  0
VERTEX
  5
DFB
  8
LAYER_1
 10
47.58750487118959
 20
33.25955019396
 30
0.0
  0
VERTEX
  5
DFC
  8
LAYER_1
 10
48.15754286226058
 20
33.29411842946314
 30
0.0
  0
VERTEX
  5
DFD
  8
LAYER_1
 10
48.57169379007924
 20
33.30561757843277
 30
0.0
  0
VERTEX
  5
DFE
  8
LAYER_1
 10
48.94762287428422
 20
33.29403525364069
 30
0.0
  0
VERTEX
  5
DFF
  8
LAYER_1
 10
49.40299533451413
 20
33.2593590678587
 30
0.0
  0
VERTEX
  5
E00
  8
LAYER_1
 10
49.72029572688415
 20
33.23857590044676
 30
0.0
  0
VERTEX
  5
E01
  8
LAYER_1
 10
49.95766703806019
 20
33.24180857410597
 30
0.0
  0
VERTEX
  5
E02
  8
LAYER_1
 10
50.05715434342793
 20
33.2532627288036
 30
0.0
  0
VERTEX
  5
E03
  8
LAYER_1
 10
50.14958944477012
 20
33.27171909672862
 30
0.0
  0
VERTEX
  5
E04
  8
LAYER_1
 10
50.33054312374179
 20
33.330969476207
 30
0.0
  0
VERTEX
  5
E05
  8
LAYER_1
 10
50.49630692778202
 20
33.38940026883789
 30
0.0
  0
VERTEX
  5
E06
  8
LAYER_1
 10
50.63084201665034
 20
33.41470756374568
 30
0.0
  0
VERTEX
  5
E07
  8
LAYER_1
 10
50.69334404374771
 20
33.41545066004471
 30
0.0
  0
VERTEX
  5
E08
  8
LAYER_1
 10
50.75637319307529
 20
33.40852579450252
 30
0.0
  0
VERTEX
  5
E09
  8
LAYER_1
 10
50.89512525978542
 20
33.37248939468056
 30
0.0
  0
VERTEX
  5
E0A
  8
LAYER_1
 10
50.99605322471235
 20
33.34506228571772
 30
0.0
  0
VERTEX
  5
E0B
  8
LAYER_1
 10
51.0942202930844
 20
33.33024531947716
 30
0.0
  0
VERTEX
  5
E0C
  8
LAYER_1
 10
51.18943562175548
 20
33.32800355717768
 30
0.0
  0
VERTEX
  5
E0D
  8
LAYER_1
 10
51.28150836757948
 20
33.33830206003807
 30
0.0
  0
VERTEX
  5
E0E
  8
LAYER_1
 10
51.37024768741031
 20
33.36110588927715
 30
0.0
  0
VERTEX
  5
E0F
  8
LAYER_1
 10
51.45546273810189
 20
33.39638010611368
 30
0.0
  0
VERTEX
  5
E10
  8
LAYER_1
 10
51.5369626765081
 20
33.44408977176648
 30
0.0
  0
VERTEX
  5
E11
  8
LAYER_1
 10
51.61455665948286
 20
33.50419994745434
 30
0.0
  0
VERTEX
  5
E12
  8
LAYER_1
 10
51.74160829280403
 20
33.6156535019261
 30
0.0
  0
VERTEX
  5
E13
  8
LAYER_1
 10
51.69487309691738
 20
54.53727994197658
 30
0.0
  0
VERTEX
  5
E14
  8
LAYER_1
 10
51.47866620746044
 20
54.75348683143255
 30
0.0
  0
VERTEX
  5
E15
  8
LAYER_1
 10
50.80808558998896
 20
54.82845858780851
 30
0.0
  0
VERTEX
  5
E16
  8
LAYER_1
 10
50.26748818830494
 20
54.90312543122737
 30
0.0
  0
VERTEX
  5
E17
  8
LAYER_1
 10
50.05089437014751
 20
54.94274126811413
 30
0.0
  0
VERTEX
  5
E18
  8
LAYER_1
 10
49.90942040879055
 20
54.97736409900432
 30
0.0
  0
VERTEX
  5
E19
  8
LAYER_1
 10
49.68133584506363
 20
55.05129785382417
 30
0.0
  0
VERTEX
  5
E1A
  8
LAYER_1
 10
48.89761103625082
 20
55.0405475548466
 30
0.0
  0
VERTEX
  5
E1B
  8
LAYER_1
 10
48.53305253558787
 20
55.02930053106731
 30
0.0
  0
VERTEX
  5
E1C
  8
LAYER_1
 10
48.25910587104539
 20
55.00606693304209
 30
0.0
  0
VERTEX
  5
E1D
  8
LAYER_1
 10
48.06608725500688
 20
54.96960889327435
 30
0.0
  0
VERTEX
  5
E1E
  8
LAYER_1
 10
47.99689978154643
 20
54.94603387414435
 30
0.0
  0
VERTEX
  5
E1F
  8
LAYER_1
 10
47.94431289985579
 20
54.9186885442675
 30
0.0
  0
VERTEX
  5
E20
  8
LAYER_1
 10
47.86638502571961
 20
54.87870760437282
 30
0.0
  0
VERTEX
  5
E21
  8
LAYER_1
 10
47.77955931466178
 20
54.8519837995106
 30
0.0
  0
VERTEX
  5
E22
  8
LAYER_1
 10
47.69442564082536
 20
54.84084862130662
 30
0.0
  0
VERTEX
  5
E23
  8
LAYER_1
 10
47.62157387835339
 20
54.84763356138666
 30
0.0
  0
VERTEX
  5
E24
  8
LAYER_1
 10
47.5460883562826
 20
54.85483115737146
 30
0.0
  0
VERTEX
  5
E25
  8
LAYER_1
 10
47.45378355482558
 20
54.84481954722501
 30
0.0
  0
VERTEX
  5
E26
  8
LAYER_1
 10
47.35634457488928
 20
54.81975862308796
 30
0.0
  0
VERTEX
  5
E27
  8
LAYER_1
 10
47.2654565173806
 20
54.78180827710094
 30
0.0
  0
VERTEX
  5
E28
  8
LAYER_1
 10
47.09615649970715
 20
54.70689549532193
 30
0.0
  0
VERTEX
  5
E29
  8
LAYER_1
 10
47.02444743507728
 20
54.68400113186817
 30
0.0
  0
VERTEX
  5
E2A
  8
LAYER_1
 10
46.97411198967255
 20
54.67546720845803
 30
0.0
  0
VERTEX
  5
E2B
  8
LAYER_1
 10
46.91060497325275
 20
54.66435863569413
 30
0.0
  0
VERTEX
  5
E2C
  8
LAYER_1
 10
46.85061721171235
 20
54.63331639248928
 30
0.0
  0
VERTEX
  5
E2D
  8
LAYER_1
 10
46.79567387970542
 20
54.58475015983695
 30
0.0
  0
VERTEX
  5
E2E
  8
LAYER_1
 10
46.74730015188606
 20
54.52106961873063
 30
0.0
  0
VERTEX
  5
E2F
  8
LAYER_1
 10
46.70702120290832
 20
54.44468445016378
 30
0.0
  0
VERTEX
  5
E30
  8
LAYER_1
 10
46.67636220742629
 20
54.35800433512989
 30
0.0
  0
VERTEX
  5
E31
  8
LAYER_1
 10
46.65684834009404
 20
54.26343895462242
 30
0.0
  0
VERTEX
  5
E32
  8
LAYER_1
 10
46.65000477556565
 20
54.16339798963483
 30
0.0
  0
VERTEX
  5
E33
  8
LAYER_1
 10
46.65000471719459
 20
53.8875051215291
 30
0.0
  0
VERTEX
  5
E34
  8
LAYER_1
 10
45.29560459029416
 20
52.0125050470233
 30
0.0
  0
VERTEX
  5
E35
  8
LAYER_1
 10
44.95672512614225
 20
51.5350411593008
 30
0.0
  0
VERTEX
  5
E36
  8
LAYER_1
 10
44.55878807550002
 20
51.00761854248362
 30
0.0
  0
VERTEX
  5
E37
  8
LAYER_1
 10
44.07791909489266
 20
50.41004111459732
 30
0.0
  0
VERTEX
  5
E38
  8
LAYER_1
 10
43.53799252779498
 20
49.76250495761633
 30
0.0
  0
VERTEX
  5
E39
  8
LAYER_1
 10
43.49664768902191
 20
49.72500495612621
 30
0.0
  0
VERTEX
  5
E3A
  8
LAYER_1
 10
43.40699102766959
 20
49.59387213841546
 30
0.0
  0
VERTEX
  5
E3B
  8
LAYER_1
 10
43.24949223248258
 20
49.33125494047999
 30
0.0
  0
VERTEX
  5
E3C
  8
LAYER_1
 10
43.16441176035017
 20
49.19292973967094
 30
0.0
  0
VERTEX
  5
E3D
  8
LAYER_1
 10
43.08489894265275
 20
49.07965336798225
 30
0.0
  0
VERTEX
  5
E3E
  8
LAYER_1
 10
43.01985603795428
 20
49.0031152790034
 30
0.0
  0
VERTEX
  5
E3F
  8
LAYER_1
 10
42.99554275878091
 20
48.98227604477688
 30
0.0
  0
VERTEX
  5
E40
  8
LAYER_1
 10
42.97818530481875
 20
48.97500492632389
 30
0.0
  0
VERTEX
  5
E41
  8
LAYER_1
 10
42.91268899492118
 20
48.97500492632389
 30
0.0
  0
VERTEX
  5
E42
  8
LAYER_1
 10
42.09043639298392
 20
49.91250496357679
 30
0.0
  0
VERTEX
  5
E43
  8
LAYER_1
 10
39.30000454187393
 20
53.64292135815671
 30
0.0
  0
VERTEX
  5
E44
  8
LAYER_1
 10
39.30000454187393
 20
54.08396325250891
 30
0.0
  0
VERTEX
  5
E45
  8
LAYER_1
 10
39.29287929335884
 20
54.3030793913631
 30
0.0
  0
VERTEX
  5
E46
  8
LAYER_1
 10
39.26866285415918
 20
54.46300641570781
 30
0.0
  0
VERTEX
  5
E47
  8
LAYER_1
 10
39.24881386290215
 20
54.5260712229146
 30
0.0
  0
VERTEX
  5
E48
  8
LAYER_1
 10
39.22309418379339
 20
54.58069540706462
 30
0.0
  0
VERTEX
  5
E49
  8
LAYER_1
 10
39.19097118677271
 20
54.62899785334805
 30
0.0
  0
VERTEX
  5
E4A
  8
LAYER_1
 10
39.1519122417799
 20
54.67309744695513
 30
0.0
  0
VERTEX
  5
E4B
  8
LAYER_1
 10
39.06974383097821
 20
54.74440038538683
 30
0.0
  0
VERTEX
  5
E4C
  8
LAYER_1
 10
38.9808736692214
 20
54.80082336770946
 30
0.0
  0
VERTEX
  5
E4D
  8
LAYER_1
 10
38.88557541791083
 20
54.84231658903531
 30
0.0
  0
VERTEX
  5
E4E
  8
LAYER_1
 10
38.78412273844787
 20
54.86883024447671
 30
0.0
  0
VERTEX
  5
E4F
  8
LAYER_1
 10
38.67678929223386
 20
54.88031452914598
 30
0.0
  0
VERTEX
  5
E50
  8
LAYER_1
 10
38.56384874067017
 20
54.87671963815544
 30
0.0
  0
VERTEX
  5
E51
  8
LAYER_1
 10
38.44557474515813
 20
54.85799576661738
 30
0.0
  0
VERTEX
  5
E52
  8
LAYER_1
 10
38.32224096709912
 20
54.82409310964414
 30
0.0
  0
VERTEX
  5
E53
  8
LAYER_1
 10
38.17012379808916
 20
54.78123920406528
 30
0.0
  0
VERTEX
  5
E54
  8
LAYER_1
 10
38.04646797085339
 20
54.76643639107361
 30
0.0
  0
VERTEX
  5
E55
  8
LAYER_1
 10
37.93288186908538
 20
54.77955403168854
 30
0.0
  0
VERTEX
  5
E56
  8
LAYER_1
 10
37.81097387647871
 20
54.82046148692945
 30
0.0
  0
VERTEX
  5
E57
  8
LAYER_1
 10
37.67703956127528
 20
54.85805611320513
 30
0.0
  0
VERTEX
  5
E58
  8
LAYER_1
 10
37.49891253757774
 20
54.87763255142911
 30
0.0
  0
VERTEX
  5
E59
  8
LAYER_1
 10
37.27427770466061
 20
54.87931298746433
 30
0.0
  0
VERTEX
  5
E5A
  8
LAYER_1
 10
37.00081996179841
 20
54.86321960717376
 30
0.0
  0
VERTEX
  5
E5B
  8
LAYER_1
 10
36.69653861547565
 20
54.8449954630711
 30
0.0
  0
VERTEX
  5
E5C
  8
LAYER_1
 10
36.30295186664443
 20
54.8316940253108
 30
0.0
  0
VERTEX
  5
E5D
  8
LAYER_1
 10
35.87090517636442
 20
54.82457298326508
 30
0.0
  0
VERTEX
  5
E5E
  8
LAYER_1
 10
35.45124400569523
 20
54.82489002630615
 30
0.0
  0
VERTEX
  5
E5F
  8
LAYER_1
 10
34.48998358425544
 20
54.83569079085211
 30
0.0
  0
VERTEX
  5
E60
  8
LAYER_1
 10
34.12500433623791
 20
54.59654720272567
 30
0.0
  0
VERTEX
  5
E61
  8
LAYER_1
 10
34.11242194640245
 20
48.26250489801168
 30
0.0
  0
VERTEX
  5
E62
  8
LAYER_1
 10
34.06225434904229
 20
47.40000486373901
 30
0.0
  0
VERTEX
  5
E63
  8
LAYER_1
 10
34.04703646183562
 20
46.96746578405146
 30
0.0
  0
VERTEX
  5
E64
  8
LAYER_1
 10
34.04268714753925
 20
46.42734857508913
 30
0.0
  0
VERTEX
  5
E65
  8
LAYER_1
 10
34.04908052540547
 20
45.84855948959012
 30
0.0
  0
VERTEX
  5
E66
  8
LAYER_1
 10
34.0660907146866
 20
45.30000478029251
 30
0.0
  0
VERTEX
  5
E67
  8
LAYER_1
 10
34.12009467769104
 20
44.06250473111868
 30
0.0
  0
VERTEX
  5
E68
  8
LAYER_1
 10
34.13307134764871
 20
33.86250432580709
 30
0.0
  0
VERTEX
  5
E69
  8
LAYER_1
 10
34.17210770579716
 20
33.70395712072583
 30
0.0
  0
VERTEX
  5
E6A
  8
LAYER_1
 10
34.2032396055289
 20
33.64232437705304
 30
0.0
  0
VERTEX
  5
E6B
  8
LAYER_1
 10
34.26303401967009
 20
33.58276518685562
 30
0.0
  0
VERTEX
  5
E6C
  8
LAYER_1
 10
34.34691287907184
 20
33.52717329366538
 30
0.0
  0
VERTEX
  5
E6D
  8
LAYER_1
 10
34.45029811458529
 20
33.47744244101416
 30
0.0
  0
VERTEX
  5
E6E
  8
LAYER_1
 10
34.56861165706156
 20
33.43546637243375
 30
0.0
  0
VERTEX
  5
E6F
  8
LAYER_1
 10
34.69727543735177
 20
33.40313883145598
 30
0.0
  0
VERTEX
  5
E70
  8
LAYER_1
 10
34.83171138630703
 20
33.38235356161265
 30
0.0
  0
VERTEX
  5
E71
  8
LAYER_1
 10
34.96734143477849
 20
33.37500430643559
 30
0.0
  0
VERTEX
  5
E72
  8
LAYER_1
 10
35.054700853778
 20
33.3635339011183
 30
0.0
  0
VERTEX
  5
E73
  8
LAYER_1
 10
35.15400321863936
 20
33.33230259951183
 30
0.0
  0
VERTEX
  5
E74
  8
LAYER_1
 10
35.253034437685
 20
33.28608027313425
 30
0.0
  0
VERTEX
  5
E75
  8
LAYER_1
 10
35.33958041923736
 20
33.22963679350364
 30
0.0
  0
VERTEX
  5
E76
  8
LAYER_1
 10
35.44178388681911
 20
33.16839552429023
 30
0.0
  0
VERTEX
  5
E77
  8
LAYER_1
 10
35.57499480671834
 20
33.11777510064991
 30
0.0
  0
VERTEX
  5
E78
  8
LAYER_1
 10
35.72896463885051
 20
33.08089802176008
 30
0.0
  0
SEQEND
  5
EA5
  8
LAYER_1
  0
POLYLINE
  5
7C
  8
LAYER_1
 66
     1
 10
0.0
 20
0.0
 30
0.0
 70
     1
  0
VERTEX
  5
E79
  8
LAYER_1
 10
24.59902975922543
 20
42.50120059378625
 30
0.0
  0
VERTEX
  5
E7A
  8
LAYER_1
 10
24.59805556070245
 20
42.63750467449427
 30
0.0
  0
VERTEX
  5
E7B
  8
LAYER_1
 10
24.27040133497235
 20
43.42500470578671
 30
0.0
  0
VERTEX
  5
E7C
  8
LAYER_1
 10
23.68459561280075
 20
44.84318125687808
 30
0.0
  0
VERTEX
  5
E7D
  8
LAYER_1
 10
23.42097566137808
 20
45.52500478923321
 30
0.0
  0
VERTEX
  5
E7E
  8
LAYER_1
 10
23.27008429114446
 20
45.93750480562449
 30
0.0
  0
VERTEX
  5
E7F
  8
LAYER_1
 10
22.99185547923817
 20
45.0375047698617
 30
0.0
  0
VERTEX
  5
E80
  8
LAYER_1
 10
22.49431526634653
 20
43.4623192575245
 30
0.0
  0
VERTEX
  5
E81
  8
LAYER_1
 10
22.27500386536121
 20
42.7871337809501
 30
0.0
  0
VERTEX
  5
E82
  8
LAYER_1
 10
22.27500386536121
 20
42.54037124680833
 30
0.0
  0
VERTEX
  5
E83
  8
LAYER_1
 10
24.3375039473176
 20
42.43863200993992
 30
0.0
  0
VERTEX
  5
E84
  8
LAYER_1
 10
24.46875395253301
 20
42.40176426150907
 30
0.0
  0
VERTEX
  5
E85
  8
LAYER_1
 10
24.52741156940181
 20
42.39334256235122
 30
0.0
  0
VERTEX
  5
E86
  8
LAYER_1
 10
24.56810615327736
 20
42.40667253433297
 30
0.0
  0
VERTEX
  5
E87
  8
LAYER_1
 10
24.59169358845384
 20
42.44240745297206
 30
0.0
  0
SEQEND
  5
EA6
  8
LAYER_1
  0
POLYLINE
  5
7D
  8
LAYER_1
 66
     1
 10
0.0
 20
0.0
 30
0.0
 70
     1
  0
VERTEX
  5
E88
  8
LAYER_1
 10
62.73750547319651
 20
46.2252209752386
 30
0.0
  0
VERTEX
  5
E89
  8
LAYER_1
 10
63.63750550895929
 20
46.31250482052565
 30
0.0
  0
VERTEX
  5
E8A
  8
LAYER_1
 10
63.65826340221923
 20
46.83750484138727
 30
0.0
  0
VERTEX
  5
E8B
  8
LAYER_1
 10
63.49895906170406
 20
50.0101859146976
 30
0.0
  0
VERTEX
  5
E8C
  8
LAYER_1
 10
62.25573223317761
 20
50.06553729790359
 30
0.0
  0
VERTEX
  5
E8D
  8
LAYER_1
 10
61.67854809551409
 20
50.08317542471066
 30
0.0
  0
VERTEX
  5
E8E
  8
LAYER_1
 10
61.02604101855752
 20
50.0902824764268
 30
0.0
  0
VERTEX
  5
E8F
  8
LAYER_1
 10
60.37828580605745
 20
50.08664479671176
 30
0.0
  0
VERTEX
  5
E90
  8
LAYER_1
 10
59.81535726176338
 20
50.0720487292253
 30
0.0
  0
VERTEX
  5
E91
  8
LAYER_1
 10
58.61820911887563
 20
50.02320877734101
 30
0.0
  0
VERTEX
  5
E92
  8
LAYER_1
 10
58.5162737712962
 20
49.91250496357679
 30
0.0
  0
VERTEX
  5
E93
  8
LAYER_1
 10
58.45135056956823
 20
46.29681793617738
 30
0.0
  0
VERTEX
  5
E94
  8
LAYER_1
 10
59.39442797369864
 20
46.2487155127874
 30
0.0
  0
VERTEX
  5
E95
  8
LAYER_1
 10
59.8552947507837
 20
46.23100910170159
 30
0.0
  0
VERTEX
  5
E96
  8
LAYER_1
 10
60.41297640437285
 20
46.21835745950114
 30
0.0
  0
VERTEX
  5
E97
  8
LAYER_1
 10
61.53750542551279
 20
46.212917032318
 30
0.0
  0
SEQEND
  5
EA7
  8
LAYER_1
  0
ENDSEC
  0
EOF
