  0
SECTION
  2
HEADER
  9
$ACADVER
  1
AC1009
  9
$DWGCODEPAGE
  3
ansi_1252
  9
$INSBASE
 10
0.0
 20
0.0
 30
0.0
  9
$EXTMIN
 10
-70.71819000746592
 20
-72.74911152798349
 30
0.0
  9
$EXTMAX
 10
70.1343
 20
72.7572
 30
0.0
  9
$LIMMIN
 10
0.0
 20
0.0
  9
$LIMMAX
 10
12.0
 20
9.0
  9
$ORTHOMODE
 70
     0
  9
$REGENMODE
 70
     1
  9
$FILLMODE
 70
     1
  9
$QTEXTMODE
 70
     0
  9
$MIRRTEXT
 70
     1
  9
$DRAGMODE
 70
     2
  9
$LTSCALE
 40
1.0
  9
$OSMODE
 70
    37
  9
$ATTMODE
 70
     1
  9
$TEXTSIZE
 40
0.2
  9
$TRACEWID
 40
0.05
  9
$TEXTSTYLE
  7
STANDARD
  9
$CLAYER
  8
0
  9
$CELTYPE
  6
BYLAYER
  9
$CECOLOR
 62
   256
  9
$DIMSCALE
 40
1.0
  9
$DIMASZ
 40
0.18
  9
$DIMEXO
 40
0.0625
  9
$DIMDLI
 40
0.38
  9
$DIMRND
 40
0.0
  9
$DIMDLE
 40
0.0
  9
$DIMEXE
 40
0.18
  9
$DIMTP
 40
0.0
  9
$DIMTM
 40
0.0
  9
$DIMTXT
 40
0.18
  9
$DIMCEN
 40
0.09
  9
$DIMTSZ
 40
0.0
  9
$DIMTOL
 70
     0
  9
$DIMLIM
 70
     0
  9
$DIMTIH
 70
     1
  9
$DIMTOH
 70
     1
  9
$DIMSE1
 70
     0
  9
$DIMSE2
 70
     0
  9
$DIMTAD
 70
     0
  9
$DIMZIN
 70
     0
  9
$DIMBLK
  1

  9
$DIMASO
 70
     1
  9
$DIMSHO
 70
     1
  9
$DIMPOST
  1

  9
$DIMAPOST
  1

  9
$DIMALT
 70
     0
  9
$DIMALTD
 70
     2
  9
$DIMALTF
 40
25.4
  9
$DIMLFAC
 40
1.0
  9
$DIMTOFL
 70
     0
  9
$DIMTVP
 40
0.0
  9
$DIMTIX
 70
     0
  9
$DIMSOXD
 70
     0
  9
$DIMSAH
 70
     0
  9
$DIMBLK1
  1

  9
$DIMBLK2
  1

  9
$DIMSTYLE
  2
STANDARD
  9
$DIMCLRD
 70
     0
  9
$DIMCLRE
 70
     0
  9
$DIMCLRT
 70
     0
  9
$DIMTFAC
 40
1.0
  9
$DIMGAP
 40
0.09
  9
$LUNITS
 70
     2
  9
$LUPREC
 70
     4
  9
$SKETCHINC
 40
0.1
  9
$FILLETRAD
 40
0.5
  9
$AUNITS
 70
     0
  9
$AUPREC
 70
     0
  9
$MENU
  1
.
  9
$ELEVATION
 40
0.0
  9
$PELEVATION
 40
0.0
  9
$THICKNESS
 40
0.0
  9
$LIMCHECK
 70
     0
  9
$CHAMFERA
 40
0.0
  9
$CHAMFERB
 40
0.0
  9
$SKPOLY
 70
     0
  9
$TDCREATE
 40
2454910.5
  9
$TDUPDATE
 40
2457651.6885861
  9
$TDINDWG
 40
0.0000000116
  9
$TDUSRTIMER
 40
0.0000000116
  9
$USRTIMER
 70
     1
  9
$ANGBASE
 50
0.0
  9
$ANGDIR
 70
     0
  9
$PDMODE
 70
     0
  9
$PDSIZE
 40
0.0
  9
$PLINEWID
 40
0.0
  9
$COORDS
 70
     1
  9
$SPLFRAME
 70
     0
  9
$SPLINETYPE
 70
     6
  9
$SPLINESEGS
 70
     8
  9
$ATTDIA
 70
     0
  9
$ATTREQ
 70
     1
  9
$HANDLING
 70
     1
  9
$HANDSEED
  5
304
  9
$SURFTAB1
 70
     6
  9
$SURFTAB2
 70
     6
  9
$SURFTYPE
 70
     6
  9
$SURFU
 70
     6
  9
$SURFV
 70
     6
  9
$UCSNAME
  2

  9
$UCSORG
 10
0.0
 20
0.0
 30
0.0
  9
$UCSXDIR
 10
1.0
 20
0.0
 30
0.0
  9
$UCSYDIR
 10
0.0
 20
1.0
 30
0.0
  9
$PUCSNAME
  2

  9
$PUCSORG
 10
0.0
 20
0.0
 30
0.0
  9
$PUCSXDIR
 10
1.0
 20
0.0
 30
0.0
  9
$PUCSYDIR
 10
0.0
 20
1.0
 30
0.0
  9
$USERI1
 70
     0
  9
$USERI2
 70
     0
  9
$USERI3
 70
     0
  9
$USERI4
 70
     0
  9
$USERI5
 70
     0
  9
$USERR1
 40
0.0
  9
$USERR2
 40
0.0
  9
$USERR3
 40
0.0
  9
$USERR4
 40
0.0
  9
$USERR5
 40
0.0
  9
$WORLDVIEW
 70
     1
  9
$SHADEDGE
 70
     3
  9
$SHADEDIF
 70
    70
  9
$TILEMODE
 70
     1
  9
$MAXACTVP
 70
    64
  9
$PLIMCHECK
 70
     0
  9
$PEXTMIN
 10
1.000000000000000E+20
 20
1.000000000000000E+20
 30
1.000000000000000E+20
  9
$PEXTMAX
 10
-1.000000000000000E+20
 20
-1.000000000000000E+20
 30
-1.000000000000000E+20
  9
$PLIMMIN
 10
0.0
 20
0.0
  9
$PLIMMAX
 10
12.0
 20
9.0
  9
$UNITMODE
 70
     0
  9
$VISRETAIN
 70
     1
  9
$PLINEGEN
 70
     0
  9
$PSLTSCALE
 70
     1
  0
ENDSEC
  0
SECTION
  2
TABLES
  0
TABLE
  2
VPORT
 70
     1
  0
VPORT
  2
*ACTIVE
 70
     0
 10
0.0
 20
0.0
 11
1.0
 21
1.0
 12
10.42990654205607
 22
4.5
 13
0.0
 23
0.0
 14
0.5
 24
0.5
 15
0.5
 25
0.5
 16
0.0
 26
0.0
 36
1.0
 17
0.0
 27
0.0
 37
0.0
 40
9.0
 41
1.972972972850329
 42
50.0
 43
0.0
 44
0.0
 50
0.0
 51
0.0
 71
     0
 72
   100
 73
     1
 74
     3
 75
     0
 76
     0
 77
     0
 78
     0
  0
ENDTAB
  0
TABLE
  2
LTYPE
 70
     2
  0
LTYPE
  2
CONTINUOUS
 70
     0
  3
Solid line
 72
    65
 73
     0
 40
0.0
  0
LTYPE
  2
CONTINUOUS2
 70
     0
  3
Solid Line
 72
    65
 73
     0
 40
0.0
  0
ENDTAB
  0
TABLE
  2
LAYER
 70
     2
  0
LAYER
  2
0
 70
     0
 62
     7
  6
CONTINUOUS
  0
LAYER
  2
WORKING
 70
     0
 62
    18
  6
CONTINUOUS
  0
ENDTAB
  0
TABLE
  2
STYLE
 70
     1
  0
STYLE
  2
STANDARD
 70
     0
 40
0.0
 41
1.0
 50
0.0
 71
     0
 42
0.2
  3
txt
  4

  0
ENDTAB
  0
TABLE
  2
VIEW
 70
     0
  0
ENDTAB
  0
TABLE
  2
UCS
 70
     0
  0
ENDTAB
  0
TABLE
  2
APPID
 70
     1
  0
APPID
  2
ACAD
 70
     0
  0
ENDTAB
  0
TABLE
  2
DIMSTYLE
 70
     1
  0
DIMSTYLE
  2
STANDARD
 70
     0
  3

  4

  5

  6

  7

 40
1.0
 41
0.18
 42
0.0625
 43
0.38
 44
0.18
 45
0.0
 46
0.0
 47
0.0
 48
0.0
140
0.18
141
0.09
142
0.0
143
25.4
144
1.0
145
0.0
146
1.0
147
0.09
 71
     0
 72
     0
 73
     1
 74
     1
 75
     0
 76
     0
 77
     0
 78
     0
170
     0
171
     2
172
     0
173
     0
174
     0
175
     0
176
     0
177
     0
178
     0
  0
ENDTAB
  0
ENDSEC
  0
SECTION
  2
BLOCKS
  0
BLOCK
  8
0
  2
$MODEL_SPACE
 70
     0
 10
0.0
 20
0.0
 30
0.0
  3
$MODEL_SPACE
  1

  0
ENDBLK
  5
21
  8
0
  0
BLOCK
 67
     1
  8
0
  2
$PAPER_SPACE
 70
     0
 10
0.0
 20
0.0
 30
0.0
  3
$PAPER_SPACE
  1

  0
ENDBLK
  5
1D
 67
     1
  8
0
  0
ENDSEC
  0
SECTION
  2
ENTITIES
  0
POLYLINE
  5
70
  8
WORKING
 66
     1
 10
0.0
 20
0.0
 30
0.0
 70
     1
  0
VERTEX
  5
8B
  8
WORKING
 10
-0.2027999999999963
 20
-48.9064
 30
0.0
 42
-0.0019818563681061
  0
VERTEX
  5
8C
  8
WORKING
 10
-0.2857929208726588
 20
-43.89413871681428
 30
0.0
 42
0.0018450229910322
  0
VERTEX
  5
8D
  8
WORKING
 10
-0.3671185953943166
 20
-37.80185494944246
 30
0.0
 42
0.239400298714063
  0
VERTEX
  5
8E
  8
WORKING
 10
-0.4703458620267185
 20
-37.60691476253214
 30
0.0
 42
-0.0481668706912581
  0
VERTEX
  5
8F
  8
WORKING
 10
-1.130108654510224
 20
-37.03970811220854
 30
0.0
 42
0.0864761260019623
  0
VERTEX
  5
90
  8
WORKING
 10
-9.237332105589324
 20
-31.08076771416625
 30
0.0
 42
0.0299831527741374
  0
VERTEX
  5
91
  8
WORKING
 10
-15.41303068647608
 20
-28.45973886525483
 30
0.0
 42
0.0365215393619997
  0
VERTEX
  5
92
  8
WORKING
 10
-20.44372134266566
 20
-27.07605161754805
 30
0.0
 42
0.0354007405257028
  0
VERTEX
  5
93
  8
WORKING
 10
-25.78424296294451
 20
-26.40699821717145
 30
0.0
 42
0.2210933979589701
  0
VERTEX
  5
94
  8
WORKING
 10
-26.25750177373855
 20
-26.59675324081037
 30
0.0
 42
-0.0234978252516812
  0
VERTEX
  5
95
  8
WORKING
 10
-27.70039015083312
 20
-27.99455422835351
 30
0.0
 42
-0.0030537741506569
  0
VERTEX
  5
96
  8
WORKING
 10
-30.53926219824578
 20
-30.46657758309608
 30
0.0
 42
0.0014473207980562
  0
VERTEX
  5
97
  8
WORKING
 10
-32.66606191812676
 20
-32.20946721173542
 30
0.0
 42
0.2329091505666707
  0
VERTEX
  5
98
  8
WORKING
 10
-32.6728959865138
 20
-32.22576644461778
 30
0.0
  0
VERTEX
  5
99
  8
WORKING
 10
-32.65292335960996
 20
-32.22470901689901
 30
0.0
 42
-0.0381022562944111
  0
VERTEX
  5
9A
  8
WORKING
 10
-21.70060017198589
 20
-34.43716360484463
 30
0.0
 42
-0.1352023089752693
  0
VERTEX
  5
9B
  8
WORKING
 10
-7.248329752814765
 20
-41.81692145683914
 30
0.0
 42
-0.0295699499739872
  0
VERTEX
  5
9C
  8
WORKING
 10
-4.007684989638001
 20
-45.15369850825554
 30
0.0
 42
-0.022353447606523
  0
SEQEND
  5
2F0
  8
WORKING
  0
POLYLINE
  5
71
  8
WORKING
 66
     1
 10
0.0
 20
0.0
 30
0.0
 70
     1
  0
VERTEX
  5
9D
  8
WORKING
 10
-0.4300999999999995
 20
-36.22220000000001
 30
0.0
 42
-0.0021158815385663
  0
VERTEX
  5
9E
  8
WORKING
 10
-0.5094191333623819
 20
-30.01612768937292
 30
0.0
 42
0.0019008250208557
  0
VERTEX
  5
9F
  8
WORKING
 10
-0.7703889576474372
 20
-24.53002183673982
 30
0.0
 42
0.1966811093749623
  0
VERTEX
  5
A0
  8
WORKING
 10
-0.8754796120799637
 20
-24.28458293180185
 30
0.0
 42
-0.0309620649907718
  0
VERTEX
  5
A1
  8
WORKING
 10
-1.580934341891556
 20
-23.497966743356
 30
0.0
 42
0.1607068727098054
  0
VERTEX
  5
A2
  8
WORKING
 10
-9.746598545229388
 20
-17.99198283406677
 30
0.0
 42
0.0557010067410222
  0
VERTEX
  5
A3
  8
WORKING
 10
-16.35296497673627
 20
-16.97338603274307
 30
0.0
 42
0.2763047929410791
  0
VERTEX
  5
A4
  8
WORKING
 10
-16.52504272647337
 20
-17.06682697444376
 30
0.0
 42
-0.0589417137162388
  0
VERTEX
  5
A5
  8
WORKING
 10
-16.99184991701841
 20
-17.67844015805721
 30
0.0
 42
-0.0059245835896621
  0
VERTEX
  5
A6
  8
WORKING
 10
-22.27317249150549
 20
-23.00092064514261
 30
0.0
 42
-0.0108321306165146
  0
VERTEX
  5
A7
  8
WORKING
 10
-24.89793089167138
 20
-25.09383764133733
 30
0.0
  0
VERTEX
  5
A8
  8
WORKING
 10
-24.89991363242859
 20
-25.1137441923751
 30
0.0
 42
0.0408347544663425
  0
VERTEX
  5
A9
  8
WORKING
 10
-23.3604833772245
 20
-25.17554116587924
 30
0.0
 42
-0.0453181753930018
  0
VERTEX
  5
AA
  8
WORKING
 10
-17.20527065502982
 20
-25.47782895428807
 30
0.0
 42
-0.1113071021001051
  0
VERTEX
  5
AB
  8
WORKING
 10
-7.397934032350009
 20
-29.18443324729506
 30
0.0
 42
-0.0561730684734404
  0
VERTEX
  5
AC
  8
WORKING
 10
-3.254632725528815
 20
-32.94129909220925
 30
0.0
 42
-0.0131262082846521
  0
VERTEX
  5
AD
  8
WORKING
 10
-1.929592837076285
 20
-34.40111470497788
 30
0.0
 42
-0.0109694897486207
  0
SEQEND
  5
2F1
  8
WORKING
  0
POLYLINE
  5
72
  8
WORKING
 66
     1
 10
0.0
 20
0.0
 30
0.0
 70
     1
  0
VERTEX
  5
AE
  8
WORKING
 10
-1.5473
 20
-1.183899999999999
 30
0.0
  0
VERTEX
  5
AF
  8
WORKING
 10
-12.5223
 20
-1.005399999999999
 30
0.0
 42
-0.1461129439819218
  0
VERTEX
  5
B0
  8
WORKING
 10
-10.33441306937372
 20
-5.151688196485074
 30
0.0
 42
-0.0884715575194126
  0
VERTEX
  5
B1
  8
WORKING
 10
-9.89635937569847
 20
-8.886738620794945
 30
0.0
 42
0.0106580200526567
  0
VERTEX
  5
B2
  8
WORKING
 10
-5.90006201127284
 20
-5.170222337759926
 30
0.0
 42
-0.0098952007899464
  0
SEQEND
  5
2F2
  8
WORKING
  0
POLYLINE
  5
73
  8
WORKING
 66
     1
 10
0.0
 20
0.0
 30
0.0
 70
     1
  0
VERTEX
  5
B3
  8
WORKING
 10
-22.76767039304142
 20
-1.119629600095345
 30
0.0
 42
-0.0695207680355579
  0
VERTEX
  5
B4
  8
WORKING
 10
-20.20578366459898
 20
-4.714272831969053
 30
0.0
 42
-0.1346760009148815
  0
VERTEX
  5
B5
  8
WORKING
 10
-17.12801448040988
 20
-13.01889954380589
 30
0.0
 42
-0.0220738113112827
  0
VERTEX
  5
B6
  8
WORKING
 10
-17.14235100411722
 20
-14.07701705148984
 30
0.0
 42
0.024235048161341
  0
VERTEX
  5
B7
  8
WORKING
 10
-17.15211617569845
 20
-15.13518662079493
 30
0.0
 42
-0.0029406939781171
  0
VERTEX
  5
B8
  8
WORKING
 10
-14.12014531348154
 20
-12.54656743467091
 30
0.0
 42
0.0030769546832428
  0
VERTEX
  5
B9
  8
WORKING
 10
-11.2329998019363
 20
-9.767153538636098
 30
0.0
 42
0.3039898194846814
  0
VERTEX
  5
BA
  8
WORKING
 10
-11.18951046038854
 20
-9.605798423024838
 30
0.0
 42
-0.0593703230136573
  0
VERTEX
  5
BB
  8
WORKING
 10
-11.32472361259818
 20
-8.966261523504256
 30
0.0
 42
0.0610638644798821
  0
VERTEX
  5
BC
  8
WORKING
 10
-12.379685765394
 20
-4.058359752965551
 30
0.0
 42
0.0928841918650991
  0
VERTEX
  5
BD
  8
WORKING
 10
-13.78854469571822
 20
-1.414553232794472
 30
0.0
 42
0.2748085577265155
  0
VERTEX
  5
BE
  8
WORKING
 10
-13.99670625069223
 20
-1.343196952751605
 30
0.0
 42
-0.0550147350648966
  0
VERTEX
  5
BF
  8
WORKING
 10
-14.85698863391527
 20
-1.426227996879322
 30
0.0
 42
0.0000000023254109
  0
VERTEX
  5
C0
  8
WORKING
 10
-18.76624951347835
 20
-1.1807687984874
 30
0.0
 42
0.0000000146809657
  0
SEQEND
  5
2F3
  8
WORKING
  0
POLYLINE
  5
74
  8
WORKING
 66
     1
 10
0.0
 20
0.0
 30
0.0
 70
     1
  0
VERTEX
  5
C1
  8
WORKING
 10
-31.26813519472512
 20
-0.958300000142702
 30
0.0
 42
-0.0561745513877076
  0
VERTEX
  5
C2
  8
WORKING
 10
-26.46647115487964
 20
-8.771484716986194
 30
0.0
 42
-0.19396463536972
  0
VERTEX
  5
C3
  8
WORKING
 10
-25.45015118886232
 20
-22.13407445471286
 30
0.0
 42
-0.0092379326218782
  0
VERTEX
  5
C4
  8
WORKING
 10
-25.56565209950352
 20
-22.47602869547324
 30
0.0
 42
0.0108480306371429
  0
VERTEX
  5
C5
  8
WORKING
 10
-25.6800513649185
 20
-22.81835306095934
 30
0.0
 42
-0.0096788733634384
  0
VERTEX
  5
C6
  8
WORKING
 10
-23.87803195096664
 20
-21.14532686772937
 30
0.0
 42
-0.0029722788329461
  0
VERTEX
  5
C7
  8
WORKING
 10
-18.37650630609033
 20
-16.27370256944632
 30
0.0
 42
0.3385303658188432
  0
VERTEX
  5
C8
  8
WORKING
 10
-18.34289449076052
 20
-16.10865845200409
 30
0.0
 42
-0.0621432039602493
  0
VERTEX
  5
C9
  8
WORKING
 10
-18.55379622445498
 20
-15.48850119651495
 30
0.0
 42
0.0642871655760798
  0
VERTEX
  5
CA
  8
WORKING
 10
-22.06955290987629
 20
-4.481062760892858
 30
0.0
 42
0.0598059157036661
  0
VERTEX
  5
CB
  8
WORKING
 10
-24.51887582604074
 20
-1.130749950556715
 30
0.0
 42
0.2769920185279083
  0
VERTEX
  5
CC
  8
WORKING
 10
-24.70797479578642
 20
-1.06577890244123
 30
0.0
 42
-0.0592026770120034
  0
VERTEX
  5
CD
  8
WORKING
 10
-25.49031987065872
 20
-1.137343903963827
 30
0.0
 42
0.0000000206342897
  0
VERTEX
  5
CE
  8
WORKING
 10
-28.07694273269192
 20
-1.047821952053151
 30
0.0
 42
-0.0000000018348565
  0
SEQEND
  5
2F4
  8
WORKING
  0
POLYLINE
  5
75
  8
WORKING
 66
     1
 10
0.0
 20
0.0
 30
0.0
 70
     1
  0
VERTEX
  5
CF
  8
WORKING
 10
-45.97019998974911
 20
-1.138600000140465
 30
0.0
 42
-0.2676752149011447
  0
VERTEX
  5
D0
  8
WORKING
 10
-33.47390685239092
 20
-27.37914246716044
 30
0.0
 42
0.0133005443013714
  0
VERTEX
  5
D1
  8
WORKING
 10
-33.63723617569839
 20
-30.92348486079488
 30
0.0
 42
-0.0024690351341529
  0
VERTEX
  5
D2
  8
WORKING
 10
-29.79857100521926
 20
-26.97898212435997
 30
0.0
 42
-0.0035583387290941
  0
VERTEX
  5
D3
  8
WORKING
 10
-26.98518343454269
 20
-24.30507692121637
 30
0.0
 42
0.1694294973708128
  0
VERTEX
  5
D4
  8
WORKING
 10
-26.85554192807421
 20
-24.04152770509409
 30
0.0
 42
-0.0183504039728025
  0
VERTEX
  5
D5
  8
WORKING
 10
-26.67213370100282
 20
-22.89170235415844
 30
0.0
 42
0.1045477460479944
  0
VERTEX
  5
D6
  8
WORKING
 10
-26.36659164351141
 20
-14.62011329937701
 30
0.0
 42
0.0877345992976884
  0
VERTEX
  5
D7
  8
WORKING
 10
-32.4181934553318
 20
-1.318052603577795
 30
0.0
 42
0.317381932150134
  0
VERTEX
  5
D8
  8
WORKING
 10
-32.59956683315462
 20
-1.244704255335216
 30
0.0
 42
-0.0610898672913246
  0
VERTEX
  5
D9
  8
WORKING
 10
-33.35879755852389
 20
-1.327272056469505
 30
0.0
 42
-0.0000003878264755
  0
VERTEX
  5
DA
  8
WORKING
 10
-40.00733397413649
 20
-1.232936028304836
 30
0.0
 42
-0.0000001093692554
  0
SEQEND
  5
2F5
  8
WORKING
  0
POLYLINE
  5
76
  8
WORKING
 66
     1
 10
0.0
 20
0.0
 30
0.0
 70
     1
  0
VERTEX
  5
DB
  8
WORKING
 10
-9.932198815895989
 20
-10.75344093152858
 30
0.0
  0
VERTEX
  5
DC
  8
WORKING
 10
-14.92553057569845
 20
-15.46696262079492
 30
0.0
  0
VERTEX
  5
DD
  8
WORKING
 10
-14.30400312613414
 20
-15.48525870323887
 30
0.0
  0
VERTEX
  5
DE
  8
WORKING
 10
-13.69543659893027
 20
-15.51657456340162
 30
0.0
  0
VERTEX
  5
DF
  8
WORKING
 10
-13.09966709533945
 20
-15.56097129127794
 30
0.0
  0
VERTEX
  5
E0
  8
WORKING
 10
-12.51653071661431
 20
-15.6185099768626
 30
0.0
  0
VERTEX
  5
E1
  8
WORKING
 10
-11.94586356400746
 20
-15.68925171015038
 30
0.0
  0
VERTEX
  5
E2
  8
WORKING
 10
-11.38750173877153
 20
-15.77325758113605
 30
0.0
  0
VERTEX
  5
E3
  8
WORKING
 10
-10.84128134215911
 20
-15.87058867981438
 30
0.0
  0
VERTEX
  5
E4
  8
WORKING
 10
-10.30703847542284
 20
-15.98130609618014
 30
0.0
  0
VERTEX
  5
E5
  8
WORKING
 10
-9.784609239815332
 20
-16.10547092022811
 30
0.0
  0
VERTEX
  5
E6
  8
WORKING
 10
-9.2738297365892
 20
-16.24314424195306
 30
0.0
  0
VERTEX
  5
E7
  8
WORKING
 10
-8.774536066997062
 20
-16.39438715134975
 30
0.0
  0
VERTEX
  5
E8
  8
WORKING
 10
-8.286564332291535
 20
-16.55926073841297
 30
0.0
  0
VERTEX
  5
E9
  8
WORKING
 10
-7.809750633725237
 20
-16.73782609313749
 30
0.0
  0
VERTEX
  5
EA
  8
WORKING
 10
-7.343931072550784
 20
-16.93014430551806
 30
0.0
  0
VERTEX
  5
EB
  8
WORKING
 10
-6.888941750020795
 20
-17.13627646554948
 30
0.0
  0
VERTEX
  5
EC
  8
WORKING
 10
-6.444618767387885
 20
-17.3562836632265
 30
0.0
  0
VERTEX
  5
ED
  8
WORKING
 10
-6.010798225904672
 20
-17.5902269885439
 30
0.0
  0
VERTEX
  5
EE
  8
WORKING
 10
-5.587316226823773
 20
-17.83816753149647
 30
0.0
  0
VERTEX
  5
EF
  8
WORKING
 10
-5.174008871397804
 20
-18.10016638207896
 30
0.0
  0
VERTEX
  5
F0
  8
WORKING
 10
-4.770712260879385
 20
-18.37628463028615
 30
0.0
  0
VERTEX
  5
F1
  8
WORKING
 10
-4.377262496521132
 20
-18.6665833661128
 30
0.0
  0
VERTEX
  5
F2
  8
WORKING
 10
-3.99349567957566
 20
-18.97112367955371
 30
0.0
  0
VERTEX
  5
F3
  8
WORKING
 10
-3.619247911295587
 20
-19.28996666060363
 30
0.0
  0
VERTEX
  5
F4
  8
WORKING
 10
-3.254355292933531
 20
-19.62317339925733
 30
0.0
  0
VERTEX
  5
F5
  8
WORKING
 10
-2.898653925742109
 20
-19.9708049855096
 30
0.0
  0
VERTEX
  5
F6
  8
WORKING
 10
-2.551979910973937
 20
-20.3329225093552
 30
0.0
  0
VERTEX
  5
F7
  8
WORKING
 10
-2.214169349881634
 20
-20.7095870607889
 30
0.0
  0
VERTEX
  5
F8
  8
WORKING
 10
-1.885058343717815
 20
-21.10085972980548
 30
0.0
  0
VERTEX
  5
F9
  8
WORKING
 10
-1.564482993735098
 20
-21.5068016063997
 30
0.0
  0
VERTEX
  5
FA
  8
WORKING
 10
-1.2522794011861
 20
-21.92747378056636
 30
0.0
  0
VERTEX
  5
FB
  8
WORKING
 10
-0.948283667323439
 20
-22.3629373423002
 30
0.0
  0
VERTEX
  5
FC
  8
WORKING
 10
-0.6523318933997309
 20
-22.813253381596
 30
0.0
  0
VERTEX
  5
FD
  8
WORKING
 10
-0.9891828295421599
 20
-14.29097301075697
 30
0.0
  0
VERTEX
  5
FE
  8
WORKING
 10
-1.215021844535306
 20
-14.09002512605965
 30
0.0
  0
VERTEX
  5
FF
  8
WORKING
 10
-1.448000904931113
 20
-13.89361401695358
 30
0.0
  0
VERTEX
  5
100
  8
WORKING
 10
-1.687752007702735
 20
-13.70186923173267
 30
0.0
  0
VERTEX
  5
101
  8
WORKING
 10
-1.93390714982333
 20
-13.51492031869084
 30
0.0
  0
VERTEX
  5
102
  8
WORKING
 10
-2.443957540004059
 20
-13.15592830232008
 30
0.0
  0
VERTEX
  5
103
  8
WORKING
 10
-2.97520805125855
 20
-12.81767435419264
 30
0.0
  0
VERTEX
  5
104
  8
WORKING
 10
-3.524714659372048
 20
-12.50119486065985
 30
0.0
  0
VERTEX
  5
105
  8
WORKING
 10
-4.089533340129803
 20
-12.20752620807306
 30
0.0
  0
VERTEX
  5
106
  8
WORKING
 10
-4.666720069317062
 20
-11.93770478278358
 30
0.0
  0
VERTEX
  5
107
  8
WORKING
 10
-5.253330822719073
 20
-11.69276697114278
 30
0.0
  0
VERTEX
  5
108
  8
WORKING
 10
-5.846421576121084
 20
-11.47374915950197
 30
0.0
  0
VERTEX
  5
109
  8
WORKING
 10
-6.443048305308344
 20
-11.2816877342125
 30
0.0
  0
VERTEX
  5
10A
  8
WORKING
 10
-7.040266986066099
 20
-11.1176190816257
 30
0.0
  0
VERTEX
  5
10B
  8
WORKING
 10
-7.635133594179599
 20
-10.98257958809291
 30
0.0
  0
VERTEX
  5
10C
  8
WORKING
 10
-8.224704105434089
 20
-10.87760563996547
 30
0.0
  0
VERTEX
  5
10D
  8
WORKING
 10
-8.516583317172097
 20
-10.83671711616355
 30
0.0
  0
VERTEX
  5
10E
  8
WORKING
 10
-8.80603449561482
 20
-10.80373362359471
 30
0.0
  0
VERTEX
  5
10F
  8
WORKING
 10
-9.092689637735415
 20
-10.77878471055288
 30
0.0
  0
VERTEX
  5
110
  8
WORKING
 10
-9.376180740507037
 20
-10.76199992533197
 30
0.0
  0
VERTEX
  5
111
  8
WORKING
 10
-9.656139800902842
 20
-10.7535088162259
 30
0.0
  0
SEQEND
  5
2F6
  8
WORKING
  0
POLYLINE
  5
77
  8
WORKING
 66
     1
 10
0.0
 20
0.0
 30
0.0
 70
     1
  0
VERTEX
  5
112
  8
WORKING
 10
-0.9880999999999995
 20
-1.550000000000001
 30
0.0
  0
VERTEX
  5
113
  8
WORKING
 10
-8.976233935698474
 20
-9.452969660794944
 30
0.0
  0
VERTEX
  5
114
  8
WORKING
 10
-7.965544571605315
 20
-9.532440548488704
 30
0.0
  0
VERTEX
  5
115
  8
WORKING
 10
-7.45337749188406
 20
-9.572714146761385
 30
0.0
  0
VERTEX
  5
116
  8
WORKING
 10
-6.937889582953192
 20
-9.619826682345023
 30
0.0
  0
VERTEX
  5
117
  8
WORKING
 10
-6.42000142174284
 20
-9.678638281009942
 30
0.0
  0
VERTEX
  5
118
  8
WORKING
 10
-5.900633585183133
 20
-9.75400906852646
 30
0.0
  0
VERTEX
  5
119
  8
WORKING
 10
-5.380706650204202
 20
-9.8507991706649
 30
0.0
  0
VERTEX
  5
11A
  8
WORKING
 10
-4.861141193736175
 20
-9.973868713195575
 30
0.0
  0
VERTEX
  5
11B
  8
WORKING
 10
-4.601781700234415
 20
-10.04677706391123
 30
0.0
  0
VERTEX
  5
11C
  8
WORKING
 10
-4.34285779270918
 20
-10.12807782188881
 30
0.0
  0
VERTEX
  5
11D
  8
WORKING
 10
-4.084484543276736
 20
-10.21837850284961
 30
0.0
  0
VERTEX
  5
11E
  8
WORKING
 10
-3.826777024053349
 20
-10.31828662251493
 30
0.0
  0
VERTEX
  5
11F
  8
WORKING
 10
-3.569850307155284
 20
-10.42840969660604
 30
0.0
  0
VERTEX
  5
120
  8
WORKING
 10
-3.313819464698808
 20
-10.54935524084424
 30
0.0
  0
VERTEX
  5
121
  8
WORKING
 10
-3.058799568800188
 20
-10.68173077095082
 30
0.0
  0
VERTEX
  5
122
  8
WORKING
 10
-2.804905691575688
 20
-10.82614380264708
 30
0.0
  0
VERTEX
  5
123
  8
WORKING
 10
-2.552252905141577
 20
-10.98320185165429
 30
0.0
  0
VERTEX
  5
124
  8
WORKING
 10
-2.300956281614118
 20
-11.15351243369375
 30
0.0
  0
VERTEX
  5
125
  8
WORKING
 10
-2.051130893109581
 20
-11.33768306448675
 30
0.0
  0
VERTEX
  5
126
  8
WORKING
 10
-1.802891811744228
 20
-11.53632125975458
 30
0.0
  0
VERTEX
  5
127
  8
WORKING
 10
-1.556354109634327
 20
-11.75003453521853
 30
0.0
  0
VERTEX
  5
128
  8
WORKING
 10
-1.311632858896145
 20
-11.97943040659989
 30
0.0
  0
VERTEX
  5
129
  8
WORKING
 10
-1.068843131645947
 20
-12.22511638961995
 30
0.0
  0
VERTEX
  5
12A
  8
WORKING
 10
-0.8280999999999997
 20
-12.4877
 30
0.0
  0
SEQEND
  5
2F7
  8
WORKING
  0
POLYLINE
  5
78
  8
WORKING
 66
     1
 10
0.0
 20
0.0
 30
0.0
 70
     1
  0
VERTEX
  5
12B
  8
WORKING
 10
-68.3829421837379
 20
-1.031395169011233
 30
0.0
  0
VERTEX
  5
12C
  8
WORKING
 10
-47.85660001438048
 20
-1.129499999931268
 30
0.0
  0
VERTEX
  5
12D
  8
WORKING
 10
-47.14047687840365
 20
-1.838612392643638
 30
0.0
  0
VERTEX
  5
12E
  8
WORKING
 10
-46.4400303098001
 20
-2.574122699688572
 30
0.0
  0
VERTEX
  5
12F
  8
WORKING
 10
-45.75572774286329
 20
-3.334985298643717
 30
0.0
  0
VERTEX
  5
130
  8
WORKING
 10
-45.08803661188663
 20
-4.120154567086715
 30
0.0
  0
VERTEX
  5
131
  8
WORKING
 10
-44.43742435116356
 20
-4.928584882595211
 30
0.0
  0
VERTEX
  5
132
  8
WORKING
 10
-43.80435839498751
 20
-5.75923062274685
 30
0.0
  0
VERTEX
  5
133
  8
WORKING
 10
-43.18930617765191
 20
-6.611046165119276
 30
0.0
  0
VERTEX
  5
134
  8
WORKING
 10
-42.5927351334502
 20
-7.482985887290131
 30
0.0
  0
VERTEX
  5
135
  8
WORKING
 10
-42.01511269667581
 20
-8.374004166837063
 30
0.0
  0
VERTEX
  5
136
  8
WORKING
 10
-41.45690630162217
 20
-9.283055381337713
 30
0.0
  0
VERTEX
  5
137
  8
WORKING
 10
-40.9185833825827
 20
-10.20909390836973
 30
0.0
  0
VERTEX
  5
138
  8
WORKING
 10
-40.40061137385086
 20
-11.15107412551075
 30
0.0
  0
VERTEX
  5
139
  8
WORKING
 10
-39.90345770972006
 20
-12.10795041033842
 30
0.0
  0
VERTEX
  5
13A
  8
WORKING
 10
-39.42758982448373
 20
-13.07867714043039
 30
0.0
  0
VERTEX
  5
13B
  8
WORKING
 10
-38.97347515243532
 20
-14.0622086933643
 30
0.0
  0
VERTEX
  5
13C
  8
WORKING
 10
-38.54158112786826
 20
-15.0574994467178
 30
0.0
  0
VERTEX
  5
13D
  8
WORKING
 10
-38.13237518507596
 20
-16.06350377806852
 30
0.0
  0
VERTEX
  5
13E
  8
WORKING
 10
-37.74632475835188
 20
-17.07917606499411
 30
0.0
  0
VERTEX
  5
13F
  8
WORKING
 10
-37.38389728198943
 20
-18.10347068507222
 30
0.0
  0
VERTEX
  5
140
  8
WORKING
 10
-37.04556019028205
 20
-19.1353420158805
 30
0.0
  0
VERTEX
  5
141
  8
WORKING
 10
-36.73178091752318
 20
-20.17374443499658
 30
0.0
  0
VERTEX
  5
142
  8
WORKING
 10
-36.44302689800624
 20
-21.21763231999811
 30
0.0
  0
VERTEX
  5
143
  8
WORKING
 10
-36.17976556602466
 20
-22.26596004846273
 30
0.0
  0
VERTEX
  5
144
  8
WORKING
 10
-35.94246435587189
 20
-23.31768199796809
 30
0.0
  0
VERTEX
  5
145
  8
WORKING
 10
-35.73159070184135
 20
-24.37175254609183
 30
0.0
  0
VERTEX
  5
146
  8
WORKING
 10
-35.54761203822648
 20
-25.4271260704116
 30
0.0
  0
VERTEX
  5
147
  8
WORKING
 10
-35.39099579932069
 20
-26.48275694850504
 30
0.0
  0
VERTEX
  5
148
  8
WORKING
 10
-35.26220941941745
 20
-27.53759955794979
 30
0.0
  0
VERTEX
  5
149
  8
WORKING
 10
-35.16172033281015
 20
-28.5906082763235
 30
0.0
  0
VERTEX
  5
14A
  8
WORKING
 10
-35.08999597379225
 20
-29.64073748120382
 30
0.0
  0
VERTEX
  5
14B
  8
WORKING
 10
-35.04750377665717
 20
-30.68694155016839
 30
0.0
  0
VERTEX
  5
14C
  8
WORKING
 10
-35.03471117569836
 20
-31.72817486079484
 30
0.0
  0
VERTEX
  5
14D
  8
WORKING
 10
-35.74295457333244
 20
-32.41464945702582
 30
0.0
  0
VERTEX
  5
14E
  8
WORKING
 10
-36.4768924608959
 20
-33.14506088531181
 30
0.0
  0
VERTEX
  5
14F
  8
WORKING
 10
-37.23287176901783
 20
-33.91337842114267
 30
0.0
  0
VERTEX
  5
150
  8
WORKING
 10
-38.00723942832728
 20
-34.71357134000826
 30
0.0
  0
VERTEX
  5
151
  8
WORKING
 10
-39.59652752302511
 20
-36.38546042880311
 30
0.0
  0
VERTEX
  5
152
  8
WORKING
 10
-41.21553219002202
 20
-38.11248235561525
 30
0.0
  0
VERTEX
  5
153
  8
WORKING
 10
-42.83502887435065
 20
-39.84639132436358
 30
0.0
  0
VERTEX
  5
154
  8
WORKING
 10
-44.42579302104363
 20
-41.53894153896701
 30
0.0
  0
VERTEX
  5
155
  8
WORKING
 10
-45.9586000751336
 20
-43.14188720334443
 30
0.0
  0
VERTEX
  5
156
  8
WORKING
 10
-46.69413701902516
 20
-43.89468151792305
 30
0.0
  0
VERTEX
  5
157
  8
WORKING
 10
-47.40422548165321
 20
-44.60698252141474
 30
0.0
  0
VERTEX
  5
158
  8
WORKING
 10
-47.58896032368889
 20
-44.80092423107111
 30
0.0
  0
VERTEX
  5
159
  8
WORKING
 10
-47.74535428135885
 20
-44.98333759723431
 30
0.0
  0
VERTEX
  5
15A
  8
WORKING
 10
-47.8733128486336
 20
-45.15172632232165
 30
0.0
  0
VERTEX
  5
15B
  8
WORKING
 10
-47.97274151948368
 20
-45.30359410875041
 30
0.0
  0
VERTEX
  5
15C
  8
WORKING
 10
-48.04354578787957
 20
-45.43644465893789
 30
0.0
  0
VERTEX
  5
15D
  8
WORKING
 10
-48.08563114779182
 20
-45.54778167530138
 30
0.0
  0
VERTEX
  5
15E
  8
WORKING
 10
-48.09890309319092
 20
-45.63510886025818
 30
0.0
  0
VERTEX
  5
15F
  8
WORKING
 10
-48.09470450231383
 20
-45.66898867296447
 30
0.0
  0
VERTEX
  5
160
  8
WORKING
 10
-48.0832671180474
 20
-45.69592991622558
 30
0.0
  0
VERTEX
  5
161
  8
WORKING
 10
-48.06457912713794
 20
-45.71562055284367
 30
0.0
  0
VERTEX
  5
162
  8
WORKING
 10
-48.03862871633177
 20
-45.72774854562088
 30
0.0
  0
VERTEX
  5
163
  8
WORKING
 10
-48.00540407237521
 20
-45.73200185735939
 30
0.0
  0
VERTEX
  5
164
  8
WORKING
 10
-47.96489338201456
 20
-45.72806845086136
 30
0.0
  0
VERTEX
  5
165
  8
WORKING
 10
-47.86196660906627
 20
-45.69439333436434
 30
0.0
  0
VERTEX
  5
166
  8
WORKING
 10
-47.72975389145744
 20
-45.62422689854708
 30
0.0
  0
VERTEX
  5
167
  8
WORKING
 10
-47.56816072315857
 20
-45.51507284582691
 30
0.0
  0
VERTEX
  5
168
  8
WORKING
 10
-47.37709259814017
 20
-45.36443487862109
 30
0.0
  0
VERTEX
  5
169
  8
WORKING
 10
-47.15645501037277
 20
-45.16981669934694
 30
0.0
  0
VERTEX
  5
16A
  8
WORKING
 10
-46.9061534538269
 20
-44.92872201042174
 30
0.0
  0
VERTEX
  5
16B
  8
WORKING
 10
-45.35155477311149
 20
-43.54203606171536
 30
0.0
  0
VERTEX
  5
16C
  8
WORKING
 10
-43.68658883180101
 20
-42.08949133156956
 30
0.0
  0
VERTEX
  5
16D
  8
WORKING
 10
-41.94953474532861
 20
-40.5972482899902
 30
0.0
  0
VERTEX
  5
16E
  8
WORKING
 10
-40.17867162912746
 20
-39.09146740698313
 30
0.0
  0
VERTEX
  5
16F
  8
WORKING
 10
-36.68863476927149
 20
-36.14393399670928
 30
0.0
  0
VERTEX
  5
170
  8
WORKING
 10
-35.04601925648299
 20
-34.7545024094542
 30
0.0
  0
VERTEX
  5
171
  8
WORKING
 10
-33.52271117569836
 20
-33.45617486079484
 30
0.0
  0
VERTEX
  5
172
  8
WORKING
 10
-32.35335873525368
 20
-33.63370768437218
 30
0.0
  0
VERTEX
  5
173
  8
WORKING
 10
-31.18236607780461
 20
-33.83909818565022
 30
0.0
  0
VERTEX
  5
174
  8
WORKING
 10
-30.01077608152219
 20
-34.07187205848098
 30
0.0
  0
VERTEX
  5
175
  8
WORKING
 10
-28.83963162457748
 20
-34.33155499671645
 30
0.0
  0
VERTEX
  5
176
  8
WORKING
 10
-27.66997558514153
 20
-34.61767269420866
 30
0.0
  0
VERTEX
  5
177
  8
WORKING
 10
-26.50285084138538
 20
-34.92975084480961
 30
0.0
  0
VERTEX
  5
178
  8
WORKING
 10
-25.33930027148009
 20
-35.26731514237132
 30
0.0
  0
VERTEX
  5
179
  8
WORKING
 10
-24.18036675359671
 20
-35.6298912807458
 30
0.0
  0
VERTEX
  5
17A
  8
WORKING
 10
-23.02709316590629
 20
-36.01700495378506
 30
0.0
  0
VERTEX
  5
17B
  8
WORKING
 10
-21.88052238657987
 20
-36.42818185534112
 30
0.0
  0
VERTEX
  5
17C
  8
WORKING
 10
-20.74169729378852
 20
-36.86294767926599
 30
0.0
  0
VERTEX
  5
17D
  8
WORKING
 10
-19.61166076570327
 20
-37.32082811941166
 30
0.0
  0
VERTEX
  5
17E
  8
WORKING
 10
-18.49145568049518
 20
-37.80134886963016
 30
0.0
  0
VERTEX
  5
17F
  8
WORKING
 10
-17.3821249163353
 20
-38.30403562377351
 30
0.0
  0
VERTEX
  5
180
  8
WORKING
 10
-16.28471135139468
 20
-38.82841407569371
 30
0.0
  0
VERTEX
  5
181
  8
WORKING
 10
-15.20025786384437
 20
-39.37400991924277
 30
0.0
  0
VERTEX
  5
182
  8
WORKING
 10
-14.12980733185542
 20
-39.94034884827271
 30
0.0
  0
VERTEX
  5
183
  8
WORKING
 10
-13.07440263359888
 20
-40.52695655663554
 30
0.0
  0
VERTEX
  5
184
  8
WORKING
 10
-12.03508664724579
 20
-41.13335873818326
 30
0.0
  0
VERTEX
  5
185
  8
WORKING
 10
-11.01290225096722
 20
-41.75908108676789
 30
0.0
  0
VERTEX
  5
186
  8
WORKING
 10
-10.00889232293421
 20
-42.40364929624144
 30
0.0
  0
VERTEX
  5
187
  8
WORKING
 10
-9.024099741317809
 20
-43.06658906045593
 30
0.0
  0
VERTEX
  5
188
  8
WORKING
 10
-8.059567384289071
 20
-43.74742607326337
 30
0.0
  0
VERTEX
  5
189
  8
WORKING
 10
-7.116338130019042
 20
-44.44568602851577
 30
0.0
  0
VERTEX
  5
18A
  8
WORKING
 10
-6.195454856678774
 20
-45.16089462006513
 30
0.0
  0
VERTEX
  5
18B
  8
WORKING
 10
-5.297960442439319
 20
-45.89257754176347
 30
0.0
  0
VERTEX
  5
18C
  8
WORKING
 10
-4.424897765471726
 20
-46.64026048746281
 30
0.0
  0
VERTEX
  5
18D
  8
WORKING
 10
-3.577309703947044
 20
-47.40346915101515
 30
0.0
  0
VERTEX
  5
18E
  8
WORKING
 10
-2.756239136036324
 20
-48.18172922627252
 30
0.0
  0
VERTEX
  5
18F
  8
WORKING
 10
-2.355973811614653
 20
-48.57635532261934
 30
0.0
  0
VERTEX
  5
190
  8
WORKING
 10
-1.962728939910617
 20
-48.9745664070869
 30
0.0
  0
VERTEX
  5
191
  8
WORKING
 10
-1.576634880695596
 20
-49.37630319140673
 30
0.0
  0
VERTEX
  5
192
  8
WORKING
 10
-1.197821993740972
 20
-49.78150638731033
 30
0.0
  0
VERTEX
  5
193
  8
WORKING
 10
-0.8264206388181261
 20
-50.19011670652918
 30
0.0
  0
VERTEX
  5
194
  8
WORKING
 10
-0.4625611756984398
 20
-50.60207486079481
 30
0.0
  0
VERTEX
  5
195
  8
WORKING
 10
-0.5514139051859788
 20
-52.8184247787929
 30
0.0
  0
VERTEX
  5
196
  8
WORKING
 10
-0.654699780076903
 20
-55.80266696455936
 30
0.0
  0
VERTEX
  5
197
  8
WORKING
 10
-0.7024131341303619
 20
-57.48713277976878
 30
0.0
  0
VERTEX
  5
198
  8
WORKING
 10
-0.74252435903274
 20
-59.24883380821593
 30
0.0
  0
VERTEX
  5
199
  8
WORKING
 10
-0.771296649616728
 20
-61.04952409866604
 30
0.0
  0
VERTEX
  5
19A
  8
WORKING
 10
-0.7849932007150167
 20
-62.85095769988433
 30
0.0
  0
VERTEX
  5
19B
  8
WORKING
 10
-0.7798772071602971
 20
-64.61488866063603
 30
0.0
  0
VERTEX
  5
19C
  8
WORKING
 10
-0.7522118637852602
 20
-66.30307102968632
 30
0.0
  0
VERTEX
  5
19D
  8
WORKING
 10
-0.7287554343003386
 20
-67.10680463256259
 30
0.0
  0
VERTEX
  5
19E
  8
WORKING
 10
-0.698260365422597
 20
-67.87725885580046
 30
0.0
  0
VERTEX
  5
19F
  8
WORKING
 10
-0.6602595565061211
 20
-68.60965295549559
 30
0.0
  0
VERTEX
  5
1A0
  8
WORKING
 10
-0.614285906904998
 20
-69.29920618774366
 30
0.0
  0
VERTEX
  5
1A1
  8
WORKING
 10
-0.5598723159733134
 20
-69.94113780864029
 30
0.0
  0
VERTEX
  5
1A2
  8
WORKING
 10
-0.4965516830651542
 20
-70.53066707428114
 30
0.0
  0
VERTEX
  5
1A3
  8
WORKING
 10
-0.4238569075346065
 20
-71.06301324076185
 30
0.0
  0
VERTEX
  5
1A4
  8
WORKING
 10
-0.3413208887357567
 20
-71.5333955641781
 30
0.0
  0
VERTEX
  5
1A5
  8
WORKING
 10
-0.2484765260226911
 20
-71.9370333006255
 30
0.0
  0
VERTEX
  5
1A6
  8
WORKING
 10
-0.1980427467464794
 20
-72.1123289662658
 30
0.0
  0
VERTEX
  5
1A7
  8
WORKING
 10
-0.1448567187494962
 20
-72.26914570619975
 30
0.0
  0
VERTEX
  5
1A8
  8
WORKING
 10
-0.0888600544510022
 20
-72.40688592743933
 30
0.0
  0
VERTEX
  5
1A9
  8
WORKING
 10
-0.0299943662702582
 20
-72.52495203699647
 30
0.0
  0
VERTEX
  5
1AA
  8
WORKING
 10
0.0317987333734749
 20
-72.62274644188315
 30
0.0
  0
VERTEX
  5
1AB
  8
WORKING
 10
0.0965776320609364
 20
-72.69967154911133
 30
0.0
  0
VERTEX
  5
1AC
  8
WORKING
 10
0.1095883690966956
 20
-72.72620834459462
 30
0.0
  0
VERTEX
  5
1AD
  8
WORKING
 10
0.1256584370818221
 20
-72.74227804568235
 30
0.0
  0
VERTEX
  5
1AE
  8
WORKING
 10
0.1435178726189158
 20
-72.74911152798349
 30
0.0
  0
VERTEX
  5
1AF
  8
WORKING
 10
0.1618967123105769
 20
-72.74793966710699
 30
0.0
  0
VERTEX
  5
1B0
  8
WORKING
 10
0.1951327505680013
 20
-72.72650341825701
 30
0.0
  0
VERTEX
  5
1B1
  8
WORKING
 10
0.2152068446748956
 20
-72.68781630400429
 30
0.0
 42
0.0431631988848717
  0
VERTEX
  5
1B2
  8
WORKING
 10
0.3892235542427613
 20
-71.00475649053298
 30
0.0
 42
-0.0019330013324685
  0
VERTEX
  5
1B3
  8
WORKING
 10
0.5286785967159631
 20
-64.242661802616
 30
0.0
 42
0.0037128839997846
  0
VERTEX
  5
1B4
  8
WORKING
 10
1.466333025765891
 20
-9.287107176806316
 30
0.0
 42
0.010175937022122
  0
VERTEX
  5
1B5
  8
WORKING
 10
1.367279374241079
 20
-0.0443730211906086
 30
0.0
 42
0.1098793585908631
  0
VERTEX
  5
1B6
  8
WORKING
 10
1.18302213388462
 20
0.6773923693001365
 30
0.0
 42
0.2874088347574625
  0
VERTEX
  5
1B7
  8
WORKING
 10
0.1957686032071422
 20
1.272186248927838
 30
0.0
 42
0.0001969939827162
  0
VERTEX
  5
1B8
  8
WORKING
 10
-34.87104013765543
 20
0.6448053503987978
 30
0.0
 42
-0.0001581413690182
  0
VERTEX
  5
1B9
  8
WORKING
 10
-69.93780002187614
 20
0.014699579527745
 30
0.0
 42
-0.0000152283198673
  0
VERTEX
  5
1BA
  8
WORKING
 10
-69.94460399176484
 20
-0.1159999993548183
 30
0.0
 42
0.0000462406529601
  0
VERTEX
  5
1BB
  8
WORKING
 10
-69.9513998550415
 20
-0.2467000000000012
 30
0.0
  0
VERTEX
  5
1BC
  8
WORKING
 10
-69.9512
 20
-0.2467000000000041
 30
0.0
 42
0.008747514222169
  0
VERTEX
  5
1BD
  8
WORKING
 10
-70.67338434283772
 20
-22.22120574326066
 30
0.0
 42
0.0111578594511456
  0
VERTEX
  5
1BE
  8
WORKING
 10
-70.55347064514162
 20
-39.45844157104489
 30
0.0
 42
-0.0029146033458098
  0
VERTEX
  5
1BF
  8
WORKING
 10
-70.40139591326611
 20
-45.94448615562629
 30
0.0
 42
0.0638054716260466
  0
VERTEX
  5
1C0
  8
WORKING
 10
-70.16660624755471
 20
-47.55178601827622
 30
0.0
 42
0.7641866156356206
  0
VERTEX
  5
1C1
  8
WORKING
 10
-69.67800626282182
 20
-47.54849729941004
 30
0.0
 42
0.0396900770064067
  0
VERTEX
  5
1C2
  8
WORKING
 10
-69.5019194670126
 20
-46.57911521024705
 30
0.0
 42
0.0173508880819689
  0
VERTEX
  5
1C3
  8
WORKING
 10
-69.31758505180308
 20
-43.77541861999645
 30
0.0
 42
-0.0120378234697564
  0
VERTEX
  5
1C4
  8
WORKING
 10
-68.69943749917967
 20
-32.55355860226305
 30
0.0
 42
0.0231334464097741
  0
VERTEX
  5
1C5
  8
WORKING
 10
-68.0714720544212
 20
-13.44106387411996
 30
0.0
 42
0.0076595407341226
  0
VERTEX
  5
1C6
  8
WORKING
 10
-68.4446999676441
 20
-1.031100000154643
 30
0.0
  0
VERTEX
  5
1C7
  8
WORKING
 10
-68.44469948232921
 20
-1.031100002474186
 30
0.0
  0
SEQEND
  5
2F8
  8
WORKING
  0
POLYLINE
  5
79
  8
WORKING
 66
     1
 10
0.0
 20
0.0
 30
0.0
 70
     1
  0
VERTEX
  5
1C8
  8
WORKING
 10
1.01128
 20
2.30784
 30
0.0
 42
-0.0196566793671084
  0
VERTEX
  5
1C9
  8
WORKING
 10
5.401017853716993
 20
6.453556056352509
 30
0.0
 42
0.0202686899823625
  0
VERTEX
  5
1CA
  8
WORKING
 10
8.767984575600114
 20
9.661616429625019
 30
0.0
 42
-0.1579653083621061
  0
VERTEX
  5
1CB
  8
WORKING
 10
1.005999999999999
 20
13.059876
 30
0.0
  0
SEQEND
  5
2F9
  8
WORKING
  0
POLYLINE
  5
7A
  8
WORKING
 66
     1
 10
0.0
 20
0.0
 30
0.0
 70
     1
  0
VERTEX
  5
1CC
  8
WORKING
 10
13.5054
 20
0.9907999999999991
 30
0.0
 42
-0.0408331857708687
  0
VERTEX
  5
1CD
  8
WORKING
 10
11.84282018442858
 20
3.127894265545138
 30
0.0
 42
-0.1366902065680965
  0
VERTEX
  5
1CE
  8
WORKING
 10
10.38078457560011
 20
8.83217642962502
 30
0.0
 42
0.0004953286228583
  0
VERTEX
  5
1CF
  8
WORKING
 10
1.809904575600115
 20
1.136816429625021
 30
0.0
  0
SEQEND
  5
2FA
  8
WORKING
  0
POLYLINE
  5
7B
  8
WORKING
 66
     1
 10
0.0
 20
0.0
 30
0.0
 70
     1
  0
VERTEX
  5
1D0
  8
WORKING
 10
47.14893097560006
 20
43.57779242962501
 30
0.0
 42
-0.0037137888229085
  0
VERTEX
  5
1D1
  8
WORKING
 10
35.09756447888399
 20
32.29179597321081
 30
0.0
 42
0.2631536240798503
  0
VERTEX
  5
1D2
  8
WORKING
 10
35.05153811677989
 20
32.11459361498019
 30
0.0
 42
-0.0544838869879189
  0
VERTEX
  5
1D3
  8
WORKING
 10
35.16036123352049
 20
31.40253651733399
 30
0.0
 42
0.0859037244936813
  0
VERTEX
  5
1D4
  8
WORKING
 10
38.01712747552595
 20
18.26910590676844
 30
0.0
 42
0.0566912465729239
  0
VERTEX
  5
1D5
  8
WORKING
 10
47.49273097560009
 20
1.57749242962502
 30
0.0
 42
0.3088393146727777
  0
VERTEX
  5
1D6
  8
WORKING
 10
47.6808756431123
 20
1.506757566301985
 30
0.0
 42
-0.0598819437822281
  0
VERTEX
  5
1D7
  8
WORKING
 10
48.46087955432493
 20
1.600698925365788
 30
0.0
 42
0.0000026168393542
  0
VERTEX
  5
1D8
  8
WORKING
 10
66.06873097560008
 20
1.289492429625021
 30
0.0
 42
-0.2515091023583261
  0
SEQEND
  5
2FB
  8
WORKING
  0
POLYLINE
  5
7C
  8
WORKING
 66
     1
 10
0.0
 20
0.0
 30
0.0
 70
     1
  0
VERTEX
  5
1D9
  8
WORKING
 10
48.7403
 20
46.27670000000001
 30
0.0
 42
0.1621864971842981
  0
VERTEX
  5
1DA
  8
WORKING
 10
55.78171638134284
 20
17.40148817696122
 30
0.0
 42
0.0569977047712366
  0
VERTEX
  5
1DB
  8
WORKING
 10
68.11699240722656
 20
1.979000244140624
 30
0.0
 42
0.0016194351677211
  0
VERTEX
  5
1DC
  8
WORKING
 10
68.91034902334152
 20
1.195650368056227
 30
0.0
 42
0.001055234522529
  0
VERTEX
  5
1DD
  8
WORKING
 10
70.1343
 20
0.0
 30
0.0
 42
0.0003135670251703
  0
VERTEX
  5
1DE
  8
WORKING
 10
35.06748777079881
 20
-0.6328764418930076
 30
0.0
 42
-0.0002944464481956
  0
VERTEX
  5
1DF
  8
WORKING
 10
0.0006997691616246
 20
-1.267093878570606
 30
0.0
 42
-0.3038869945803613
  0
VERTEX
  5
1E0
  8
WORKING
 10
-0.9956908551787234
 20
-0.6248582798081441
 30
0.0
 42
-0.0969845291801709
  0
VERTEX
  5
1E1
  8
WORKING
 10
-1.171519267827272
 20
0.180883968883752
 30
0.0
 42
-0.0102362171074085
  0
VERTEX
  5
1E2
  8
WORKING
 10
-1.183524952033861
 20
12.00873555038712
 30
0.0
 42
0.0000169910864072
  0
VERTEX
  5
1E3
  8
WORKING
 10
-0.2647052715003492
 20
59.30926680659651
 30
0.0
 42
-0.0003434382016464
  0
VERTEX
  5
1E4
  8
WORKING
 10
-0.1297005415133332
 20
66.03318120023367
 30
0.0
 42
0.0007378623665715
  0
VERTEX
  5
1E5
  8
WORKING
 10
0.0
 20
72.7572
 30
0.0
 42
0.1005215102863435
  0
VERTEX
  5
1E6
  8
WORKING
 10
26.81220234921311
 20
53.52477545922127
 30
0.0
 42
0.0444948024075549
  0
VERTEX
  5
1E7
  8
WORKING
 10
45.4249373046875
 20
47.0881958984375
 30
0.0
 42
0.0009906977897077
  0
VERTEX
  5
1E8
  8
WORKING
 10
46.49990561591446
 20
46.82281902208773
 30
0.0
 42
0.000475690531334
  0
SEQEND
  5
2FC
  8
WORKING
  0
POLYLINE
  5
7D
  8
WORKING
 66
     1
 10
0.0
 20
0.0
 30
0.0
 70
     1
  0
VERTEX
  5
1E9
  8
WORKING
 10
32.62214862000005
 20
32.12297309812502
 30
0.0
 42
-0.0482049200405385
  0
VERTEX
  5
1EA
  8
WORKING
 10
22.07177529366968
 20
33.76376945126523
 30
0.0
 42
-0.1446306760398696
  0
VERTEX
  5
1EB
  8
WORKING
 10
7.584922118596729
 20
41.46784469735176
 30
0.0
 42
-0.0338766193494841
  0
VERTEX
  5
1EC
  8
WORKING
 10
0.9790054296565631
 20
49.1367570763325
 30
0.0
 42
0.0035568734808866
  0
VERTEX
  5
1ED
  8
WORKING
 10
0.9788458212542659
 20
49.13699264318779
 30
0.0
 42
0.0035568734986532
  0
VERTEX
  5
1EE
  8
WORKING
 10
0.9786828776068788
 20
49.13722591546031
 30
0.0
  0
VERTEX
  5
1EF
  8
WORKING
 10
0.9619861027994434
 20
49.12619617761588
 30
0.0
 42
-0.0000272307302739
  0
VERTEX
  5
1F0
  8
WORKING
 10
1.113143101983106
 20
40.39849618726097
 30
0.0
 42
-0.0001072680164683
  0
VERTEX
  5
1F1
  8
WORKING
 10
1.155716911827338
 20
37.93399757838909
 30
0.0
 42
0.1596718755230681
  0
VERTEX
  5
1F2
  8
WORKING
 10
1.403190975600115
 20
37.22019242962502
 30
0.0
 42
0.0414467872642227
  0
VERTEX
  5
1F3
  8
WORKING
 10
4.78723343219757
 20
33.46267990007401
 30
0.0
 42
0.0549127383477365
  0
VERTEX
  5
1F4
  8
WORKING
 10
8.871230543335342
 20
30.39017751511979
 30
0.0
 42
0.0758816629058792
  0
VERTEX
  5
1F5
  8
WORKING
 10
19.2632375998497
 20
26.19361157941819
 30
0.0
 42
0.021475482182215
  0
VERTEX
  5
1F6
  8
WORKING
 10
21.64563174835622
 20
25.73695364771954
 30
0.0
 42
0.0155299688466668
  0
VERTEX
  5
1F7
  8
WORKING
 10
24.97704379270973
 20
25.35085592445559
 30
0.0
 42
0.2703359597273033
  0
VERTEX
  5
1F8
  8
WORKING
 10
25.15383801587264
 20
25.43489334561778
 30
0.0
 42
-0.0589335249973773
  0
VERTEX
  5
1F9
  8
WORKING
 10
25.65960345993042
 20
26.01534120979309
 30
0.0
 42
-0.0038997322343602
  0
VERTEX
  5
1FA
  8
WORKING
 10
27.36160167150638
 20
27.53394260266154
 30
0.0
 42
-0.0011569142231971
  0
SEQEND
  5
2FD
  8
WORKING
  0
POLYLINE
  5
7E
  8
WORKING
 66
     1
 10
0.0
 20
0.0
 30
0.0
 70
     1
  0
VERTEX
  5
1FB
  8
WORKING
 10
15.9301312139399
 20
16.17910598766609
 30
0.0
 42
-0.0408928138080967
  0
VERTEX
  5
1FC
  8
WORKING
 10
9.874077127480474
 20
17.63763048147406
 30
0.0
 42
-0.1674810382695818
  0
VERTEX
  5
1FD
  8
WORKING
 10
0.9539648001106412
 20
23.36223519315401
 30
0.0
 42
-0.0020402918161469
  0
VERTEX
  5
1FE
  8
WORKING
 10
1.013167412328894
 20
19.15251201306352
 30
0.0
 42
0.002040291629744
  0
VERTEX
  5
1FF
  8
WORKING
 10
1.072370022720486
 20
14.25158883295096
 30
0.0
 42
0.284540350065749
  0
VERTEX
  5
200
  8
WORKING
 10
1.188931701515283
 20
14.06997150611467
 30
0.0
 42
-0.0423499881476731
  0
VERTEX
  5
201
  8
WORKING
 10
1.917199896746683
 20
13.64284611467738
 30
0.0
 42
0.0608602781657024
  0
VERTEX
  5
202
  8
WORKING
 10
5.469029899540084
 20
11.78681533325052
 30
0.0
 42
0.0512310981137444
  0
VERTEX
  5
203
  8
WORKING
 10
9.855970018656967
 20
10.64658997516312
 30
0.0
 42
0.3171362037041421
  0
VERTEX
  5
204
  8
WORKING
 10
10.01214457560011
 20
10.72145642962502
 30
0.0
 42
-0.0650980624475015
  0
VERTEX
  5
205
  8
WORKING
 10
13.60056295762904
 20
13.97175476698718
 30
0.0
 42
0.0010345975351603
  0
VERTEX
  5
206
  8
WORKING
 10
15.94451732487308
 20
16.16503179433498
 30
0.0
 42
1.0
  0
VERTEX
  5
207
  8
WORKING
 10
15.95002085189334
 20
16.18121042526514
 30
0.0
  0
SEQEND
  5
2FE
  8
WORKING
  0
POLYLINE
  5
7F
  8
WORKING
 66
     1
 10
0.0
 20
0.0
 30
0.0
 70
     1
  0
VERTEX
  5
208
  8
WORKING
 10
17.42259472560007
 20
15.13437524212502
 30
0.0
  0
VERTEX
  5
209
  8
WORKING
 10
11.44062457560011
 20
9.84593642962502
 30
0.0
  0
VERTEX
  5
20A
  8
WORKING
 10
11.46641156166379
 20
9.258695588282524
 30
0.0
  0
VERTEX
  5
20B
  8
WORKING
 10
11.52072746437299
 20
8.661803927023785
 30
0.0
  0
VERTEX
  5
20C
  8
WORKING
 10
11.60254940582686
 20
8.058289714891531
 30
0.0
  0
VERTEX
  5
20D
  8
WORKING
 10
11.71085450812454
 20
7.451181220928495
 30
0.0
  0
VERTEX
  5
20E
  8
WORKING
 10
11.84461989336517
 20
6.843506714177408
 30
0.0
  0
VERTEX
  5
20F
  8
WORKING
 10
12.00282268364788
 20
6.238294463680997
 30
0.0
  0
VERTEX
  5
210
  8
WORKING
 10
12.18444000107182
 20
5.638572738481997
 30
0.0
  0
VERTEX
  5
211
  8
WORKING
 10
12.38844896773611
 20
5.047369807623138
 30
0.0
  0
VERTEX
  5
212
  8
WORKING
 10
12.6138267057399
 20
4.467713940147149
 30
0.0
  0
VERTEX
  5
213
  8
WORKING
 10
12.85955033718233
 20
3.902633405096764
 30
0.0
  0
VERTEX
  5
214
  8
WORKING
 10
13.12459698416254
 20
3.355156471514711
 30
0.0
  0
VERTEX
  5
215
  8
WORKING
 10
13.40794376877966
 20
2.828311408443722
 30
0.0
  0
VERTEX
  5
216
  8
WORKING
 10
13.70856781313284
 20
2.325126484926528
 30
0.0
  0
VERTEX
  5
217
  8
WORKING
 10
14.02544623932121
 20
1.848629970005859
 30
0.0
  0
VERTEX
  5
218
  8
WORKING
 10
14.18966119625957
 20
1.621336199845075
 30
0.0
  0
VERTEX
  5
219
  8
WORKING
 10
14.3575561694439
 20
1.401850132724447
 30
0.0
  0
VERTEX
  5
21A
  8
WORKING
 10
14.52900329913661
 20
1.190550302274315
 30
0.0
  0
VERTEX
  5
21B
  8
WORKING
 10
14.70387472560007
 20
0.9878152421250217
 30
0.0
  0
VERTEX
  5
21C
  8
WORKING
 10
23.30073097560009
 20
0.9294924296250207
 30
0.0
  0
VERTEX
  5
21D
  8
WORKING
 10
22.88374999479485
 20
1.315975280088836
 30
0.0
  0
VERTEX
  5
21E
  8
WORKING
 10
22.48331103604384
 20
1.701788780036844
 30
0.0
  0
VERTEX
  5
21F
  8
WORKING
 10
22.09926498890287
 20
2.087370314439507
 30
0.0
  0
VERTEX
  5
220
  8
WORKING
 10
21.73146274292777
 20
2.47315726826729
 30
0.0
  0
VERTEX
  5
221
  8
WORKING
 10
21.37975518767437
 20
2.859587026490654
 30
0.0
  0
VERTEX
  5
222
  8
WORKING
 10
21.04399321269848
 20
3.247096974080066
 30
0.0
  0
VERTEX
  5
223
  8
WORKING
 10
20.72402770755593
 20
3.636124496005987
 30
0.0
  0
VERTEX
  5
224
  8
WORKING
 10
20.41970956180252
 20
4.02710697723888
 30
0.0
  0
VERTEX
  5
225
  8
WORKING
 10
20.13088966499409
 20
4.42048180274921
 30
0.0
  0
VERTEX
  5
226
  8
WORKING
 10
19.85741890668645
 20
4.816686357507439
 30
0.0
  0
VERTEX
  5
227
  8
WORKING
 10
19.59914817643543
 20
5.216158026484032
 30
0.0
  0
VERTEX
  5
228
  8
WORKING
 10
19.35592836379685
 20
5.619334194649451
 30
0.0
  0
VERTEX
  5
229
  8
WORKING
 10
19.12761035832651
 20
6.02665224697416
 30
0.0
  0
VERTEX
  5
22A
  8
WORKING
 10
18.91404504958026
 20
6.438549568428622
 30
0.0
  0
VERTEX
  5
22B
  8
WORKING
 10
18.71508332711391
 20
6.8554635439833
 30
0.0
  0
VERTEX
  5
22C
  8
WORKING
 10
18.53057608048326
 20
7.277831558608659
 30
0.0
  0
VERTEX
  5
22D
  8
WORKING
 10
18.36037419924416
 20
7.706090997275161
 30
0.0
  0
VERTEX
  5
22E
  8
WORKING
 10
18.20432857295241
 20
8.140679244953269
 30
0.0
  0
VERTEX
  5
22F
  8
WORKING
 10
18.06229009116385
 20
8.58203368661345
 30
0.0
  0
VERTEX
  5
230
  8
WORKING
 10
17.93410964343428
 20
9.030591707226161
 30
0.0
  0
VERTEX
  5
231
  8
WORKING
 10
17.81963811931953
 20
9.486790691761872
 30
0.0
  0
VERTEX
  5
232
  8
WORKING
 10
17.71872640837542
 20
9.951068025191041
 30
0.0
  0
VERTEX
  5
233
  8
WORKING
 10
17.63122540015777
 20
10.42386109248413
 30
0.0
  0
VERTEX
  5
234
  8
WORKING
 10
17.55698598422241
 20
10.90560727861162
 30
0.0
  0
VERTEX
  5
235
  8
WORKING
 10
17.49585905012514
 20
11.39674396854395
 30
0.0
  0
VERTEX
  5
236
  8
WORKING
 10
17.4476954874218
 20
11.8977085472516
 30
0.0
  0
VERTEX
  5
237
  8
WORKING
 10
17.41234618566821
 20
12.40893839970502
 30
0.0
  0
VERTEX
  5
238
  8
WORKING
 10
17.38966203442017
 20
12.93087091087468
 30
0.0
  0
VERTEX
  5
239
  8
WORKING
 10
17.37949392323352
 20
13.46394346573105
 30
0.0
  0
VERTEX
  5
23A
  8
WORKING
 10
17.38169274166407
 20
14.00859344924459
 30
0.0
  0
VERTEX
  5
23B
  8
WORKING
 10
17.39610937926764
 20
14.56525824638576
 30
0.0
  0
SEQEND
  5
2FF
  8
WORKING
  0
POLYLINE
  5
80
  8
WORKING
 66
     1
 10
0.0
 20
0.0
 30
0.0
 70
     1
  0
VERTEX
  5
23C
  8
WORKING
 10
25.14182063566558
 20
22.1293672702197
 30
0.0
  0
VERTEX
  5
23D
  8
WORKING
 10
18.12622247726158
 20
15.84511638401295
 30
0.0
  0
VERTEX
  5
23E
  8
WORKING
 10
18.15255505023662
 20
15.28900809209001
 30
0.0
  0
VERTEX
  5
23F
  8
WORKING
 10
18.19368936532055
 20
14.73276673818712
 30
0.0
  0
VERTEX
  5
240
  8
WORKING
 10
18.24929441486763
 20
14.17700075781419
 30
0.0
  0
VERTEX
  5
241
  8
WORKING
 10
18.31903919123212
 20
13.62231858648115
 30
0.0
  0
VERTEX
  5
242
  8
WORKING
 10
18.40259268676829
 20
13.06932865969791
 30
0.0
  0
VERTEX
  5
243
  8
WORKING
 10
18.49962389383037
 20
12.51863941297439
 30
0.0
  0
VERTEX
  5
244
  8
WORKING
 10
18.60980180477266
 20
11.97085928182052
 30
0.0
  0
VERTEX
  5
245
  8
WORKING
 10
18.73279541194939
 20
11.42659670174622
 30
0.0
  0
VERTEX
  5
246
  8
WORKING
 10
18.86827370771482
 20
10.8864601082614
 30
0.0
  0
VERTEX
  5
247
  8
WORKING
 10
19.01590568442323
 20
10.35105793687599
 30
0.0
  0
VERTEX
  5
248
  8
WORKING
 10
19.17536033442886
 20
9.8209986230999
 30
0.0
  0
VERTEX
  5
249
  8
WORKING
 10
19.34630665008598
 20
9.29689060244306
 30
0.0
  0
VERTEX
  5
24A
  8
WORKING
 10
19.52841362374884
 20
8.779342310415384
 30
0.0
  0
VERTEX
  5
24B
  8
WORKING
 10
19.72135024777171
 20
8.268962182526796
 30
0.0
  0
VERTEX
  5
24C
  8
WORKING
 10
19.92478551450885
 20
7.766358654287213
 30
0.0
  0
VERTEX
  5
24D
  8
WORKING
 10
20.13838841631451
 20
7.272140161206559
 30
0.0
  0
VERTEX
  5
24E
  8
WORKING
 10
20.36182794554295
 20
6.786915138794752
 30
0.0
  0
VERTEX
  5
24F
  8
WORKING
 10
20.59477309454843
 20
6.311292022561712
 30
0.0
  0
VERTEX
  5
250
  8
WORKING
 10
20.83689285568522
 20
5.845879248017359
 30
0.0
  0
VERTEX
  5
251
  8
WORKING
 10
21.08785622130757
 20
5.391285250671613
 30
0.0
  0
VERTEX
  5
252
  8
WORKING
 10
21.34733218376974
 20
4.948118466034396
 30
0.0
  0
VERTEX
  5
253
  8
WORKING
 10
21.614989735426
 20
4.516987329615627
 30
0.0
  0
VERTEX
  5
254
  8
WORKING
 10
21.89049786863059
 20
4.098500276925225
 30
0.0
  0
VERTEX
  5
255
  8
WORKING
 10
22.17352557573779
 20
3.693265743473113
 30
0.0
  0
VERTEX
  5
256
  8
WORKING
 10
22.46374184910184
 20
3.301892164769209
 30
0.0
  0
VERTEX
  5
257
  8
WORKING
 10
22.76081568107702
 20
2.924987976323433
 30
0.0
  0
VERTEX
  5
258
  8
WORKING
 10
23.06441606401757
 20
2.563161613645708
 30
0.0
  0
VERTEX
  5
259
  8
WORKING
 10
23.37421199027776
 20
2.217021512245951
 30
0.0
  0
VERTEX
  5
25A
  8
WORKING
 10
23.68987245221185
 20
1.887176107634084
 30
0.0
  0
VERTEX
  5
25B
  8
WORKING
 10
24.01106644217409
 20
1.574233835320026
 30
0.0
  0
VERTEX
  5
25C
  8
WORKING
 10
24.33746295251876
 20
1.278803130813698
 30
0.0
  0
VERTEX
  5
25D
  8
WORKING
 10
24.66873097560009
 20
1.001492429625021
 30
0.0
  0
VERTEX
  5
25E
  8
WORKING
 10
31.58073097560009
 20
0.9294924296250207
 30
0.0
  0
VERTEX
  5
25F
  8
WORKING
 10
30.93302977325542
 20
1.568895782977066
 30
0.0
  0
VERTEX
  5
260
  8
WORKING
 10
30.31565029908599
 20
2.204812400928332
 30
0.0
  0
VERTEX
  5
261
  8
WORKING
 10
29.72844093030152
 20
2.837739942408681
 30
0.0
  0
VERTEX
  5
262
  8
WORKING
 10
29.17125004411173
 20
3.468176066347977
 30
0.0
  0
VERTEX
  5
263
  8
WORKING
 10
28.64392601772631
 20
4.096618431676079
 30
0.0
  0
VERTEX
  5
264
  8
WORKING
 10
28.14631722835498
 20
4.72356469732285
 30
0.0
  0
VERTEX
  5
265
  8
WORKING
 10
27.67827205320747
 20
5.349512522218152
 30
0.0
  0
VERTEX
  5
266
  8
WORKING
 10
27.23963886949347
 20
5.974959565291849
 30
0.0
  0
VERTEX
  5
267
  8
WORKING
 10
26.83026605442271
 20
6.6004034854738
 30
0.0
  0
VERTEX
  5
268
  8
WORKING
 10
26.45000198520489
 20
7.226341941693869
 30
0.0
  0
VERTEX
  5
269
  8
WORKING
 10
26.09869503904972
 20
7.853272592881916
 30
0.0
  0
VERTEX
  5
26A
  8
WORKING
 10
25.77619359316692
 20
8.481693097967806
 30
0.0
  0
VERTEX
  5
26B
  8
WORKING
 10
25.48234602476621
 20
9.112101115881398
 30
0.0
  0
VERTEX
  5
26C
  8
WORKING
 10
25.21700071105729
 20
9.744994305552556
 30
0.0
  0
VERTEX
  5
26D
  8
WORKING
 10
24.98000602924987
 20
10.38087032591114
 30
0.0
  0
VERTEX
  5
26E
  8
WORKING
 10
24.77121035655367
 20
11.02022683588702
 30
0.0
  0
VERTEX
  5
26F
  8
WORKING
 10
24.5904620701784
 20
11.66356149441004
 30
0.0
  0
VERTEX
  5
270
  8
WORKING
 10
24.43760954733379
 20
12.31137196041008
 30
0.0
  0
VERTEX
  5
271
  8
WORKING
 10
24.31250116522952
 20
12.96415589281699
 30
0.0
  0
VERTEX
  5
272
  8
WORKING
 10
24.21498530107532
 20
13.62241095056064
 30
0.0
  0
VERTEX
  5
273
  8
WORKING
 10
24.1449103320809
 20
14.28663479257089
 30
0.0
  0
VERTEX
  5
274
  8
WORKING
 10
24.10212463545598
 20
14.9573250777776
 30
0.0
  0
VERTEX
  5
275
  8
WORKING
 10
24.08647658841026
 20
15.63497946511063
 30
0.0
  0
VERTEX
  5
276
  8
WORKING
 10
24.09781456815346
 20
16.32009561349985
 30
0.0
  0
VERTEX
  5
277
  8
WORKING
 10
24.13598695189529
 20
17.01317118187512
 30
0.0
  0
VERTEX
  5
278
  8
WORKING
 10
24.20084211684546
 20
17.7147038291663
 30
0.0
  0
VERTEX
  5
279
  8
WORKING
 10
24.29222844021368
 20
18.42519121430324
 30
0.0
  0
VERTEX
  5
27A
  8
WORKING
 10
24.40999429920968
 20
19.14513099621582
 30
0.0
  0
VERTEX
  5
27B
  8
WORKING
 10
24.55398807104315
 20
19.87502083383389
 30
0.0
  0
VERTEX
  5
27C
  8
WORKING
 10
24.72405813292382
 20
20.61535838608732
 30
0.0
  0
VERTEX
  5
27D
  8
WORKING
 10
24.92005286206139
 20
21.36664131190597
 30
0.0
  0
SEQEND
  5
300
  8
WORKING
  0
POLYLINE
  5
81
  8
WORKING
 66
     1
 10
0.0
 20
0.0
 30
0.0
 70
     1
  0
VERTEX
  5
27E
  8
WORKING
 10
33.83128782000004
 20
30.85485149812502
 30
0.0
  0
VERTEX
  5
27F
  8
WORKING
 10
26.16839533054253
 20
23.11254664601395
 30
0.0
  0
VERTEX
  5
280
  8
WORKING
 10
26.06170429062841
 20
22.41075587087407
 30
0.0
  0
VERTEX
  5
281
  8
WORKING
 10
25.98131322696202
 20
21.69991851671092
 30
0.0
  0
VERTEX
  5
282
  8
WORKING
 10
25.92670553887872
 20
20.98099453388409
 30
0.0
  0
VERTEX
  5
283
  8
WORKING
 10
25.8973646257139
 20
20.25494387275318
 30
0.0
  0
VERTEX
  5
284
  8
WORKING
 10
25.89277388680291
 20
19.52272648367781
 30
0.0
  0
VERTEX
  5
285
  8
WORKING
 10
25.91241672148113
 20
18.78530231701757
 30
0.0
  0
VERTEX
  5
286
  8
WORKING
 10
25.95577652908393
 20
18.04363132313207
 30
0.0
  0
VERTEX
  5
287
  8
WORKING
 10
26.02233670894668
 20
17.29867345238091
 30
0.0
  0
VERTEX
  5
288
  8
WORKING
 10
26.11158066040475
 20
16.5513886551237
 30
0.0
  0
VERTEX
  5
289
  8
WORKING
 10
26.22299178279351
 20
15.80273688172003
 30
0.0
  0
VERTEX
  5
28A
  8
WORKING
 10
26.35605347544833
 20
15.05367808252952
 30
0.0
  0
VERTEX
  5
28B
  8
WORKING
 10
26.51024913770458
 20
14.30517220791176
 30
0.0
  0
VERTEX
  5
28C
  8
WORKING
 10
26.68506216889763
 20
13.55817920822637
 30
0.0
  0
VERTEX
  5
28D
  8
WORKING
 10
26.87997596836285
 20
12.81365903383294
 30
0.0
  0
VERTEX
  5
28E
  8
WORKING
 10
27.09447393543561
 20
12.07257163509107
 30
0.0
  0
VERTEX
  5
28F
  8
WORKING
 10
27.32803946945128
 20
11.33587696236038
 30
0.0
  0
VERTEX
  5
290
  8
WORKING
 10
27.58015596974523
 20
10.60453496600045
 30
0.0
  0
VERTEX
  5
291
  8
WORKING
 10
27.85030683565283
 20
9.87950559637091
 30
0.0
  0
VERTEX
  5
292
  8
WORKING
 10
28.13797546650946
 20
9.161748803831347
 30
0.0
  0
VERTEX
  5
293
  8
WORKING
 10
28.44264526165048
 20
8.452224538741373
 30
0.0
  0
VERTEX
  5
294
  8
WORKING
 10
28.76379962041126
 20
7.751892751460586
 30
0.0
  0
VERTEX
  5
295
  8
WORKING
 10
29.10092194212718
 20
7.061713392348591
 30
0.0
  0
VERTEX
  5
296
  8
WORKING
 10
29.4534956261336
 20
6.382646411764992
 30
0.0
  0
VERTEX
  5
297
  8
WORKING
 10
29.82100407176589
 20
5.715651760069393
 30
0.0
  0
VERTEX
  5
298
  8
WORKING
 10
30.20293067835942
 20
5.061689387621398
 30
0.0
  0
VERTEX
  5
299
  8
WORKING
 10
30.59875884524957
 20
4.421719244780609
 30
0.0
  0
VERTEX
  5
29A
  8
WORKING
 10
31.0079719717717
 20
3.79670128190663
 30
0.0
  0
VERTEX
  5
29B
  8
WORKING
 10
31.43005345726119
 20
3.187595449359065
 30
0.0
  0
VERTEX
  5
29C
  8
WORKING
 10
31.8644867010534
 20
2.595361697497519
 30
0.0
  0
VERTEX
  5
29D
  8
WORKING
 10
32.31075510248371
 20
2.020959976681593
 30
0.0
  0
VERTEX
  5
29E
  8
WORKING
 10
32.76834206088748
 20
1.465350237270892
 30
0.0
  0
VERTEX
  5
29F
  8
WORKING
 10
33.23673097560009
 20
0.9294924296250207
 30
0.0
  0
VERTEX
  5
2A0
  8
WORKING
 10
45.69273097560009
 20
1.073492429625021
 30
0.0
  0
VERTEX
  5
2A1
  8
WORKING
 10
44.76670530238047
 20
1.979481534434848
 30
0.0
  0
VERTEX
  5
2A2
  8
WORKING
 10
43.88349117477047
 20
2.869074705212266
 30
0.0
  0
VERTEX
  5
2A3
  8
WORKING
 10
43.04239037740015
 20
3.744070750625554
 30
0.0
  0
VERTEX
  5
2A4
  8
WORKING
 10
42.24270469489957
 20
4.606268479342989
 30
0.0
  0
VERTEX
  5
2A5
  8
WORKING
 10
41.48373591189876
 20
5.457466700032851
 30
0.0
  0
VERTEX
  5
2A6
  8
WORKING
 10
40.76478581302779
 20
6.299464221363417
 30
0.0
  0
VERTEX
  5
2A7
  8
WORKING
 10
40.08515618291669
 20
7.134059852002966
 30
0.0
  0
VERTEX
  5
2A8
  8
WORKING
 10
39.44414880619553
 20
7.963052400619774
 30
0.0
  0
VERTEX
  5
2A9
  8
WORKING
 10
38.84106546749435
 20
8.788240675882122
 30
0.0
  0
VERTEX
  5
2AA
  8
WORKING
 10
38.27520795144321
 20
9.611423486458289
 30
0.0
  0
VERTEX
  5
2AB
  8
WORKING
 10
38.00602068460829
 20
10.02282497019789
 30
0.0
  0
VERTEX
  5
2AC
  8
WORKING
 10
37.74587804267216
 20
10.43439964101655
 30
0.0
  0
VERTEX
  5
2AD
  8
WORKING
 10
37.49469274871355
 20
10.8463723499978
 30
0.0
  0
VERTEX
  5
2AE
  8
WORKING
 10
37.25237752581123
 20
11.25896794822518
 30
0.0
  0
VERTEX
  5
2AF
  8
WORKING
 10
37.01884509704396
 20
11.67241128678223
 30
0.0
  0
VERTEX
  5
2B0
  8
WORKING
 10
36.7940081854905
 20
12.08692721675247
 30
0.0
  0
VERTEX
  5
2B1
  8
WORKING
 10
36.5777795142296
 20
12.50274058921945
 30
0.0
  0
VERTEX
  5
2B2
  8
WORKING
 10
36.37007180634001
 20
12.92007625526669
 30
0.0
  0
VERTEX
  5
2B3
  8
WORKING
 10
36.17079778490049
 20
13.33915906597774
 30
0.0
  0
VERTEX
  5
2B4
  8
WORKING
 10
35.97987017298981
 20
13.76021387243612
 30
0.0
  0
VERTEX
  5
2B5
  8
WORKING
 10
35.7972016936867
 20
14.18346552572537
 30
0.0
  0
VERTEX
  5
2B6
  8
WORKING
 10
35.62270507006994
 20
14.60913887692903
 30
0.0
  0
VERTEX
  5
2B7
  8
WORKING
 10
35.45629302521829
 20
15.03745877713064
 30
0.0
  0
VERTEX
  5
2B8
  8
WORKING
 10
35.29787828221048
 20
15.46865007741371
 30
0.0
  0
VERTEX
  5
2B9
  8
WORKING
 10
35.14737356412527
 20
15.9029376288618
 30
0.0
  0
VERTEX
  5
2BA
  8
WORKING
 10
35.00469159404144
 20
16.34054628255844
 30
0.0
  0
VERTEX
  5
2BB
  8
WORKING
 10
34.86974509503774
 20
16.78170088958716
 30
0.0
  0
VERTEX
  5
2BC
  8
WORKING
 10
34.74244679019291
 20
17.22662630103149
 30
0.0
  0
VERTEX
  5
2BD
  8
WORKING
 10
34.62270940258571
 20
17.67554736797497
 30
0.0
  0
VERTEX
  5
2BE
  8
WORKING
 10
34.51044565529492
 20
18.12868894150113
 30
0.0
  0
VERTEX
  5
2BF
  8
WORKING
 10
34.40556827139926
 20
18.58627587269352
 30
0.0
  0
VERTEX
  5
2C0
  8
WORKING
 10
34.30798997397751
 20
19.04853301263566
 30
0.0
  0
VERTEX
  5
2C1
  8
WORKING
 10
34.21762348610844
 20
19.51568521241109
 30
0.0
  0
VERTEX
  5
2C2
  8
WORKING
 10
34.13438153087077
 20
19.98795732310334
 30
0.0
  0
VERTEX
  5
2C3
  8
WORKING
 10
34.05817683134327
 20
20.46557419579595
 30
0.0
  0
VERTEX
  5
2C4
  8
WORKING
 10
33.98892211060472
 20
20.94876068157246
 30
0.0
  0
VERTEX
  5
2C5
  8
WORKING
 10
33.87091349780942
 20
21.93274189671129
 30
0.0
  0
VERTEX
  5
2C6
  8
WORKING
 10
33.77965747711492
 20
22.94169977718811
 30
0.0
  0
VERTEX
  5
2C7
  8
WORKING
 10
33.71445583315126
 20
23.97743313167121
 30
0.0
  0
VERTEX
  5
2C8
  8
WORKING
 10
33.67461035054851
 20
25.04174076882885
 30
0.0
  0
VERTEX
  5
2C9
  8
WORKING
 10
33.65942281393671
 20
26.13642149732932
 30
0.0
  0
VERTEX
  5
2CA
  8
WORKING
 10
33.66819500794591
 20
27.26327412584089
 30
0.0
  0
VERTEX
  5
2CB
  8
WORKING
 10
33.70022871720617
 20
28.42409746303185
 30
0.0
  0
VERTEX
  5
2CC
  8
WORKING
 10
33.75482572634753
 20
29.62069031757046
 30
0.0
  0
SEQEND
  5
301
  8
WORKING
  0
POLYLINE
  5
82
  8
WORKING
 66
     1
 10
0.0
 20
0.0
 30
0.0
 70
     1
  0
VERTEX
  5
2CD
  8
WORKING
 10
23.79817641964433
 20
24.36400865106668
 30
0.0
 42
-0.044488059824196
  0
VERTEX
  5
2CE
  8
WORKING
 10
14.92600461302879
 20
25.8164483465043
 30
0.0
 42
-0.157560617972672
  0
VERTEX
  5
2CF
  8
WORKING
 10
0.9570813220132103
 20
35.97854906583319
 30
0.0
 42
0.1420581536674382
  0
VERTEX
  5
2D0
  8
WORKING
 10
0.9488775648027705
 20
35.98608527854339
 30
0.0
  0
VERTEX
  5
2D1
  8
WORKING
 10
0.9398536056000651
 20
35.96823620212503
 30
0.0
 42
-0.0001535463652724
  0
VERTEX
  5
2D2
  8
WORKING
 10
0.9701184225949011
 20
33.34974670515172
 30
0.0
 42
-0.0000604408642224
  0
VERTEX
  5
2D3
  8
WORKING
 10
1.110013352426887
 20
24.75106505717337
 30
0.0
 42
0.198171639303988
  0
VERTEX
  5
2D4
  8
WORKING
 10
1.360803575345846
 20
24.16995136208099
 30
0.0
 42
0.049915816890496
  0
VERTEX
  5
2D5
  8
WORKING
 10
4.979059981967508
 20
21.34821592181921
 30
0.0
 42
0.0569638944474652
  0
VERTEX
  5
2D6
  8
WORKING
 10
9.91005290947969
 20
18.91253181253958
 30
0.0
 42
0.0446481812766226
  0
VERTEX
  5
2D7
  8
WORKING
 10
16.69013841859717
 20
17.13965007647349
 30
0.0
 42
0.3159078180868491
  0
VERTEX
  5
2D8
  8
WORKING
 10
16.85441322349586
 20
17.21808456425094
 30
0.0
 42
-0.0640785340979561
  0
VERTEX
  5
2D9
  8
WORKING
 10
17.27991458892822
 20
17.78796633381843
 30
0.0
 42
-0.0049766923860941
  0
VERTEX
  5
2DA
  8
WORKING
 10
21.66345623169737
 20
22.22540551057424
 30
0.0
 42
-0.0092716973497193
  0
VERTEX
  5
2DB
  8
WORKING
 10
23.81176379259389
 20
24.34908388501607
 30
0.0
 42
0.2528013519021914
  0
SEQEND
  5
302
  8
WORKING
  0
POLYLINE
  5
83
  8
WORKING
 66
     1
 10
0.0
 20
0.0
 30
0.0
 70
     1
  0
VERTEX
  5
2DC
  8
WORKING
 10
46.68813097560006
 20
45.47859242962501
 30
0.0
 42
-0.0254371637290453
  0
VERTEX
  5
2DD
  8
WORKING
 10
31.03683370170241
 20
49.55128653940762
 30
0.0
 42
-0.0734414646719687
  0
VERTEX
  5
2DE
  8
WORKING
 10
17.79173318530917
 20
55.13261953107156
 30
0.0
 42
-0.053513842565574
  0
VERTEX
  5
2DF
  8
WORKING
 10
9.834944268356786
 20
61.21100182112315
 30
0.0
 42
-0.0388493015293858
  0
VERTEX
  5
2E0
  8
WORKING
 10
0.8308429736870514
 20
69.84355140459623
 30
0.0
 42
0.0088302525455996
  0
VERTEX
  5
2E1
  8
WORKING
 10
0.8304021978072994
 20
69.8441033722717
 30
0.0
 42
0.0088302525439165
  0
VERTEX
  5
2E2
  8
WORKING
 10
0.8299422053388867
 20
69.84463943068273
 30
0.0
  0
VERTEX
  5
2E3
  8
WORKING
 10
0.81435974586134
 20
69.83206542856728
 30
0.0
 42
-0.0156888531402943
  0
VERTEX
  5
2E4
  8
WORKING
 10
0.9972736620488551
 20
57.9589121225701
 30
0.0
 42
0.0157106528432496
  0
VERTEX
  5
2E5
  8
WORKING
 10
0.9018187262645803
 20
51.0629367649005
 30
0.0
 42
0.2103955148549138
  0
VERTEX
  5
2E6
  8
WORKING
 10
0.9819637736550155
 20
50.88924883485071
 30
0.0
 42
-0.0486056683461754
  0
VERTEX
  5
2E7
  8
WORKING
 10
1.498230975600112
 20
50.334992429625
 30
0.0
 42
0.0658720115976322
  0
VERTEX
  5
2E8
  8
WORKING
 10
9.797240016514099
 20
42.09793576678999
 30
0.0
 42
0.1335513798843611
  0
VERTEX
  5
2E9
  8
WORKING
 10
30.31668224498034
 20
33.67853916524054
 30
0.0
 42
0.0013584337847806
  0
VERTEX
  5
2EA
  8
WORKING
 10
33.28553943230089
 20
33.31719182059594
 30
0.0
 42
0.054860514319633
  0
VERTEX
  5
2EB
  8
WORKING
 10
34.03414644251163
 20
33.31061224981553
 30
0.0
 42
0.2047455975329454
  0
VERTEX
  5
2EC
  8
WORKING
 10
34.24503846089745
 20
33.42712199927892
 30
0.0
 42
-0.0461164646997317
  0
VERTEX
  5
2ED
  8
WORKING
 10
34.89860881434679
 20
34.1226273967445
 30
0.0
 42
0.004686204285276
  0
SEQEND
  5
303
  8
WORKING
  0
ENDSEC
  0
EOF
